  0
SECTION
  2
HEADER
  9
$ACADVER
  1
AC1018
  9
$ACADMAINTVER
 70
    39
  9
$DWGCODEPAGE
  3
ANSI_1252
  9
$INSBASE
 10
0.0
 20
0.0
 30
0.0
  9
$EXTMIN
 10
-31.82486538171551
 20
0.8464598953750552
 30
0.0
  9
$EXTMAX
 10
9.975134618284492
 20
32.44645989537506
 30
0.0
  9
$LIMMIN
 10
0.0
 20
0.0
  9
$LIMMAX
 10
0.0
 20
0.0
  9
$ORTHOMODE
 70
     0
  9
$REGENMODE
 70
     1
  9
$FILLMODE
 70
     1
  9
$QTEXTMODE
 70
     0
  9
$MIRRTEXT
 70
     1
  9
$LTSCALE
 40
1.0
  9
$ATTMODE
 70
     1
  9
$TEXTSIZE
 40
0.2
  9
$TRACEWID
 40
0.05
  9
$TEXTSTYLE
  7
STANDARD
  9
$CLAYER
  8
0
  9
$CELTYPE
  6
CONTINUOUS
  9
$CECOLOR
 62
   256
  9
$CELTSCALE
 40
1.0
  9
$DISPSILH
 70
     0
  9
$DIMSCALE
 40
1.0
  9
$DIMASZ
 40
0.094
  9
$DIMEXO
 40
0.05
  9
$DIMDLI
 40
0.38
  9
$DIMRND
 40
0.0
  9
$DIMDLE
 40
0.125
  9
$DIMEXE
 40
0.18
  9
$DIMTP
 40
0.0
  9
$DIMTM
 40
0.0
  9
$DIMTXT
 40
0.1
  9
$DIMCEN
 40
0.09
  9
$DIMTSZ
 40
0.0
  9
$DIMTOL
 70
     0
  9
$DIMLIM
 70
     0
  9
$DIMTIH
 70
     1
  9
$DIMTOH
 70
     1
  9
$DIMSE1
 70
     0
  9
$DIMSE2
 70
     0
  9
$DIMTAD
 70
     0
  9
$DIMZIN
 70
     0
  9
$DIMBLK
  1

  9
$DIMASO
 70
     1
  9
$DIMSHO
 70
     1
  9
$DIMPOST
  1

  9
$DIMAPOST
  1

  9
$DIMALT
 70
     0
  9
$DIMALTD
 70
     2
  9
$DIMALTF
 40
25.4
  9
$DIMLFAC
 40
1.0
  9
$DIMTOFL
 70
     0
  9
$DIMTVP
 40
0.0
  9
$DIMTIX
 70
     0
  9
$DIMSOXD
 70
     0
  9
$DIMSAH
 70
     0
  9
$DIMBLK1
  1

  9
$DIMBLK2
  1

  9
$DIMSTYLE
  2
STANDARD
  9
$DIMCLRD
 70
     0
  9
$DIMCLRE
 70
     0
  9
$DIMCLRT
 70
     0
  9
$DIMTFAC
 40
1.0
  9
$DIMGAP
 40
0.05
  9
$DIMJUST
 70
     0
  9
$DIMSD1
 70
     0
  9
$DIMSD2
 70
     0
  9
$DIMTOLJ
 70
     1
  9
$DIMTZIN
 70
     0
  9
$DIMALTZ
 70
     0
  9
$DIMALTTZ
 70
     0
  9
$DIMUPT
 70
     0
  9
$DIMDEC
 70
     4
  9
$DIMTDEC
 70
     4
  9
$DIMALTU
 70
     2
  9
$DIMALTTD
 70
     2
  9
$DIMTXSTY
  7
STANDARD
  9
$DIMAUNIT
 70
     0
  9
$DIMADEC
 70
     0
  9
$DIMALTRND
 40
0.0
  9
$DIMAZIN
 70
     0
  9
$DIMDSEP
 70
    46
  9
$DIMATFIT
 70
     3
  9
$DIMFRAC
 70
     0
  9
$DIMLDRBLK
  1

  9
$DIMLUNIT
 70
     2
  9
$DIMLWD
 70
    -2
  9
$DIMLWE
 70
    -2
  9
$DIMTMOVE
 70
     0
  9
$LUNITS
 70
     2
  9
$LUPREC
 70
     3
  9
$SKETCHINC
 40
0.1
  9
$FILLETRAD
 40
0.0
  9
$AUNITS
 70
     0
  9
$AUPREC
 70
     0
  9
$MENU
  1
acad
  9
$ELEVATION
 40
0.0
  9
$PELEVATION
 40
0.0
  9
$THICKNESS
 40
0.0
  9
$LIMCHECK
 70
     0
  9
$CHAMFERA
 40
0.0
  9
$CHAMFERB
 40
0.0
  9
$CHAMFERC
 40
0.0
  9
$CHAMFERD
 40
0.0
  9
$SKPOLY
 70
     0
  9
$TDCREATE
 40
2444971.750000000
  9
$TDUCREATE
 40
2444972.000000000
  9
$TDUPDATE
 40
2453427.360106921
  9
$TDUUPDATE
 40
2453427.610106921
  9
$TDINDWG
 40
0.0477327662
  9
$TDUSRTIMER
 40
0.0477327662
  9
$USRTIMER
 70
     1
  9
$ANGBASE
 50
0.0
  9
$ANGDIR
 70
     0
  9
$PDMODE
 70
     0
  9
$PDSIZE
 40
-1.0
  9
$PLINEWID
 40
0.0
  9
$SPLFRAME
 70
     0
  9
$SPLINETYPE
 70
     6
  9
$SPLINESEGS
 70
     8
  9
$HANDSEED
  5
1D20
  9
$SURFTAB1
 70
     6
  9
$SURFTAB2
 70
     6
  9
$SURFTYPE
 70
     6
  9
$SURFU
 70
     6
  9
$SURFV
 70
     6
  9
$UCSBASE
  2

  9
$UCSNAME
  2

  9
$UCSORG
 10
0.0
 20
0.0
 30
0.0
  9
$UCSXDIR
 10
1.0
 20
0.0
 30
0.0
  9
$UCSYDIR
 10
0.0
 20
1.0
 30
0.0
  9
$UCSORTHOREF
  2

  9
$UCSORTHOVIEW
 70
     0
  9
$UCSORGTOP
 10
0.0
 20
0.0
 30
0.0
  9
$UCSORGBOTTOM
 10
0.0
 20
0.0
 30
0.0
  9
$UCSORGLEFT
 10
0.0
 20
0.0
 30
0.0
  9
$UCSORGRIGHT
 10
0.0
 20
0.0
 30
0.0
  9
$UCSORGFRONT
 10
0.0
 20
0.0
 30
0.0
  9
$UCSORGBACK
 10
0.0
 20
0.0
 30
0.0
  9
$PUCSBASE
  2

  9
$PUCSNAME
  2

  9
$PUCSORG
 10
0.0
 20
0.0
 30
0.0
  9
$PUCSXDIR
 10
1.0
 20
0.0
 30
0.0
  9
$PUCSYDIR
 10
0.0
 20
1.0
 30
0.0
  9
$PUCSORTHOREF
  2

  9
$PUCSORTHOVIEW
 70
     0
  9
$PUCSORGTOP
 10
0.0
 20
0.0
 30
0.0
  9
$PUCSORGBOTTOM
 10
0.0
 20
0.0
 30
0.0
  9
$PUCSORGLEFT
 10
0.0
 20
0.0
 30
0.0
  9
$PUCSORGRIGHT
 10
0.0
 20
0.0
 30
0.0
  9
$PUCSORGFRONT
 10
0.0
 20
0.0
 30
0.0
  9
$PUCSORGBACK
 10
0.0
 20
0.0
 30
0.0
  9
$USERI1
 70
     0
  9
$USERI2
 70
     0
  9
$USERI3
 70
     0
  9
$USERI4
 70
     0
  9
$USERI5
 70
     0
  9
$USERR1
 40
0.0
  9
$USERR2
 40
0.0
  9
$USERR3
 40
0.0
  9
$USERR4
 40
0.0
  9
$USERR5
 40
0.0
  9
$WORLDVIEW
 70
     1
  9
$SHADEDGE
 70
     3
  9
$SHADEDIF
 70
    70
  9
$TILEMODE
 70
     1
  9
$MAXACTVP
 70
    16
  9
$PINSBASE
 10
0.0
 20
0.0
 30
0.0
  9
$PLIMCHECK
 70
     0
  9
$PEXTMIN
 10
1.000000000000000E+20
 20
1.000000000000000E+20
 30
1.000000000000000E+20
  9
$PEXTMAX
 10
-1.000000000000000E+20
 20
-1.000000000000000E+20
 30
-1.000000000000000E+20
  9
$PLIMMIN
 10
0.0
 20
0.0
  9
$PLIMMAX
 10
12.0
 20
9.0
  9
$UNITMODE
 70
     0
  9
$VISRETAIN
 70
     0
  9
$PLINEGEN
 70
     1
  9
$PSLTSCALE
 70
     1
  9
$TREEDEPTH
 70
  3020
  9
$CMLSTYLE
  2
STANDARD
  9
$CMLJUST
 70
     0
  9
$CMLSCALE
 40
1.0
  9
$PROXYGRAPHICS
 70
     1
  9
$MEASUREMENT
 70
     0
  9
$CELWEIGHT
370
    -1
  9
$ENDCAPS
280
     0
  9
$JOINSTYLE
280
     0
  9
$LWDISPLAY
290
     0
  9
$INSUNITS
 70
     0
  9
$HYPERLINKBASE
  1

  9
$STYLESHEET
  1
monochrome.ctb
  9
$XEDIT
290
     1
  9
$CEPSNTYPE
380
     0
  9
$PSTYLEMODE
290
     1
  9
$FINGERPRINTGUID
  2
{502DC9A0-7064-475C-802E-EC64DE88CDBC}
  9
$VERSIONGUID
  2
{38621C95-1526-41BF-B88A-728499B09624}
  9
$EXTNAMES
290
     1
  9
$PSVPSCALE
 40
0.0
  9
$OLESTARTUP
290
     0
  9
$SORTENTS
280
   127
  9
$INDEXCTL
280
     0
  9
$HIDETEXT
280
     0
  9
$XCLIPFRAME
290
     0
  9
$HALOGAP
280
     0
  9
$OBSCOLOR
 70
   257
  9
$OBSLTYPE
280
     0
  9
$INTERSECTIONDISPLAY
280
     0
  9
$INTERSECTIONCOLOR
 70
   257
  9
$DIMASSOC
280
     1
  9
$PROJECTNAME
  1

  0
ENDSEC
  0
SECTION
  2
CLASSES
  0
CLASS
  1
IMAGE
  2
AcDbRasterImage
  3
ISM
 90
      127
 91
        0
280
     0
281
     1
  0
CLASS
  1
DICTIONARYVAR
  2
AcDbDictionaryVar
  3
ObjectDBX Classes
 90
        0
 91
        3
280
     0
281
     0
  0
CLASS
  1
RASTERVARIABLES
  2
AcDbRasterVariables
  3
ISM
 90
        0
 91
        0
280
     0
281
     0
  0
CLASS
  1
IMAGEDEF
  2
AcDbRasterImageDef
  3
ISM
 90
        0
 91
        0
280
     0
281
     0
  0
CLASS
  1
IMAGEDEF_REACTOR
  2
AcDbRasterImageDefReactor
  3
ISM
 90
        1
 91
        0
280
     0
281
     0
  0
CLASS
  1
IDBUFFER
  2
AcDbIdBuffer
  3
ObjectDBX Classes
 90
        0
 91
        0
280
     0
281
     0
  0
CLASS
  1
SPATIAL_FILTER
  2
AcDbSpatialFilter
  3
ObjectDBX Classes
 90
        0
 91
        0
280
     0
281
     0
  0
CLASS
  1
SORTENTSTABLE
  2
AcDbSortentsTable
  3
ObjectDBX Classes
 90
        0
 91
        0
280
     0
281
     0
  0
CLASS
  1
LAYER_INDEX
  2
AcDbLayerIndex
  3
ObjectDBX Classes
 90
        0
 91
        0
280
     0
281
     0
  0
CLASS
  1
SPATIAL_INDEX
  2
AcDbSpatialIndex
  3
ObjectDBX Classes
 90
        0
 91
        0
280
     0
281
     0
  0
CLASS
  1
OBJECT_PTR
  2
CAseDLPNTableRecord
  3
ASE-LPNTableRecord
 90
        1
 91
        0
280
     0
281
     0
  0
CLASS
  1
PLOTSETTINGS
  2
AcDbPlotSettings
  3
ObjectDBX Classes
 90
        0
 91
        0
280
     0
281
     0
  0
CLASS
  1
ACDBDICTIONARYWDFLT
  2
AcDbDictionaryWithDefault
  3
ObjectDBX Classes
 90
        0
 91
        1
280
     0
281
     0
  0
CLASS
  1
WIPEOUT
  2
AcDbWipeout
  3
"WipeOut|Product Desc: Object Enabler for WipeOut entity^I^I^I^I^I^I|Company: Autodesk, Inc.^I^I^I^I^I^I|WEB Address: www.autodesk.com"
 90
      127
 91
        0
280
     0
281
     1
  0
CLASS
  1
WIPEOUTVARIABLES
  2
AcDbWipeoutVariables
  3
"WipeOut|Product Desc:     WipeOut Dbx Application|Company:          Autodesk, Inc.|WEB Address:      www.autodesk.com"
 90
        0
 91
        0
280
     0
281
     0
  0
CLASS
  1
RTEXT
  2
RText
  3
RText|AutoCAD Express Tool|expresstools@autodesk.com
 90
     1023
 91
        0
280
     0
281
     1
  0
CLASS
  1
ARCALIGNEDTEXT
  2
AcDbArcAlignedText
  3
ATEXT|AutoCAD Express Tool|expresstools@autodesk.com
 90
        0
 91
        0
280
     0
281
     1
  0
CLASS
  1
TABLESTYLE
  2
AcDbTableStyle
  3
ObjectDBX Classes
 90
     2047
 91
        1
280
     0
281
     0
  0
ENDSEC
  0
SECTION
  2
TABLES
  0
TABLE
  2
VPORT
  5
7
330
0
100
AcDbSymbolTable
 70
     3
  0
VPORT
  5
1D1F
330
7
100
AcDbSymbolTableRecord
100
AcDbViewportTableRecord
  2
*Active
 70
     0
 10
0.0
 20
0.0
 11
1.0
 21
1.0
 12
-10.92509859581621
 22
16.68837513785858
 13
0.0
 23
0.0
 14
1.0
 24
1.0
 15
0.0
 25
0.0
 16
0.0
 26
0.0
 36
1.0
 17
0.0
 27
0.0
 37
0.0
 40
31.9260147921426
 41
1.514429109159347
 42
50.0
 43
0.0
 44
0.0
 50
0.0
 51
0.0
 71
     0
 72
  2000
 73
     1
 74
     1
 75
     0
 76
     0
 77
     0
 78
     0
281
     0
 65
     1
110
0.0
120
0.0
130
0.0
111
1.0
121
0.0
131
0.0
112
0.0
122
1.0
132
0.0
 79
     0
146
0.0
  0
ENDTAB
  0
TABLE
  2
LTYPE
  5
4
330
0
100
AcDbSymbolTable
 70
     6
  0
LTYPE
  5
11
330
4
100
AcDbSymbolTableRecord
100
AcDbLinetypeTableRecord
  2
BYBLOCK
 70
     0
  3

 72
    65
 73
     0
 40
0.0
  0
LTYPE
  5
12
330
4
100
AcDbSymbolTableRecord
100
AcDbLinetypeTableRecord
  2
BYLAYER
 70
     0
  3

 72
    65
 73
     0
 40
0.0
  0
LTYPE
  5
13
330
4
100
AcDbSymbolTableRecord
100
AcDbLinetypeTableRecord
  2
CONTINUOUS
 70
     0
  3
Solid line
 72
    65
 73
     0
 40
0.0
  0
LTYPE
  5
1D
330
4
100
AcDbSymbolTableRecord
100
AcDbLinetypeTableRecord
  2
HIDDEN
 70
     0
  3
Hidden __ __ __ __ __ __ __ __ __ __ __ __ __ __
 72
    65
 73
     2
 40
0.075
 49
0.05
 74
     0
 49
-0.025
 74
     0
  0
LTYPE
  5
1E
330
4
100
AcDbSymbolTableRecord
100
AcDbLinetypeTableRecord
  2
PHANTOM
 70
     0
  3
Phantom ______  __  __  ______  __  __  ______
 72
    65
 73
     6
 40
0.5
 49
0.25
 74
     0
 49
-0.05
 74
     0
 49
0.05
 74
     0
 49
-0.05
 74
     0
 49
0.05
 74
     0
 49
-0.05
 74
     0
  0
LTYPE
  5
1F
330
4
100
AcDbSymbolTableRecord
100
AcDbLinetypeTableRecord
  2
CENTER
 70
     0
  3
Center ____ _ ____ _ ____ _ ____ _ ____ _ ____
 72
    65
 73
     4
 40
0.4
 49
0.25
 74
     0
 49
-0.05
 74
     0
 49
0.05
 74
     0
 49
-0.05
 74
     0
  0
LTYPE
  5
20
330
4
100
AcDbSymbolTableRecord
100
AcDbLinetypeTableRecord
  2
CENTERX2
 70
     0
  3
Center (2x) ________  __  ________  __  _____
 72
    65
 73
     4
 40
0.8
 49
0.5
 74
     0
 49
-0.1
 74
     0
 49
0.1
 74
     0
 49
-0.1
 74
     0
  0
LTYPE
  5
21
330
4
100
AcDbSymbolTableRecord
100
AcDbLinetypeTableRecord
  2
DOT2
 70
     0
  3
Dot (.5x) ........................................
 72
    65
 73
     2
 40
0.025
 49
0.0
 74
     0
 49
-0.025
 74
     0
  0
ENDTAB
  0
TABLE
  2
LAYER
  5
2
330
0
100
AcDbSymbolTable
 70
     9
  0
LAYER
  5
14
330
2
100
AcDbSymbolTableRecord
100
AcDbLayerTableRecord
  2
0
 70
     0
 62
     7
  6
CONTINUOUS
370
    -3
390
1AF1
  0
LAYER
  5
23
330
2
100
AcDbSymbolTableRecord
100
AcDbLayerTableRecord
  2
DEFPOINTS
 70
     0
 62
     7
  6
CONTINUOUS
290
     0
370
    -3
390
1AF1
  0
LAYER
  5
1C3C
330
2
100
AcDbSymbolTableRecord
100
AcDbLayerTableRecord
  2
PART
 70
     0
 62
     1
  6
CONTINUOUS
370
    -3
390
1AF1
  0
LAYER
  5
1C3D
330
2
100
AcDbSymbolTableRecord
100
AcDbLayerTableRecord
  2
DIM
 70
     0
 62
     2
  6
CONTINUOUS
370
    -3
390
1AF1
  0
LAYER
  5
1C3E
330
2
100
AcDbSymbolTableRecord
100
AcDbLayerTableRecord
  2
CENTER
 70
     0
 62
     5
  6
CENTER
370
    -3
390
1AF1
  0
LAYER
  5
1C3F
330
2
100
AcDbSymbolTableRecord
100
AcDbLayerTableRecord
  2
HIDDEN
 70
     0
 62
     3
  6
HIDDEN
370
    -3
390
1AF1
  0
LAYER
  5
1C40
330
2
100
AcDbSymbolTableRecord
100
AcDbLayerTableRecord
  2
PHANTOM
 70
     0
 62
     6
  6
PHANTOM
370
    -3
390
1AF1
  0
LAYER
  5
1C41
330
2
100
AcDbSymbolTableRecord
100
AcDbLayerTableRecord
  2
TRIM
 70
     0
 62
     1
  6
CONTINUOUS
370
    -3
390
1AF1
  0
LAYER
  5
1C42
330
2
100
AcDbSymbolTableRecord
100
AcDbLayerTableRecord
  2
SOLID
 70
     0
 62
     5
  6
CONTINUOUS
370
    -3
390
1AF1
  0
ENDTAB
  0
TABLE
  2
STYLE
  5
3
330
0
100
AcDbSymbolTable
 70
     6
  0
STYLE
  5
17
330
3
100
AcDbSymbolTableRecord
100
AcDbTextStyleTableRecord
  2
STANDARD
 70
     0
 40
0.0
 41
1.0
 50
0.0
 71
     0
 42
0.2
  3
simplex.shx
  4

  0
STYLE
  5
B7
330
3
100
AcDbSymbolTableRecord
100
AcDbTextStyleTableRecord
  2
SLDTEXTSTYLE0
 70
     0
 40
0.0
 41
0.75
 50
0.0
 71
     0
 42
0.0
  3
txt
  4

  0
STYLE
  5
1C43
330
3
100
AcDbSymbolTableRecord
100
AcDbTextStyleTableRecord
  2

 70
     1
 40
0.0
 41
1.0
 50
0.0
 71
     0
 42
0.2
  3
ltypeshp.shx
  4

  0
STYLE
  5
1C44
330
3
100
AcDbSymbolTableRecord
100
AcDbTextStyleTableRecord
  2
ROMAND
 70
     0
 40
0.0
 41
1.0
 50
0.0
 71
     0
 42
0.1
  3
romand.shx
  4

  0
STYLE
  5
1C45
330
3
100
AcDbSymbolTableRecord
100
AcDbTextStyleTableRecord
  2
SIMPLEX
 70
     0
 40
0.0
 41
1.0
 50
0.0
 71
     0
 42
0.2
  3
SIMPLEX.shx
  4

  0
STYLE
  5
1C46
330
3
100
AcDbSymbolTableRecord
100
AcDbTextStyleTableRecord
  2
SCRIPT
 70
     0
 40
0.0
 41
0.95
 50
0.0
 71
     0
 42
0.09
  3
scripts.shx
  4

  0
ENDTAB
  0
TABLE
  2
VIEW
  5
5
330
0
100
AcDbSymbolTable
 70
     0
  0
ENDTAB
  0
TABLE
  2
UCS
  5
6
330
0
100
AcDbSymbolTable
 70
     0
  0
ENDTAB
  0
TABLE
  2
APPID
  5
8
330
0
100
AcDbSymbolTable
 70
     3
  0
APPID
  5
16
330
8
100
AcDbSymbolTableRecord
100
AcDbRegAppTableRecord
  2
ACAD
 70
     0
  0
APPID
  5
1AFA
330
8
100
AcDbSymbolTableRecord
100
AcDbRegAppTableRecord
  2
DCO15
 70
     0
  0
APPID
  5
1D07
330
8
100
AcDbSymbolTableRecord
100
AcDbRegAppTableRecord
  2
ACAD_PSEXT
 70
     0
  0
ENDTAB
  0
TABLE
  2
DIMSTYLE
  5
9
330
0
100
AcDbSymbolTable
 70
     1
100
AcDbDimStyleTable
 71
     1
340
18
  0
DIMSTYLE
105
18
330
9
100
AcDbSymbolTableRecord
100
AcDbDimStyleTableRecord
  2
STANDARD
 70
     0
289
     0
340
17
  0
ENDTAB
  0
TABLE
  2
BLOCK_RECORD
  5
1
330
0
100
AcDbSymbolTable
 70
    15
  0
BLOCK_RECORD
  5
A
330
1
100
AcDbSymbolTableRecord
100
AcDbBlockTableRecord
  2
*MODEL_SPACE
340
1AF4
  0
BLOCK_RECORD
  5
B
330
1
100
AcDbSymbolTableRecord
100
AcDbBlockTableRecord
  2
*PAPER_SPACE
340
1AF5
  0
BLOCK_RECORD
  5
1B17
330
1
100
AcDbSymbolTableRecord
100
AcDbBlockTableRecord
  2
A$C435B465C
340
0
  0
BLOCK_RECORD
  5
1B8E
330
1
100
AcDbSymbolTableRecord
100
AcDbBlockTableRecord
  2
A$C4FB65283
340
0
102
{BLKREFS
331
1C48
331
1BA0
102
}
  0
BLOCK_RECORD
  5
1B92
330
1
100
AcDbSymbolTableRecord
100
AcDbBlockTableRecord
  2
A$C2BBE0097
340
0
  0
BLOCK_RECORD
  5
1B96
330
1
100
AcDbSymbolTableRecord
100
AcDbBlockTableRecord
  2
A$C10236829
340
0
  0
BLOCK_RECORD
  5
1B9A
330
1
100
AcDbSymbolTableRecord
100
AcDbBlockTableRecord
  2
A$C794932C0
340
0
  0
BLOCK_RECORD
  5
1B9E
330
1
100
AcDbSymbolTableRecord
100
AcDbBlockTableRecord
  2
TEST
340
0
  0
BLOCK_RECORD
  5
1C1C
330
1
100
AcDbSymbolTableRecord
100
AcDbBlockTableRecord
  2
A$C56887695
340
0
  0
BLOCK_RECORD
  5
1C20
330
1
100
AcDbSymbolTableRecord
100
AcDbBlockTableRecord
  2
A$C406F4052
340
0
  0
BLOCK_RECORD
  5
1C24
330
1
100
AcDbSymbolTableRecord
100
AcDbBlockTableRecord
  2
A$C217D2A32
340
0
  0
BLOCK_RECORD
  5
1C28
330
1
100
AcDbSymbolTableRecord
100
AcDbBlockTableRecord
  2
A$C26835032
340
0
  0
BLOCK_RECORD
  5
1C2C
330
1
100
AcDbSymbolTableRecord
100
AcDbBlockTableRecord
  2
A$C11730435
340
0
  0
BLOCK_RECORD
  5
1C30
330
1
100
AcDbSymbolTableRecord
100
AcDbBlockTableRecord
  2
A$C740A492C
340
0
  0
BLOCK_RECORD
  5
1C34
330
1
100
AcDbSymbolTableRecord
100
AcDbBlockTableRecord
  2
A$C251463E3
340
0
  0
BLOCK_RECORD
  5
1C38
330
1
100
AcDbSymbolTableRecord
100
AcDbBlockTableRecord
  2
A$C46507260
340
0
  0
BLOCK_RECORD
  5
1C47
330
1
100
AcDbSymbolTableRecord
100
AcDbBlockTableRecord
  2
tft_aprlist
340
0
102
{BLKREFS
331
1CD0
102
}
  0
ENDTAB
  0
ENDSEC
  0
SECTION
  2
BLOCKS
  0
BLOCK
  5
D
330
A
100
AcDbEntity
  8
0
100
AcDbBlockBegin
  2
*MODEL_SPACE
 70
     0
 10
0.0
 20
0.0
 30
0.0
  3
*MODEL_SPACE
  1

  0
ENDBLK
  5
E
330
A
100
AcDbEntity
  8
0
100
AcDbBlockEnd
  0
BLOCK
  5
F
330
B
100
AcDbEntity
 67
     1
  8
0
100
AcDbBlockBegin
  2
*PAPER_SPACE
 70
     0
 10
0.0
 20
0.0
 30
0.0
  3
*PAPER_SPACE
  1

  0
ENDBLK
  5
10
330
B
100
AcDbEntity
 67
     1
  8
0
100
AcDbBlockEnd
  0
BLOCK
  5
1B18
330
1B17
100
AcDbEntity
  8
0
100
AcDbBlockBegin
  2
A$C435B465C
 70
     0
 10
0.0
 20
0.0
 30
0.0
  3
A$C435B465C
  1

  0
LINE
  5
1B19
330
1B17
100
AcDbEntity
  8
TRIM
100
AcDbLine
 10
10.41999999853406
 20
7.86999999827346
 30
0.0
 11
0.0299999985340644
 21
7.86999999827346
 31
0.0
  0
LINE
  5
1B1A
330
1B17
100
AcDbEntity
  8
TRIM
100
AcDbLine
 10
-0.0000000014659345
 20
7.899999998273461
 30
0.0
 11
10.44999999853406
 21
7.899999998273461
 31
0.0
  0
LINE
  5
1B1B
330
1B17
100
AcDbEntity
  8
TRIM
100
AcDbLine
 10
0.0299999985340644
 20
7.86999999827346
 30
0.0
 11
0.0299999985340652
 21
0.9877074628274646
 31
0.0
  0
LINE
  5
1B1C
330
1B17
100
AcDbEntity
  8
TRIM
100
AcDbLine
 10
-0.0000000014659349
 20
7.899999998273461
 30
0.0
 11
-0.0000000014659349
 21
-0.000000001726538
 31
0.0
  0
LINE
  5
1B1D
330
1B17
100
AcDbEntity
  8
TRIM
100
AcDbLine
 10
10.41999999853406
 20
2.432499998273461
 30
0.0
 11
10.41999999853406
 21
7.869999998273458
 31
0.0
  0
LINE
  5
1B1E
330
1B17
100
AcDbEntity
  8
TRIM
100
AcDbLine
 10
10.44999999853406
 20
-0.0000000017265407
 30
0.0
 11
10.44999999853406
 21
7.899999998273459
 31
0.0
  0
SOLID
  5
1B1F
330
1B17
100
AcDbEntity
  8
SOLID
 62
     1
100
AcDbTrace
 10
8.850645714660327
 20
1.336824719979944
 30
0.0
 11
8.953204583077742
 21
1.529709898068546
 31
0.0
 12
8.844321504076491
 22
1.344775342338473
 32
0.0
 13
8.947606642518891
 23
1.539026435684056
 33
0.0
  0
SOLID
  5
1B20
330
1B17
100
AcDbEntity
  8
SOLID
 62
     1
100
AcDbTrace
 10
8.743633161575985
 20
1.330656234914544
 30
0.0
 11
8.928899857892716
 21
1.55144848583807
 31
0.0
 12
8.835889223298043
 22
1.355376172149846
 32
0.0
 13
8.94014272177376
 23
1.55144848583807
 33
0.0
  0
SOLID
  5
1B21
330
1B17
100
AcDbEntity
  8
SOLID
 62
     1
100
AcDbTrace
 10
8.775982480684099
 20
1.551448485838069
 30
0.0
 11
9.123139625704464
 21
1.644468962492971
 31
0.0
 12
9.073679760929408
 22
1.551448485838069
 32
0.0
 13
9.073679760929408
 23
1.551448485838069
 33
0.0
  0
SOLID
  5
1B22
330
1B17
100
AcDbEntity
  8
SOLID
 62
     1
100
AcDbTrace
 10
8.816585180362723
 20
1.57518819906379
 30
0.0
 11
9.147519865140669
 21
1.663861880597488
 31
0.0
 12
8.834870359939877
 22
1.589732887642179
 32
0.0
 13
9.165805044717822
 23
1.678406569175877
 33
0.0
  0
LINE
  5
1B23
330
1B17
100
AcDbEntity
  8
TRIM
100
AcDbLine
 10
10.41999999853406
 20
2.402499998273461
 30
0.0
 11
8.026999998534064
 21
2.402499998273462
 31
0.0
  0
TEXT
  5
1B24
330
1B17
100
AcDbEntity
  8
TRIM
100
AcDbText
 10
8.093749998534065
 20
2.232876334230538
 30
0.0
 40
0.1
  1
TASK FORCE TIPS, INC.
 51
10.0
  7
ROMAND
100
AcDbText
  0
TEXT
  5
1B25
330
1B17
100
AcDbEntity
  8
TRIM
100
AcDbText
 10
8.128853318574009
 20
1.795200536343402
 30
0.0
 40
0.09
  1
219-462-6161
  7
SIMPLEX
100
AcDbText
  0
TEXT
  5
1B26
330
1B17
100
AcDbEntity
  8
TRIM
 62
     2
100
AcDbText
 10
8.128853318574009
 20
1.945864616217594
 30
0.0
 40
0.09
  1
VALPARAISO, IN 46383
  7
SIMPLEX
100
AcDbText
  0
TEXT
  5
1B27
330
1B17
100
AcDbEntity
  8
TRIM
 62
     2
100
AcDbText
 10
8.128853318574009
 20
2.090582801482295
 30
0.0
 40
0.09
  1
2800 E. EVANS AVE.
  7
SIMPLEX
100
AcDbText
  0
LINE
  5
1B28
330
1B17
100
AcDbEntity
  8
TRIM
100
AcDbLine
 10
10.41999999853406
 20
2.432499998273461
 30
0.0
 11
7.996999998534068
 21
2.432499998273462
 31
0.0
  0
LINE
  5
1B29
330
1B17
100
AcDbEntity
  8
TRIM
100
AcDbLine
 10
8.026999998534062
 20
1.224315403424987
 30
0.0
 11
8.026999998534064
 21
2.402499998273462
 31
0.0
  0
LINE
  5
1B2A
330
1B17
100
AcDbEntity
  8
TRIM
100
AcDbLine
 10
7.996999998534064
 20
0.6684716413094636
 30
0.0
 11
7.996999998534068
 21
2.432499998273462
 31
0.0
  0
SOLID
  5
1B2B
330
1B17
100
AcDbEntity
  8
SOLID
 62
     1
100
AcDbTrace
 10
8.043289409296239
 20
1.529709898068546
 30
0.0
 11
8.307257975069029
 21
1.529709898068546
 31
0.0
 12
8.114055538205608
 22
1.539026435684056
 32
0.0
 13
8.327237354460679
 23
1.539026435684056
 33
0.0
  0
SOLID
  5
1B2C
330
1B17
100
AcDbEntity
  8
SOLID
 62
     1
100
AcDbTrace
 10
8.043289409296239
 20
1.529709898068546
 30
0.0
 11
8.598232940785159
 21
1.678406569175877
 31
0.0
 12
8.114055538205608
 22
1.539026435684056
 32
0.0
 13
8.579947761208007
 23
1.663861880597489
 33
0.0
  0
SOLID
  5
1B2D
330
1B17
100
AcDbEntity
  8
SOLID
 62
     1
100
AcDbTrace
 10
8.168609830666147
 20
1.330656234914544
 30
0.0
 11
8.353876526982878
 21
1.551448485838069
 31
0.0
 12
8.260865892388205
 22
1.355376172149845
 32
0.0
 13
8.365119390863922
 23
1.551448485838069
 33
0.0
  0
SOLID
  5
1B2E
330
1B17
100
AcDbEntity
  8
SOLID
 62
     1
100
AcDbTrace
 10
8.107639476921409
 20
1.29181383575286
 30
0.0
 11
8.307257975069029
 21
1.529709898068546
 31
0.0
 12
8.133769628526296
 22
1.308460578250724
 32
0.0
 13
8.327237354460679
 23
1.539026435684056
 33
0.0
  0
SOLID
  5
1B2F
330
1B17
100
AcDbEntity
  8
SOLID
 62
     1
100
AcDbTrace
 10
8.269298173166653
 20
1.344775342338473
 30
0.0
 11
8.372583311609053
 21
1.539026435684056
 31
0.0
 12
8.275622383750489
 22
1.336824719979944
 32
0.0
 13
8.378181252167903
 23
1.529709898068546
 33
0.0
  0
SOLID
  5
1B30
330
1B17
100
AcDbEntity
  8
SOLID
 62
     1
100
AcDbTrace
 10
8.519123822871026
 20
1.446010323780124
 30
0.0
 11
8.389737606638517
 21
1.29181383575286
 31
0.0
 12
8.53420778556849
 22
1.449492730963093
 32
0.0
 13
8.415867758243402
 23
1.308460578250724
 33
0.0
  0
SOLID
  5
1B31
330
1B17
100
AcDbEntity
  8
SOLID
 62
     1
100
AcDbTrace
 10
8.557720513467595
 20
1.336824719979944
 30
0.0
 11
8.597274694021209
 21
1.411215314162212
 31
0.0
 12
8.551396302883759
 22
1.344775342338473
 32
0.0
 13
8.593127360178915
 23
1.423260046220356
 33
0.0
  0
SOLID
  5
1B32
330
1B17
100
AcDbEntity
  8
SOLID
 62
     1
100
AcDbTrace
 10
8.902260685370517
 20
1.539026435684056
 30
0.0
 11
8.708792959436136
 21
1.308460578250725
 31
0.0
 12
8.882281305978867
 22
1.529709898068546
 32
0.0
 13
8.682662807831249
 23
1.29181383575286
 33
0.0
  0
SOLID
  5
1B33
330
1B17
100
AcDbEntity
  8
SOLID
 62
     1
100
AcDbTrace
 10
8.450707960383251
 20
1.330656234914544
 30
0.0
 11
8.554319735831773
 21
1.454135940540385
 31
0.0
 12
8.54296402210531
 22
1.355376172149845
 32
0.0
 13
8.587597581722521
 23
1.439319688964547
 33
0.0
  0
SOLID
  5
1B34
330
1B17
100
AcDbEntity
  8
SOLID
 62
     1
100
AcDbTrace
 10
8.389737606638517
 20
1.29181383575286
 30
0.0
 11
8.557720513467595
 21
1.336824719979944
 31
0.0
 12
8.415867758243402
 22
1.308460578250724
 32
0.0
 13
8.551396302883759
 23
1.344775342338473
 33
0.0
  0
SOLID
  5
1B35
330
1B17
100
AcDbEntity
  8
SOLID
 62
     1
100
AcDbTrace
 10
8.107639476921409
 20
1.29181383575286
 30
0.0
 11
8.275622383750489
 21
1.336824719979944
 31
0.0
 12
8.133769628526296
 22
1.308460578250724
 32
0.0
 13
8.269298173166653
 23
1.344775342338473
 33
0.0
  0
SOLID
  5
1B36
330
1B17
100
AcDbEntity
  8
SOLID
 62
     1
100
AcDbTrace
 10
8.682662807831249
 20
1.29181383575286
 30
0.0
 11
8.850645714660327
 21
1.336824719979944
 31
0.0
 12
8.708792959436136
 22
1.308460578250725
 32
0.0
 13
8.844321504076491
 23
1.344775342338473
 33
0.0
  0
SOLID
  5
1B37
330
1B17
100
AcDbEntity
  8
SOLID
 62
     1
100
AcDbTrace
 10
8.208410376751436
 20
1.551448485838069
 30
0.0
 11
8.555567521771804
 21
1.644468962492971
 31
0.0
 12
8.506107656996745
 22
1.551448485838069
 32
0.0
 13
8.506107656996745
 23
1.551448485838069
 33
0.0
  0
SOLID
  5
1B38
330
1B17
100
AcDbEntity
  8
SOLID
 62
     1
100
AcDbTrace
 10
8.372583311609053
 20
1.539026435684056
 30
0.0
 11
8.609335484177783
 21
1.539026435684056
 31
0.0
 12
8.378181252167903
 22
1.529709898068546
 32
0.0
 13
8.589356104786135
 23
1.529709898068546
 33
0.0
  0
SOLID
  5
1B39
330
1B17
100
AcDbEntity
  8
SOLID
 62
     1
100
AcDbTrace
 10
8.572168427478533
 20
1.509226421888862
 30
0.0
 11
8.457090830046876
 21
1.473629191620975
 31
0.0
 12
8.577542130581782
 22
1.501136592315402
 32
0.0
 13
8.483530452159383
 23
1.472055733491771
 33
0.0
  0
SOLID
  5
1B3A
330
1B17
100
AcDbEntity
  8
SOLID
 62
     1
100
AcDbTrace
 10
8.457090830046876
 20
1.473629191620975
 30
0.0
 11
8.519123822871026
 21
1.446010323780124
 31
0.0
 12
8.483530452159383
 22
1.472055733491771
 32
0.0
 13
8.53420778556849
 23
1.449492730963093
 33
0.0
  0
SOLID
  5
1B3B
330
1B17
100
AcDbEntity
  8
SOLID
 62
     1
100
AcDbTrace
 10
8.492196428717766
 20
1.551448485838069
 30
0.0
 11
8.839353573738133
 21
1.644468962492971
 31
0.0
 12
8.789893708963075
 22
1.551448485838069
 32
0.0
 13
8.789893708963075
 23
1.551448485838069
 33
0.0
  0
SOLID
  5
1B3C
330
1B17
100
AcDbEntity
  8
SOLID
 62
     1
100
AcDbTrace
 10
8.710751962356022
 20
1.539026435684056
 30
0.0
 11
8.902260685370517
 21
1.539026435684056
 31
0.0
 12
8.71634990291487
 22
1.529709898068546
 32
0.0
 13
8.882281305978867
 23
1.529709898068546
 33
0.0
  0
SOLID
  5
1B3D
330
1B17
100
AcDbEntity
  8
SOLID
 62
     1
100
AcDbTrace
 10
8.551084307973546
 20
1.589732887642179
 30
0.0
 11
8.88201899275149
 21
1.678406569175877
 31
0.0
 12
8.532799128396392
 22
1.575188199063791
 32
0.0
 13
8.863733813174338
 23
1.663861880597489
 33
0.0
  0
SOLID
  5
1B3E
330
1B17
100
AcDbEntity
  8
SOLID
 62
     1
100
AcDbTrace
 10
8.532799128396392
 20
1.575188199063791
 30
0.0
 11
8.579947761208007
 21
1.663861880597489
 31
0.0
 12
8.551084307973546
 22
1.589732887642179
 32
0.0
 13
8.598232940785159
 23
1.678406569175877
 33
0.0
  0
SOLID
  5
1B3F
330
1B17
100
AcDbEntity
  8
SOLID
 62
     1
100
AcDbTrace
 10
8.593127360178915
 20
1.423260046220356
 30
0.0
 11
8.638464998265758
 21
1.403074429219956
 31
0.0
 12
8.597274694021209
 22
1.411215314162212
 32
0.0
 13
8.642612332108052
 23
1.391029697161812
 33
0.0
  0
SOLID
  5
1B40
330
1B17
100
AcDbEntity
  8
SOLID
 62
     1
100
AcDbTrace
 10
8.518783281642729
 20
1.4699577893195
 30
0.0
 11
8.687749358113208
 21
1.522224472547337
 31
0.0
 12
8.632935219809365
 22
1.419134071964148
 32
0.0
 13
8.632935219809365
 23
1.419134071964148
 33
0.0
  0
SOLID
  5
1B41
330
1B17
100
AcDbEntity
  8
SOLID
 62
     1
100
AcDbTrace
 10
8.584707068052781
 20
1.490350152884122
 30
0.0
 11
8.635974656699984
 21
1.551448485838069
 31
0.0
 12
8.620641230585929
 22
1.501465753893571
 32
0.0
 13
8.647217520581028
 23
1.551448485838069
 33
0.0
  0
SOLID
  5
1B42
330
1B17
100
AcDbEntity
  8
SOLID
 62
     1
100
AcDbTrace
 10
8.589356104786135
 20
1.529709898068546
 30
0.0
 11
8.572168427478533
 21
1.509226421888862
 31
0.0
 12
8.609335484177783
 22
1.539026435684056
 32
0.0
 13
8.577542130581782
 23
1.501136592315402
 33
0.0
  0
SOLID
  5
1B43
330
1B17
100
AcDbEntity
  8
SOLID
 62
     1
100
AcDbTrace
 10
8.638464998265758
 20
1.403074429219956
 30
0.0
 11
8.710751962356022
 21
1.539026435684056
 31
0.0
 12
8.642612332108052
 22
1.391029697161812
 32
0.0
 13
8.71634990291487
 23
1.529709898068546
 33
0.0
  0
SOLID
  5
1B44
330
1B17
100
AcDbEntity
  8
SOLID
 62
     1
100
AcDbTrace
 10
8.645754237745254
 20
1.522236807647912
 30
0.0
 11
8.70003121496035
 21
1.539026435684056
 31
0.0
 12
8.654681441326159
 22
1.539026435684056
 32
0.0
 13
8.654681441326159
 23
1.539026435684056
 33
0.0
  0
SOLID
  5
1B45
330
1B17
100
AcDbEntity
  8
SOLID
 62
     1
100
AcDbTrace
 10
8.816585180362723
 20
1.57518819906379
 30
0.0
 11
8.863733813174338
 21
1.663861880597489
 31
0.0
 12
8.834870359939877
 22
1.589732887642179
 32
0.0
 13
8.88201899275149
 23
1.678406569175877
 33
0.0
  0
LINE
  5
1B46
330
1B17
100
AcDbEntity
  8
TRIM
100
AcDbLine
 10
10.41999999853406
 20
1.780339596352224
 30
0.0
 11
10.41999999853406
 21
2.402499998273461
 31
0.0
  0
LINE
  5
1B47
330
1B17
100
AcDbEntity
  8
TRIM
100
AcDbLine
 10
9.212094455479999
 20
1.750339596352224
 30
0.0
 11
9.212094455480064
 21
0.3543154034249878
 31
0.0
  0
LINE
  5
1B48
330
1B17
100
AcDbEntity
  8
TRIM
100
AcDbLine
 10
10.41999999853406
 20
0.3543154034249873
 30
0.0
 11
10.41999999853406
 21
1.750339596352224
 31
0.0
  0
LINE
  5
1B49
330
1B17
100
AcDbEntity
  8
TRIM
100
AcDbLine
 10
9.212094455479999
 20
1.750339596352224
 30
0.0
 11
10.41999999853406
 21
1.750339596352224
 31
0.0
  0
LINE
  5
1B4A
330
1B17
100
AcDbEntity
  8
TRIM
100
AcDbLine
 10
9.182094455479997
 20
1.780339596352224
 30
0.0
 11
10.41999999853406
 21
1.780339596352224
 31
0.0
  0
TEXT
  5
1B4B
330
1B17
100
AcDbEntity
  8
DIM
100
AcDbText
 10
9.571579664239893
 20
1.615565403424988
 30
0.0
 40
0.09
  1
DATE
 41
0.9
 72
     1
 11
9.714293949954178
 21
1.615565403424988
 31
0.0
100
AcDbText
  0
LINE
  5
1B4C
330
1B17
100
AcDbEntity
  8
TRIM
100
AcDbLine
 10
9.994468264419049
 20
1.584315403424988
 30
0.0
 11
9.434119635489306
 21
1.584315403424988
 31
0.0
  0
LINE
  5
1B4D
330
1B17
100
AcDbEntity
  8
TRIM
100
AcDbLine
 10
10.41999999853406
 20
1.404315403424988
 30
0.0
 11
9.212094455480011
 21
1.404315403424988
 31
0.0
  0
LINE
  5
1B4E
330
1B17
100
AcDbEntity
  8
TRIM
100
AcDbLine
 10
9.434119635489306
 20
1.750339596352224
 30
0.0
 11
9.434119635489302
 21
0.6843154034249875
 31
0.0
  0
LINE
  5
1B4F
330
1B17
100
AcDbEntity
  8
TRIM
100
AcDbLine
 10
9.182094455479997
 20
1.780339596352224
 30
0.0
 11
9.182094455480022
 21
1.224315403424987
 31
0.0
  0
TEXT
  5
1B50
330
1B17
100
AcDbEntity
  8
DIM
100
AcDbText
 10
9.227107045484656
 20
1.615565403424988
 30
0.0
 40
0.09
  1
REV
 41
0.8
 72
     1
 11
9.323107045484656
 21
1.615565403424988
 31
0.0
100
AcDbText
  0
LINE
  5
1B51
330
1B17
100
AcDbEntity
  8
TRIM
100
AcDbLine
 10
9.434119635489306
 20
1.584315403424988
 30
0.0
 11
9.212094455480006
 21
1.584315403424988
 31
0.0
  0
SOLID
  5
1B52
330
1B17
100
AcDbEntity
  8
SOLID
 62
     1
100
AcDbTrace
 10
9.086741622233388
 20
1.529709898068546
 30
0.0
 11
9.165805044717822
 21
1.678406569175877
 31
0.0
 12
9.081143681674539
 22
1.539026435684056
 32
0.0
 13
9.147519865140669
 23
1.663861880597488
 33
0.0
  0
SOLID
  5
1B53
330
1B17
100
AcDbEntity
  8
SOLID
 62
     1
100
AcDbTrace
 10
8.953204583077742
 20
1.529709898068546
 30
0.0
 11
9.086741622233388
 21
1.529709898068546
 31
0.0
 12
8.947606642518891
 22
1.539026435684056
 32
0.0
 13
9.081143681674539
 23
1.539026435684056
 33
0.0
  0
LINE
  5
1B54
330
1B17
100
AcDbEntity
  8
TRIM
100
AcDbLine
 10
9.994468264419047
 20
1.750339596352224
 30
0.0
 11
9.994468264419047
 21
0.684315403424987
 31
0.0
  0
TEXT
  5
1B55
330
1B17
100
AcDbEntity
  8
DIM
100
AcDbText
 10
10.0105817160691
 20
1.615565403424988
 30
0.0
 40
0.09
  1
INITIALS
 41
0.8
 72
     1
 11
10.21115314464053
 21
1.615565403424988
 31
0.0
100
AcDbText
  0
LINE
  5
1B56
330
1B17
100
AcDbEntity
  8
TRIM
100
AcDbLine
 10
10.41999999853406
 20
1.584315403424988
 30
0.0
 11
9.994468264419049
 21
1.584315403424988
 31
0.0
  0
LINE
  5
1B57
330
1B17
100
AcDbEntity
  8
TRIM
100
AcDbLine
 10
0.0299999985341133
 20
0.3492358197914696
 30
0.0
 11
7.996999998534064
 21
0.3492358197914633
 31
0.0
  0
LINE
  5
1B58
330
1B17
100
AcDbEntity
  8
TRIM
100
AcDbLine
 10
0.0299999985340644
 20
0.6384716413094696
 30
0.0
 11
7.996999998534064
 21
0.6384716413094634
 31
0.0
  0
LINE
  5
1B59
330
1B17
100
AcDbEntity
  8
TRIM
100
AcDbLine
 10
-0.0000000014659349
 20
-0.000000001726538
 30
0.0
 11
10.44999999853406
 21
-0.0000000017265371
 31
0.0
  0
LINE
  5
1B5A
330
1B17
100
AcDbEntity
  8
TRIM
100
AcDbLine
 10
0.0299999985340644
 20
0.3192358197914693
 30
0.0
 11
7.996999998534064
 21
0.3192358197914626
 31
0.0
  0
LINE
  5
1B5B
330
1B17
100
AcDbEntity
  8
TRIM
100
AcDbLine
 10
0.0299999985341133
 20
0.0299999982734693
 30
0.0
 11
7.996999998534064
 21
0.0299999982734627
 31
0.0
  0
LINE
  5
1B5C
330
1B17
100
AcDbEntity
  8
TRIM
100
AcDbLine
 10
0.0299999985340652
 20
0.9877074628274646
 30
0.0
 11
4.123749998534062
 21
0.9877074628274638
 31
0.0
  0
LINE
  5
1B5D
330
1B17
100
AcDbEntity
  8
TRIM
100
AcDbLine
 10
0.0299999985341142
 20
0.9577074628274647
 30
0.0
 11
3.312499998534065
 21
0.9577074628274647
 31
0.0
  0
LINE
  5
1B5E
330
1B17
100
AcDbEntity
  8
TRIM
100
AcDbLine
 10
0.0299999985340644
 20
0.6684716413094645
 30
0.0
 11
3.312499998534113
 21
0.6684716413094645
 31
0.0
  0
TEXT
  5
1B5F
330
1B17
100
AcDbEntity
  8
TRIM
100
AcDbText
 10
0.1075473542991792
 20
0.4200287859488796
 30
0.0
 40
0.14
  1
DESCRIPTION:
 41
0.9
  7
SIMPLEX
100
AcDbText
  0
TEXT
  5
1B60
330
1B17
100
AcDbEntity
  8
TRIM
100
AcDbText
 10
0.1075473542991792
 20
0.1075287859488796
 30
0.0
 40
0.14
  1
EXTRA DESC:
 41
0.9
  7
SIMPLEX
100
AcDbText
  0
TEXT
  5
1B61
330
1B17
100
AcDbEntity
  8
TRIM
100
AcDbText
 10
0.1101805216547635
 20
0.7431394110287762
 30
0.0
 40
0.14
  1
PART NUMBER:
 41
0.8
  7
SIMPLEX
100
AcDbText
  0
LINE
  5
1B62
330
1B17
100
AcDbEntity
  8
TRIM
100
AcDbLine
 10
0.0299999985340644
 20
0.6384716413094696
 30
0.0
 11
0.0299999985341133
 21
0.3492358197914696
 31
0.0
  0
LINE
  5
1B63
330
1B17
100
AcDbEntity
  8
TRIM
100
AcDbLine
 10
0.0299999985340644
 20
0.3192358197914693
 30
0.0
 11
0.0299999985341133
 21
0.0299999982734693
 31
0.0
  0
LINE
  5
1B64
330
1B17
100
AcDbEntity
  8
TRIM
100
AcDbLine
 10
0.0299999985340653
 20
0.9577074628274653
 30
0.0
 11
0.0299999985340644
 21
0.6684716413094645
 31
0.0
  0
LINE
  5
1B65
330
1B17
100
AcDbEntity
  8
TRIM
100
AcDbLine
 10
3.342499998534066
 20
0.9577074628274647
 30
0.0
 11
4.093749998534065
 21
0.9577074628274647
 31
0.0
  0
TEXT
  5
1B66
330
1B17
100
AcDbEntity
  8
DIM
 62
     1
100
AcDbText
 10
3.539702379486445
 20
0.8537499982734622
 30
0.0
 40
0.08
  1
SHEET
 72
     1
 11
3.718749998534065
 21
0.8537499982734622
 31
0.0
100
AcDbText
  0
LINE
  5
1B67
330
1B17
100
AcDbEntity
  8
TRIM
100
AcDbLine
 10
3.342499998534066
 20
0.9577074628274647
 30
0.0
 11
3.342499998534113
 21
0.6684716413094672
 31
0.0
  0
LINE
  5
1B68
330
1B17
100
AcDbEntity
  8
TRIM
100
AcDbLine
 10
3.312499998534065
 20
0.9577074628274644
 30
0.0
 11
3.312499998534113
 21
0.6684716413094645
 31
0.0
  0
LINE
  5
1B69
330
1B17
100
AcDbEntity
  8
TRIM
100
AcDbLine
 10
4.123749998534062
 20
0.9877074628274638
 30
0.0
 11
4.123749998534114
 21
0.6684716413094672
 31
0.0
  0
LINE
  5
1B6A
330
1B17
100
AcDbEntity
  8
TRIM
100
AcDbLine
 10
4.093749998534065
 20
0.9577074628274647
 30
0.0
 11
4.093749998534113
 21
0.6684716413094645
 31
0.0
  0
LINE
  5
1B6B
330
1B17
100
AcDbEntity
  8
TRIM
100
AcDbLine
 10
4.123749998534114
 20
0.6684716413094663
 30
0.0
 11
7.996999998534064
 21
0.6684716413094632
 31
0.0
  0
LINE
  5
1B6C
330
1B17
100
AcDbEntity
  8
TRIM
100
AcDbLine
 10
9.182094455480024
 20
1.224315403424987
 30
0.0
 11
8.026999998534062
 21
1.224315403424987
 31
0.0
  0
TEXT
  5
1B6D
330
1B17
100
AcDbEntity
  8
DIM
100
AcDbText
 10
8.043249998534063
 20
0.2653392262302923
 30
0.0
 40
0.056
  1
DIMENSIONS IN 'INCHES' UNLESS SPECIFIED OTHERWISE
100
AcDbText
  0
LINE
  5
1B6E
330
1B17
100
AcDbEntity
  8
TRIM
100
AcDbLine
 10
9.182094455480005
 20
1.044315403424988
 30
0.0
 11
8.026999998534051
 21
1.044315403424987
 31
0.0
  0
LINE
  5
1B6F
330
1B17
100
AcDbEntity
  8
TRIM
100
AcDbLine
 10
9.182094455480024
 20
1.194315403424987
 30
0.0
 11
8.026999998534066
 21
1.194315403424987
 31
0.0
  0
LINE
  5
1B70
330
1B17
100
AcDbEntity
  8
TRIM
100
AcDbLine
 10
8.026999998534064
 20
0.0749999982734631
 30
0.0
 11
10.41999999853406
 21
0.0749999982734622
 31
0.0
  0
LINE
  5
1B71
330
1B17
100
AcDbEntity
  8
TRIM
100
AcDbLine
 10
8.026999998534064
 20
0.2249999982734629
 30
0.0
 11
10.41999999853406
 21
0.2249999982734625
 31
0.0
  0
TEXT
  5
1B72
330
1B17
100
AcDbEntity
  8
TRIM
100
AcDbText
 10
8.074563651603105
 20
0.5810145276027239
 30
0.0
 40
0.07
  1
PRINT APPROVED
 41
1.058889550608496
  7
SIMPLEX
 72
     5
 11
9.02403461531539
 21
0.5810145276027239
 31
0.0
100
AcDbText
  0
LINE
  5
1B73
330
1B17
100
AcDbEntity
  8
TRIM
100
AcDbLine
 10
9.182094455480063
 20
0.3543154034249878
 30
0.0
 11
8.026999998534064
 21
0.3543154034249878
 31
0.0
  0
LINE
  5
1B74
330
1B17
100
AcDbEntity
  8
TRIM
 62
     2
100
AcDbLine
 10
9.182094455480012
 20
0.8643154034249874
 30
0.0
 11
8.026999998534064
 21
0.8643154034249874
 31
0.0
  0
LINE
  5
1B75
330
1B17
100
AcDbEntity
  8
TRIM
100
AcDbLine
 10
9.182094455480017
 20
0.6843154034249875
 30
0.0
 11
8.026999998534064
 21
0.684315403424987
 31
0.0
  0
LINE
  5
1B76
330
1B17
100
AcDbEntity
  8
TRIM
 62
     2
100
AcDbLine
 10
9.182094455480024
 20
0.5457609724770878
 30
0.0
 11
8.026999998534064
 21
0.5457609724770878
 31
0.0
  0
LINE
  5
1B77
330
1B17
100
AcDbEntity
  8
TRIM
100
AcDbLine
 10
9.182094455480031
 20
0.3543154034249873
 30
0.0
 11
8.026999998534064
 21
0.3543154034249873
 31
0.0
  0
LINE
  5
1B78
330
1B17
100
AcDbEntity
  8
TRIM
100
AcDbLine
 10
7.996999998534064
 20
0.3492358197914598
 30
0.0
 11
7.996999998534064
 21
0.6384716413094598
 31
0.0
  0
LINE
  5
1B79
330
1B17
100
AcDbEntity
  8
TRIM
100
AcDbLine
 10
8.026999998534064
 20
0.3543154034249878
 30
0.0
 11
8.026999998534064
 21
0.864315403424988
 31
0.0
  0
TEXT
  5
1B7A
330
1B17
100
AcDbEntity
  8
TRIM
100
AcDbText
 10
8.062499998534065
 20
0.1099999982734623
 30
0.0
 40
0.08
  1
FILE:
  7
SIMPLEX
100
AcDbText
  0
LINE
  5
1B7B
330
1B17
100
AcDbEntity
  8
TRIM
100
AcDbLine
 10
8.026999998534064
 20
0.0749999982734653
 30
0.0
 11
8.099999998534064
 21
0.0749999982734648
 31
0.0
  0
LINE
  5
1B7C
330
1B17
100
AcDbEntity
  8
TRIM
100
AcDbLine
 10
8.026999998534064
 20
0.0749999982734622
 30
0.0
 11
8.026999998534064
 21
0.2249999982734629
 31
0.0
  0
LINE
  5
1B7D
330
1B17
100
AcDbEntity
  8
TRIM
100
AcDbLine
 10
7.996999998534064
 20
0.0299999982734596
 30
0.0
 11
7.996999998534064
 21
0.3192358197914595
 31
0.0
  0
TEXT
  5
1B7E
330
1B17
100
AcDbEntity
  8
TRIM
100
AcDbText
 10
8.074563651603092
 20
0.8995689585506237
 30
0.0
 40
0.07
  1
PRINT DRAWN
 41
1.047995828933662
  7
SIMPLEX
 72
     5
 11
8.811654051286435
 21
0.8995689585506237
 31
0.0
100
AcDbText
  0
TEXT
  5
1B7F
330
1B17
100
AcDbEntity
  8
TRIM
100
AcDbText
 10
8.074583587926003
 20
1.067921744520258
 30
0.0
 40
0.09
  1
SCALE:
  7
SIMPLEX
100
AcDbText
  0
LINE
  5
1B80
330
1B17
100
AcDbEntity
  8
TRIM
100
AcDbLine
 10
8.026999998534064
 20
0.864315403424988
 30
0.0
 11
8.026999998534064
 21
1.194315403424987
 31
0.0
  0
LINE
  5
1B81
330
1B17
100
AcDbEntity
  8
TRIM
100
AcDbLine
 10
10.41999999853406
 20
0.3543154034249873
 30
0.0
 11
9.212094455480064
 21
0.3543154034249878
 31
0.0
  0
LINE
  5
1B82
330
1B17
100
AcDbEntity
  8
TRIM
100
AcDbLine
 10
10.41999999853406
 20
0.0749999982734622
 30
0.0
 11
10.41999999853406
 21
0.2249999982734625
 31
0.0
  0
LINE
  5
1B83
330
1B17
100
AcDbEntity
  8
TRIM
100
AcDbLine
 10
10.41999999853406
 20
0.684315403424987
 30
0.0
 11
9.212094455480039
 21
0.6843154034249875
 31
0.0
  0
LINE
  5
1B84
330
1B17
100
AcDbEntity
  8
TRIM
100
AcDbLine
 10
10.41999999853406
 20
0.8643154034249874
 30
0.0
 11
9.212094455480032
 21
0.8643154034249874
 31
0.0
  0
LINE
  5
1B85
330
1B17
100
AcDbEntity
  8
TRIM
100
AcDbLine
 10
10.41999999853406
 20
1.044315403424987
 30
0.0
 11
9.212094455480025
 21
1.044315403424988
 31
0.0
  0
LINE
  5
1B86
330
1B17
100
AcDbEntity
  8
TRIM
100
AcDbLine
 10
10.41999999853406
 20
1.224315403424987
 30
0.0
 11
9.212094455480018
 21
1.224315403424987
 31
0.0
  0
TEXT
  5
1B87
330
1B17
100
AcDbEntity
  8
TRIM
100
AcDbText
 10
9.277645854177304
 20
0.5810145276027239
 30
0.0
 40
0.07
  1
DESIGN ENGINEER
  7
SIMPLEX
100
AcDbText
  0
LINE
  5
1B88
330
1B17
100
AcDbEntity
  8
TRIM
 62
     2
100
AcDbLine
 10
10.41418891242604
 20
0.5457609724770874
 30
0.0
 11
9.212094455480064
 21
0.5457609724770878
 31
0.0
  0
LINE
  5
1B89
330
1B17
100
AcDbEntity
  8
TRIM
100
AcDbLine
 10
9.182094455480024
 20
1.194315403424987
 30
0.0
 11
9.182094455480063
 21
0.3543154034249878
 31
0.0
  0
LINE
  5
1B8A
330
1B17
100
AcDbEntity
  8
TRIM
 62
     2
100
AcDbLine
 10
8.736598446570452
 20
0.5457609724770878
 30
0.0
 11
8.73659844657045
 21
0.3543154034249878
 31
0.0
  0
LINE
  5
1B8B
330
1B17
100
AcDbEntity
  8
TRIM
 62
     2
100
AcDbLine
 10
8.736598446570452
 20
0.8643154034249874
 30
0.0
 11
8.736598446570452
 21
0.6843154034249875
 31
0.0
  0
LINE
  5
1B8C
330
1B17
100
AcDbEntity
  8
TRIM
100
AcDbLine
 10
3.342499998534113
 20
0.6684716413094672
 30
0.0
 11
4.093749998534113
 21
0.6684716413094663
 31
0.0
  0
ENDBLK
  5
1B8D
330
1B17
100
AcDbEntity
  8
0
100
AcDbBlockEnd
  0
BLOCK
  5
1B8F
330
1B8E
100
AcDbEntity
  8
0
100
AcDbBlockBegin
  2
A$C4FB65283
 70
     2
 10
0.0
 20
0.0
 30
0.0
  3
A$C4FB65283
  1

  0
ATTDEF
  5
1B90
330
1B8E
100
AcDbEntity
  8
DIM
100
AcDbText
 10
0.0000000025669991
 20
0.0433333427455174
 30
0.0
 40
0.13
  1

  7
SIMPLEX
100
AcDbAttributeDefinition
  3
PART_#
  2
PART_#
 70
     0
  0
ENDBLK
  5
1B91
330
1B8E
100
AcDbEntity
  8
0
100
AcDbBlockEnd
  0
BLOCK
  5
1B93
330
1B92
100
AcDbEntity
  8
0
100
AcDbBlockBegin
  2
A$C2BBE0097
 70
     2
 10
0.0
 20
0.0
 30
0.0
  3
A$C2BBE0097
  1

  0
ATTDEF
  5
1B94
330
1B92
100
AcDbEntity
  8
DIM
100
AcDbText
 10
0.0000000025669991
 20
0.0123809372330444
 30
0.0
 40
0.13
  1

  7
SIMPLEX
100
AcDbAttributeDefinition
  3
PART_DESCRIPTION
  2
PART_DESCRIPTION
 70
     0
  0
ENDBLK
  5
1B95
330
1B92
100
AcDbEntity
  8
0
100
AcDbBlockEnd
  0
BLOCK
  5
1B97
330
1B96
100
AcDbEntity
  8
0
100
AcDbBlockBegin
  2
A$C10236829
 70
     2
 10
0.0
 20
0.0
 30
0.0
  3
A$C10236829
  1

  0
ATTDEF
  5
1B98
330
1B96
100
AcDbEntity
  8
DIM
100
AcDbText
 10
0.0000000025669991
 20
0.0123809528212267
 30
0.0
 40
0.13
  1

  7
SIMPLEX
100
AcDbAttributeDefinition
  3
EXTRA_DESCRIPTION
  2
EXTRA_DESCRIPTION
 70
     0
  0
ENDBLK
  5
1B99
330
1B96
100
AcDbEntity
  8
0
100
AcDbBlockEnd
  0
BLOCK
  5
1B9B
330
1B9A
100
AcDbEntity
  8
0
100
AcDbBlockBegin
  2
A$C794932C0
 70
     2
 10
0.0
 20
0.0
 30
0.0
  3
A$C794932C0
  1

  0
ATTDEF
  5
1B9C
330
1B9A
100
AcDbEntity
  8
DIM
100
AcDbText
 10
0.2238095347306626
 20
0.0499999881906419
 30
0.0
 40
0.1
  1

  7
SIMPLEX
 72
     4
 11
0.2238095347306626
 21
0.0499999881906419
 31
0.0
100
AcDbAttributeDefinition
  3
SHEET
  2
SHEET
 70
     0
  0
ENDBLK
  5
1B9D
330
1B9A
100
AcDbEntity
  8
0
100
AcDbBlockEnd
  0
BLOCK
  5
1B9F
330
1B9E
100
AcDbEntity
  8
0
100
AcDbBlockBegin
  2
TEST
 70
     2
 10
0.0
 20
0.0
 30
0.0
  3
TEST
  1

  0
INSERT
  5
1BA0
330
1B9E
100
AcDbEntity
  8
DIM
100
AcDbBlockReference
 66
     1
  2
A$C4FB65283
 10
0.9375
 20
-0.9375
 30
0.0
  0
ATTRIB
  5
1BA1
330
1BA0
100
AcDbEntity
  8
DIM
100
AcDbText
 10
0.937500002566999
 20
-0.8941666572544825
 30
0.0
 40
0.13
  1

  7
SIMPLEX
100
AcDbAttribute
  2
PART_#
 70
     0
  0
SEQEND
  5
1BA2
330
1BA0
100
AcDbEntity
  8
DIM
  0
LINE
  5
1BA3
330
1B9E
100
AcDbEntity
  8
TRIM
100
AcDbLine
 10
10.66999999853406
 20
8.11999999827346
 30
0.0
 11
0.2799999985340644
 21
8.11999999827346
 31
0.0
  0
LINE
  5
1BA4
330
1B9E
100
AcDbEntity
  8
TRIM
100
AcDbLine
 10
0.2499999985340655
 20
8.149999998273461
 30
0.0
 11
10.69999999853406
 21
8.149999998273461
 31
0.0
  0
LINE
  5
1BA5
330
1B9E
100
AcDbEntity
  8
TRIM
100
AcDbLine
 10
0.2799999985340644
 20
8.11999999827346
 30
0.0
 11
0.2799999985340651
 21
1.237707462827464
 31
0.0
  0
LINE
  5
1BA6
330
1B9E
100
AcDbEntity
  8
TRIM
100
AcDbLine
 10
0.2499999985340651
 20
8.149999998273461
 30
0.0
 11
0.2499999985340651
 21
0.249999998273462
 31
0.0
  0
LINE
  5
1BA7
330
1B9E
100
AcDbEntity
  8
TRIM
100
AcDbLine
 10
10.66999999853406
 20
2.682499998273461
 30
0.0
 11
10.66999999853406
 21
8.119999998273458
 31
0.0
  0
LINE
  5
1BA8
330
1B9E
100
AcDbEntity
  8
TRIM
100
AcDbLine
 10
10.69999999853406
 20
0.2499999982734593
 30
0.0
 11
10.69999999853406
 21
8.149999998273459
 31
0.0
  0
SOLID
  5
1BA9
330
1B9E
100
AcDbEntity
  8
SOLID
 62
     1
100
AcDbTrace
 10
9.100645714660327
 20
1.586824719979944
 30
0.0
 11
9.203204583077742
 21
1.779709898068546
 31
0.0
 12
9.094321504076491
 22
1.594775342338473
 32
0.0
 13
9.197606642518891
 23
1.789026435684056
 33
0.0
  0
SOLID
  5
1BAA
330
1B9E
100
AcDbEntity
  8
SOLID
 62
     1
100
AcDbTrace
 10
8.993633161575985
 20
1.580656234914544
 30
0.0
 11
9.178899857892716
 21
1.80144848583807
 31
0.0
 12
9.085889223298043
 22
1.605376172149846
 32
0.0
 13
9.19014272177376
 23
1.80144848583807
 33
0.0
  0
SOLID
  5
1BAB
330
1B9E
100
AcDbEntity
  8
SOLID
 62
     1
100
AcDbTrace
 10
9.025982480684099
 20
1.801448485838069
 30
0.0
 11
9.373139625704464
 21
1.894468962492971
 31
0.0
 12
9.323679760929408
 22
1.801448485838069
 32
0.0
 13
9.323679760929408
 23
1.801448485838069
 33
0.0
  0
SOLID
  5
1BAC
330
1B9E
100
AcDbEntity
  8
SOLID
 62
     1
100
AcDbTrace
 10
9.066585180362723
 20
1.82518819906379
 30
0.0
 11
9.397519865140669
 21
1.913861880597488
 31
0.0
 12
9.084870359939877
 22
1.839732887642179
 32
0.0
 13
9.415805044717822
 23
1.928406569175877
 33
0.0
  0
LINE
  5
1BAD
330
1B9E
100
AcDbEntity
  8
TRIM
100
AcDbLine
 10
10.66999999853406
 20
2.652499998273461
 30
0.0
 11
8.276999998534064
 21
2.652499998273462
 31
0.0
  0
TEXT
  5
1BAE
330
1B9E
100
AcDbEntity
  8
TRIM
100
AcDbText
 10
8.343749998534065
 20
2.482876334230538
 30
0.0
 40
0.1
  1
TASK FORCE TIPS, INC.
 51
10.0
  7
ROMAND
100
AcDbText
  0
TEXT
  5
1BAF
330
1B9E
100
AcDbEntity
  8
TRIM
100
AcDbText
 10
8.378853318574009
 20
2.045200536343402
 30
0.0
 40
0.09
  1
219-462-6161
  7
SIMPLEX
100
AcDbText
  0
TEXT
  5
1BB0
330
1B9E
100
AcDbEntity
  8
TRIM
 62
     2
100
AcDbText
 10
8.378853318574009
 20
2.195864616217594
 30
0.0
 40
0.09
  1
VALPARAISO, IN 46383
  7
SIMPLEX
100
AcDbText
  0
TEXT
  5
1BB1
330
1B9E
100
AcDbEntity
  8
TRIM
 62
     2
100
AcDbText
 10
8.378853318574009
 20
2.340582801482295
 30
0.0
 40
0.09
  1
2800 E. EVANS AVE.
  7
SIMPLEX
100
AcDbText
  0
LINE
  5
1BB2
330
1B9E
100
AcDbEntity
  8
TRIM
100
AcDbLine
 10
10.66999999853406
 20
2.682499998273461
 30
0.0
 11
8.246999998534068
 21
2.682499998273462
 31
0.0
  0
LINE
  5
1BB3
330
1B9E
100
AcDbEntity
  8
TRIM
100
AcDbLine
 10
8.276999998534062
 20
1.474315403424987
 30
0.0
 11
8.276999998534064
 21
2.652499998273462
 31
0.0
  0
LINE
  5
1BB4
330
1B9E
100
AcDbEntity
  8
TRIM
100
AcDbLine
 10
8.246999998534064
 20
0.9184716413094635
 30
0.0
 11
8.246999998534068
 21
2.682499998273462
 31
0.0
  0
SOLID
  5
1BB5
330
1B9E
100
AcDbEntity
  8
SOLID
 62
     1
100
AcDbTrace
 10
8.293289409296239
 20
1.779709898068546
 30
0.0
 11
8.557257975069029
 21
1.779709898068546
 31
0.0
 12
8.364055538205608
 22
1.789026435684056
 32
0.0
 13
8.577237354460679
 23
1.789026435684056
 33
0.0
  0
SOLID
  5
1BB6
330
1B9E
100
AcDbEntity
  8
SOLID
 62
     1
100
AcDbTrace
 10
8.293289409296239
 20
1.779709898068546
 30
0.0
 11
8.848232940785159
 21
1.928406569175877
 31
0.0
 12
8.364055538205608
 22
1.789026435684056
 32
0.0
 13
8.829947761208007
 23
1.913861880597489
 33
0.0
  0
SOLID
  5
1BB7
330
1B9E
100
AcDbEntity
  8
SOLID
 62
     1
100
AcDbTrace
 10
8.418609830666147
 20
1.580656234914544
 30
0.0
 11
8.603876526982878
 21
1.801448485838069
 31
0.0
 12
8.510865892388205
 22
1.605376172149845
 32
0.0
 13
8.615119390863922
 23
1.801448485838069
 33
0.0
  0
SOLID
  5
1BB8
330
1B9E
100
AcDbEntity
  8
SOLID
 62
     1
100
AcDbTrace
 10
8.357639476921409
 20
1.54181383575286
 30
0.0
 11
8.557257975069029
 21
1.779709898068546
 31
0.0
 12
8.383769628526296
 22
1.558460578250724
 32
0.0
 13
8.577237354460679
 23
1.789026435684056
 33
0.0
  0
SOLID
  5
1BB9
330
1B9E
100
AcDbEntity
  8
SOLID
 62
     1
100
AcDbTrace
 10
8.519298173166653
 20
1.594775342338473
 30
0.0
 11
8.622583311609053
 21
1.789026435684056
 31
0.0
 12
8.525622383750489
 22
1.586824719979944
 32
0.0
 13
8.628181252167903
 23
1.779709898068546
 33
0.0
  0
SOLID
  5
1BBA
330
1B9E
100
AcDbEntity
  8
SOLID
 62
     1
100
AcDbTrace
 10
8.769123822871026
 20
1.696010323780124
 30
0.0
 11
8.639737606638517
 21
1.54181383575286
 31
0.0
 12
8.78420778556849
 22
1.699492730963093
 32
0.0
 13
8.665867758243402
 23
1.558460578250724
 33
0.0
  0
SOLID
  5
1BBB
330
1B9E
100
AcDbEntity
  8
SOLID
 62
     1
100
AcDbTrace
 10
8.807720513467595
 20
1.586824719979944
 30
0.0
 11
8.847274694021209
 21
1.661215314162212
 31
0.0
 12
8.801396302883759
 22
1.594775342338473
 32
0.0
 13
8.843127360178915
 23
1.673260046220356
 33
0.0
  0
SOLID
  5
1BBC
330
1B9E
100
AcDbEntity
  8
SOLID
 62
     1
100
AcDbTrace
 10
9.152260685370517
 20
1.789026435684056
 30
0.0
 11
8.958792959436136
 21
1.558460578250725
 31
0.0
 12
9.132281305978867
 22
1.779709898068546
 32
0.0
 13
8.932662807831249
 23
1.54181383575286
 33
0.0
  0
SOLID
  5
1BBD
330
1B9E
100
AcDbEntity
  8
SOLID
 62
     1
100
AcDbTrace
 10
8.700707960383251
 20
1.580656234914544
 30
0.0
 11
8.804319735831773
 21
1.704135940540385
 31
0.0
 12
8.79296402210531
 22
1.605376172149845
 32
0.0
 13
8.837597581722521
 23
1.689319688964547
 33
0.0
  0
SOLID
  5
1BBE
330
1B9E
100
AcDbEntity
  8
SOLID
 62
     1
100
AcDbTrace
 10
8.639737606638517
 20
1.54181383575286
 30
0.0
 11
8.807720513467595
 21
1.586824719979944
 31
0.0
 12
8.665867758243402
 22
1.558460578250724
 32
0.0
 13
8.801396302883759
 23
1.594775342338473
 33
0.0
  0
SOLID
  5
1BBF
330
1B9E
100
AcDbEntity
  8
SOLID
 62
     1
100
AcDbTrace
 10
8.357639476921409
 20
1.54181383575286
 30
0.0
 11
8.525622383750489
 21
1.586824719979944
 31
0.0
 12
8.383769628526296
 22
1.558460578250724
 32
0.0
 13
8.519298173166653
 23
1.594775342338473
 33
0.0
  0
SOLID
  5
1BC0
330
1B9E
100
AcDbEntity
  8
SOLID
 62
     1
100
AcDbTrace
 10
8.932662807831249
 20
1.54181383575286
 30
0.0
 11
9.100645714660327
 21
1.586824719979944
 31
0.0
 12
8.958792959436136
 22
1.558460578250725
 32
0.0
 13
9.094321504076491
 23
1.594775342338473
 33
0.0
  0
SOLID
  5
1BC1
330
1B9E
100
AcDbEntity
  8
SOLID
 62
     1
100
AcDbTrace
 10
8.458410376751436
 20
1.801448485838069
 30
0.0
 11
8.805567521771804
 21
1.894468962492971
 31
0.0
 12
8.756107656996745
 22
1.801448485838069
 32
0.0
 13
8.756107656996745
 23
1.801448485838069
 33
0.0
  0
SOLID
  5
1BC2
330
1B9E
100
AcDbEntity
  8
SOLID
 62
     1
100
AcDbTrace
 10
8.622583311609053
 20
1.789026435684056
 30
0.0
 11
8.859335484177783
 21
1.789026435684056
 31
0.0
 12
8.628181252167903
 22
1.779709898068546
 32
0.0
 13
8.839356104786135
 23
1.779709898068546
 33
0.0
  0
SOLID
  5
1BC3
330
1B9E
100
AcDbEntity
  8
SOLID
 62
     1
100
AcDbTrace
 10
8.822168427478533
 20
1.759226421888862
 30
0.0
 11
8.707090830046876
 21
1.723629191620975
 31
0.0
 12
8.827542130581782
 22
1.751136592315402
 32
0.0
 13
8.733530452159383
 23
1.722055733491771
 33
0.0
  0
SOLID
  5
1BC4
330
1B9E
100
AcDbEntity
  8
SOLID
 62
     1
100
AcDbTrace
 10
8.707090830046876
 20
1.723629191620975
 30
0.0
 11
8.769123822871026
 21
1.696010323780124
 31
0.0
 12
8.733530452159383
 22
1.722055733491771
 32
0.0
 13
8.78420778556849
 23
1.699492730963093
 33
0.0
  0
SOLID
  5
1BC5
330
1B9E
100
AcDbEntity
  8
SOLID
 62
     1
100
AcDbTrace
 10
8.742196428717766
 20
1.801448485838069
 30
0.0
 11
9.089353573738133
 21
1.894468962492971
 31
0.0
 12
9.039893708963075
 22
1.801448485838069
 32
0.0
 13
9.039893708963075
 23
1.801448485838069
 33
0.0
  0
SOLID
  5
1BC6
330
1B9E
100
AcDbEntity
  8
SOLID
 62
     1
100
AcDbTrace
 10
8.960751962356022
 20
1.789026435684056
 30
0.0
 11
9.152260685370517
 21
1.789026435684056
 31
0.0
 12
8.96634990291487
 22
1.779709898068546
 32
0.0
 13
9.132281305978867
 23
1.779709898068546
 33
0.0
  0
SOLID
  5
1BC7
330
1B9E
100
AcDbEntity
  8
SOLID
 62
     1
100
AcDbTrace
 10
8.801084307973546
 20
1.839732887642179
 30
0.0
 11
9.13201899275149
 21
1.928406569175877
 31
0.0
 12
8.782799128396392
 22
1.825188199063791
 32
0.0
 13
9.113733813174338
 23
1.913861880597489
 33
0.0
  0
SOLID
  5
1BC8
330
1B9E
100
AcDbEntity
  8
SOLID
 62
     1
100
AcDbTrace
 10
8.782799128396392
 20
1.825188199063791
 30
0.0
 11
8.829947761208007
 21
1.913861880597489
 31
0.0
 12
8.801084307973546
 22
1.839732887642179
 32
0.0
 13
8.848232940785159
 23
1.928406569175877
 33
0.0
  0
SOLID
  5
1BC9
330
1B9E
100
AcDbEntity
  8
SOLID
 62
     1
100
AcDbTrace
 10
8.843127360178915
 20
1.673260046220356
 30
0.0
 11
8.888464998265758
 21
1.653074429219956
 31
0.0
 12
8.847274694021209
 22
1.661215314162212
 32
0.0
 13
8.892612332108052
 23
1.641029697161812
 33
0.0
  0
SOLID
  5
1BCA
330
1B9E
100
AcDbEntity
  8
SOLID
 62
     1
100
AcDbTrace
 10
8.768783281642729
 20
1.7199577893195
 30
0.0
 11
8.937749358113208
 21
1.772224472547337
 31
0.0
 12
8.882935219809365
 22
1.669134071964148
 32
0.0
 13
8.882935219809365
 23
1.669134071964148
 33
0.0
  0
SOLID
  5
1BCB
330
1B9E
100
AcDbEntity
  8
SOLID
 62
     1
100
AcDbTrace
 10
8.834707068052781
 20
1.740350152884122
 30
0.0
 11
8.885974656699984
 21
1.801448485838069
 31
0.0
 12
8.870641230585929
 22
1.751465753893571
 32
0.0
 13
8.897217520581028
 23
1.801448485838069
 33
0.0
  0
SOLID
  5
1BCC
330
1B9E
100
AcDbEntity
  8
SOLID
 62
     1
100
AcDbTrace
 10
8.839356104786135
 20
1.779709898068546
 30
0.0
 11
8.822168427478533
 21
1.759226421888862
 31
0.0
 12
8.859335484177783
 22
1.789026435684056
 32
0.0
 13
8.827542130581782
 23
1.751136592315402
 33
0.0
  0
SOLID
  5
1BCD
330
1B9E
100
AcDbEntity
  8
SOLID
 62
     1
100
AcDbTrace
 10
8.888464998265758
 20
1.653074429219956
 30
0.0
 11
8.960751962356022
 21
1.789026435684056
 31
0.0
 12
8.892612332108052
 22
1.641029697161812
 32
0.0
 13
8.96634990291487
 23
1.779709898068546
 33
0.0
  0
SOLID
  5
1BCE
330
1B9E
100
AcDbEntity
  8
SOLID
 62
     1
100
AcDbTrace
 10
8.895754237745254
 20
1.772236807647912
 30
0.0
 11
8.95003121496035
 21
1.789026435684056
 31
0.0
 12
8.904681441326159
 22
1.789026435684056
 32
0.0
 13
8.904681441326159
 23
1.789026435684056
 33
0.0
  0
SOLID
  5
1BCF
330
1B9E
100
AcDbEntity
  8
SOLID
 62
     1
100
AcDbTrace
 10
9.066585180362723
 20
1.82518819906379
 30
0.0
 11
9.113733813174338
 21
1.913861880597489
 31
0.0
 12
9.084870359939877
 22
1.839732887642179
 32
0.0
 13
9.13201899275149
 23
1.928406569175877
 33
0.0
  0
LINE
  5
1BD0
330
1B9E
100
AcDbEntity
  8
TRIM
100
AcDbLine
 10
10.66999999853406
 20
2.030339596352224
 30
0.0
 11
10.66999999853406
 21
2.652499998273461
 31
0.0
  0
LINE
  5
1BD1
330
1B9E
100
AcDbEntity
  8
TRIM
100
AcDbLine
 10
9.462094455479999
 20
2.000339596352224
 30
0.0
 11
9.462094455480064
 21
0.6043154034249878
 31
0.0
  0
LINE
  5
1BD2
330
1B9E
100
AcDbEntity
  8
TRIM
100
AcDbLine
 10
10.66999999853406
 20
0.6043154034249874
 30
0.0
 11
10.66999999853406
 21
2.000339596352224
 31
0.0
  0
LINE
  5
1BD3
330
1B9E
100
AcDbEntity
  8
TRIM
100
AcDbLine
 10
9.462094455479999
 20
2.000339596352224
 30
0.0
 11
10.66999999853406
 21
2.000339596352224
 31
0.0
  0
LINE
  5
1BD4
330
1B9E
100
AcDbEntity
  8
TRIM
100
AcDbLine
 10
9.432094455479997
 20
2.030339596352224
 30
0.0
 11
10.66999999853406
 21
2.030339596352224
 31
0.0
  0
TEXT
  5
1BD5
330
1B9E
100
AcDbEntity
  8
DIM
100
AcDbText
 10
9.821579664239893
 20
1.865565403424988
 30
0.0
 40
0.09
  1
DATE
 41
0.9
 72
     1
 11
9.964293949954178
 21
1.865565403424988
 31
0.0
100
AcDbText
  0
LINE
  5
1BD6
330
1B9E
100
AcDbEntity
  8
TRIM
100
AcDbLine
 10
10.24446826441905
 20
1.834315403424988
 30
0.0
 11
9.684119635489306
 21
1.834315403424988
 31
0.0
  0
LINE
  5
1BD7
330
1B9E
100
AcDbEntity
  8
TRIM
100
AcDbLine
 10
10.66999999853406
 20
1.654315403424988
 30
0.0
 11
9.462094455480011
 21
1.654315403424988
 31
0.0
  0
LINE
  5
1BD8
330
1B9E
100
AcDbEntity
  8
TRIM
100
AcDbLine
 10
9.684119635489306
 20
2.000339596352224
 30
0.0
 11
9.684119635489302
 21
0.9343154034249874
 31
0.0
  0
LINE
  5
1BD9
330
1B9E
100
AcDbEntity
  8
TRIM
100
AcDbLine
 10
9.432094455479997
 20
2.030339596352224
 30
0.0
 11
9.432094455480022
 21
1.474315403424987
 31
0.0
  0
TEXT
  5
1BDA
330
1B9E
100
AcDbEntity
  8
DIM
100
AcDbText
 10
9.477107045484656
 20
1.865565403424988
 30
0.0
 40
0.09
  1
REV
 41
0.8
 72
     1
 11
9.573107045484656
 21
1.865565403424988
 31
0.0
100
AcDbText
  0
LINE
  5
1BDB
330
1B9E
100
AcDbEntity
  8
TRIM
100
AcDbLine
 10
9.684119635489306
 20
1.834315403424988
 30
0.0
 11
9.462094455480006
 21
1.834315403424988
 31
0.0
  0
SOLID
  5
1BDC
330
1B9E
100
AcDbEntity
  8
SOLID
 62
     1
100
AcDbTrace
 10
9.336741622233388
 20
1.779709898068546
 30
0.0
 11
9.415805044717822
 21
1.928406569175877
 31
0.0
 12
9.331143681674539
 22
1.789026435684056
 32
0.0
 13
9.397519865140669
 23
1.913861880597488
 33
0.0
  0
SOLID
  5
1BDD
330
1B9E
100
AcDbEntity
  8
SOLID
 62
     1
100
AcDbTrace
 10
9.203204583077742
 20
1.779709898068546
 30
0.0
 11
9.336741622233388
 21
1.779709898068546
 31
0.0
 12
9.197606642518891
 22
1.789026435684056
 32
0.0
 13
9.331143681674539
 23
1.789026435684056
 33
0.0
  0
LINE
  5
1BDE
330
1B9E
100
AcDbEntity
  8
TRIM
100
AcDbLine
 10
10.24446826441905
 20
2.000339596352224
 30
0.0
 11
10.24446826441905
 21
0.934315403424987
 31
0.0
  0
TEXT
  5
1BDF
330
1B9E
100
AcDbEntity
  8
DIM
100
AcDbText
 10
10.2605817160691
 20
1.865565403424988
 30
0.0
 40
0.09
  1
INITIALS
 41
0.8
 72
     1
 11
10.46115314464053
 21
1.865565403424988
 31
0.0
100
AcDbText
  0
LINE
  5
1BE0
330
1B9E
100
AcDbEntity
  8
TRIM
100
AcDbLine
 10
10.66999999853406
 20
1.834315403424988
 30
0.0
 11
10.24446826441905
 21
1.834315403424988
 31
0.0
  0
LINE
  5
1BE1
330
1B9E
100
AcDbEntity
  8
TRIM
100
AcDbLine
 10
0.2799999985341133
 20
0.5992358197914696
 30
0.0
 11
8.246999998534064
 21
0.5992358197914634
 31
0.0
  0
LINE
  5
1BE2
330
1B9E
100
AcDbEntity
  8
TRIM
100
AcDbLine
 10
0.2799999985340644
 20
0.8884716413094695
 30
0.0
 11
8.246999998534064
 21
0.8884716413094633
 31
0.0
  0
LINE
  5
1BE3
330
1B9E
100
AcDbEntity
  8
TRIM
100
AcDbLine
 10
0.2499999985340651
 20
0.249999998273462
 30
0.0
 11
10.69999999853406
 21
0.2499999982734629
 31
0.0
  0
LINE
  5
1BE4
330
1B9E
100
AcDbEntity
  8
TRIM
100
AcDbLine
 10
0.2799999985340644
 20
0.5692358197914693
 30
0.0
 11
8.246999998534064
 21
0.5692358197914627
 31
0.0
  0
LINE
  5
1BE5
330
1B9E
100
AcDbEntity
  8
TRIM
100
AcDbLine
 10
0.2799999985341133
 20
0.2799999982734693
 30
0.0
 11
8.246999998534064
 21
0.2799999982734627
 31
0.0
  0
LINE
  5
1BE6
330
1B9E
100
AcDbEntity
  8
TRIM
100
AcDbLine
 10
0.2799999985340651
 20
1.237707462827464
 30
0.0
 11
4.373749998534062
 21
1.237707462827463
 31
0.0
  0
LINE
  5
1BE7
330
1B9E
100
AcDbEntity
  8
TRIM
100
AcDbLine
 10
0.2799999985341142
 20
1.207707462827464
 30
0.0
 11
3.562499998534065
 21
1.207707462827464
 31
0.0
  0
LINE
  5
1BE8
330
1B9E
100
AcDbEntity
  8
TRIM
100
AcDbLine
 10
0.2799999985340644
 20
0.9184716413094644
 30
0.0
 11
3.562499998534113
 21
0.9184716413094644
 31
0.0
  0
TEXT
  5
1BE9
330
1B9E
100
AcDbEntity
  8
TRIM
100
AcDbText
 10
0.3575473542991792
 20
0.6700287859488796
 30
0.0
 40
0.14
  1
DESCRIPTION:
 41
0.9
  7
SIMPLEX
100
AcDbText
  0
TEXT
  5
1BEA
330
1B9E
100
AcDbEntity
  8
TRIM
100
AcDbText
 10
0.3575473542991792
 20
0.3575287859488796
 30
0.0
 40
0.14
  1
EXTRA DESC:
 41
0.9
  7
SIMPLEX
100
AcDbText
  0
TEXT
  5
1BEB
330
1B9E
100
AcDbEntity
  8
TRIM
100
AcDbText
 10
0.3601805216547635
 20
0.9931394110287762
 30
0.0
 40
0.14
  1
PART NUMBER:
 41
0.8
  7
SIMPLEX
100
AcDbText
  0
LINE
  5
1BEC
330
1B9E
100
AcDbEntity
  8
TRIM
100
AcDbLine
 10
0.2799999985340644
 20
0.8884716413094695
 30
0.0
 11
0.2799999985341133
 21
0.5992358197914696
 31
0.0
  0
LINE
  5
1BED
330
1B9E
100
AcDbEntity
  8
TRIM
100
AcDbLine
 10
0.2799999985340644
 20
0.5692358197914693
 30
0.0
 11
0.2799999985341133
 21
0.2799999982734693
 31
0.0
  0
LINE
  5
1BEE
330
1B9E
100
AcDbEntity
  8
TRIM
100
AcDbLine
 10
0.2799999985340653
 20
1.207707462827465
 30
0.0
 11
0.2799999985340644
 21
0.9184716413094644
 31
0.0
  0
LINE
  5
1BEF
330
1B9E
100
AcDbEntity
  8
TRIM
100
AcDbLine
 10
3.592499998534066
 20
1.207707462827464
 30
0.0
 11
4.343749998534065
 21
1.207707462827464
 31
0.0
  0
TEXT
  5
1BF0
330
1B9E
100
AcDbEntity
  8
DIM
 62
     1
100
AcDbText
 10
3.789702379486445
 20
1.103749998273462
 30
0.0
 40
0.08
  1
SHEET
 72
     1
 11
3.968749998534065
 21
1.103749998273462
 31
0.0
100
AcDbText
  0
LINE
  5
1BF1
330
1B9E
100
AcDbEntity
  8
TRIM
100
AcDbLine
 10
3.592499998534066
 20
1.207707462827464
 30
0.0
 11
3.592499998534113
 21
0.9184716413094671
 31
0.0
  0
LINE
  5
1BF2
330
1B9E
100
AcDbEntity
  8
TRIM
100
AcDbLine
 10
3.562499998534065
 20
1.207707462827464
 30
0.0
 11
3.562499998534113
 21
0.9184716413094644
 31
0.0
  0
LINE
  5
1BF3
330
1B9E
100
AcDbEntity
  8
TRIM
100
AcDbLine
 10
4.373749998534062
 20
1.237707462827463
 30
0.0
 11
4.373749998534114
 21
0.9184716413094671
 31
0.0
  0
LINE
  5
1BF4
330
1B9E
100
AcDbEntity
  8
TRIM
100
AcDbLine
 10
4.343749998534065
 20
1.207707462827464
 30
0.0
 11
4.343749998534113
 21
0.9184716413094644
 31
0.0
  0
LINE
  5
1BF5
330
1B9E
100
AcDbEntity
  8
TRIM
100
AcDbLine
 10
4.373749998534114
 20
0.9184716413094662
 30
0.0
 11
8.246999998534064
 21
0.918471641309463
 31
0.0
  0
LINE
  5
1BF6
330
1B9E
100
AcDbEntity
  8
TRIM
100
AcDbLine
 10
9.432094455480024
 20
1.474315403424987
 30
0.0
 11
8.276999998534062
 21
1.474315403424987
 31
0.0
  0
TEXT
  5
1BF7
330
1B9E
100
AcDbEntity
  8
DIM
100
AcDbText
 10
8.293249998534063
 20
0.5153392262302923
 30
0.0
 40
0.056
  1
DIMENSIONS IN 'INCHES' UNLESS SPECIFIED OTHERWISE
100
AcDbText
  0
LINE
  5
1BF8
330
1B9E
100
AcDbEntity
  8
TRIM
100
AcDbLine
 10
9.432094455480005
 20
1.294315403424988
 30
0.0
 11
8.276999998534051
 21
1.294315403424987
 31
0.0
  0
LINE
  5
1BF9
330
1B9E
100
AcDbEntity
  8
TRIM
100
AcDbLine
 10
9.432094455480024
 20
1.444315403424987
 30
0.0
 11
8.276999998534066
 21
1.444315403424987
 31
0.0
  0
LINE
  5
1BFA
330
1B9E
100
AcDbEntity
  8
TRIM
100
AcDbLine
 10
8.276999998534064
 20
0.324999998273463
 30
0.0
 11
10.66999999853406
 21
0.3249999982734621
 31
0.0
  0
LINE
  5
1BFB
330
1B9E
100
AcDbEntity
  8
TRIM
100
AcDbLine
 10
8.276999998534064
 20
0.474999998273463
 30
0.0
 11
10.66999999853406
 21
0.4749999982734625
 31
0.0
  0
TEXT
  5
1BFC
330
1B9E
100
AcDbEntity
  8
TRIM
100
AcDbText
 10
8.324563651603105
 20
0.8310145276027238
 30
0.0
 40
0.07
  1
PRINT APPROVED
 41
1.058889550608496
  7
SIMPLEX
 72
     5
 11
9.27403461531539
 21
0.8310145276027238
 31
0.0
100
AcDbText
  0
LINE
  5
1BFD
330
1B9E
100
AcDbEntity
  8
TRIM
100
AcDbLine
 10
9.432094455480063
 20
0.6043154034249878
 30
0.0
 11
8.276999998534064
 21
0.6043154034249878
 31
0.0
  0
LINE
  5
1BFE
330
1B9E
100
AcDbEntity
  8
TRIM
 62
     2
100
AcDbLine
 10
9.432094455480012
 20
1.114315403424987
 30
0.0
 11
8.276999998534064
 21
1.114315403424987
 31
0.0
  0
LINE
  5
1BFF
330
1B9E
100
AcDbEntity
  8
TRIM
100
AcDbLine
 10
9.432094455480017
 20
0.9343154034249874
 30
0.0
 11
8.276999998534064
 21
0.934315403424987
 31
0.0
  0
LINE
  5
1C00
330
1B9E
100
AcDbEntity
  8
TRIM
 62
     2
100
AcDbLine
 10
9.432094455480024
 20
0.7957609724770878
 30
0.0
 11
8.276999998534064
 21
0.7957609724770878
 31
0.0
  0
LINE
  5
1C01
330
1B9E
100
AcDbEntity
  8
TRIM
100
AcDbLine
 10
9.432094455480031
 20
0.6043154034249874
 30
0.0
 11
8.276999998534064
 21
0.6043154034249874
 31
0.0
  0
LINE
  5
1C02
330
1B9E
100
AcDbEntity
  8
TRIM
100
AcDbLine
 10
8.246999998534064
 20
0.5992358197914598
 30
0.0
 11
8.246999998534064
 21
0.8884716413094597
 31
0.0
  0
LINE
  5
1C03
330
1B9E
100
AcDbEntity
  8
TRIM
100
AcDbLine
 10
8.276999998534064
 20
0.6043154034249878
 30
0.0
 11
8.276999998534064
 21
1.114315403424988
 31
0.0
  0
TEXT
  5
1C04
330
1B9E
100
AcDbEntity
  8
TRIM
100
AcDbText
 10
8.312499998534065
 20
0.3599999982734623
 30
0.0
 40
0.08
  1
FILE:
  7
SIMPLEX
100
AcDbText
  0
LINE
  5
1C05
330
1B9E
100
AcDbEntity
  8
TRIM
100
AcDbLine
 10
8.276999998534064
 20
0.3249999982734653
 30
0.0
 11
8.349999998534064
 21
0.3249999982734648
 31
0.0
  0
LINE
  5
1C06
330
1B9E
100
AcDbEntity
  8
TRIM
100
AcDbLine
 10
8.276999998534064
 20
0.3249999982734621
 30
0.0
 11
8.276999998534064
 21
0.474999998273463
 31
0.0
  0
LINE
  5
1C07
330
1B9E
100
AcDbEntity
  8
TRIM
100
AcDbLine
 10
8.246999998534064
 20
0.2799999982734596
 30
0.0
 11
8.246999998534064
 21
0.5692358197914596
 31
0.0
  0
TEXT
  5
1C08
330
1B9E
100
AcDbEntity
  8
TRIM
100
AcDbText
 10
8.324563651603092
 20
1.149568958550623
 30
0.0
 40
0.07
  1
PRINT DRAWN
 41
1.047995828933661
  7
SIMPLEX
 72
     5
 11
9.061654051286435
 21
1.149568958550623
 31
0.0
100
AcDbText
  0
TEXT
  5
1C09
330
1B9E
100
AcDbEntity
  8
TRIM
100
AcDbText
 10
8.324583587926003
 20
1.317921744520258
 30
0.0
 40
0.09
  1
SCALE:
  7
SIMPLEX
100
AcDbText
  0
LINE
  5
1C0A
330
1B9E
100
AcDbEntity
  8
TRIM
100
AcDbLine
 10
8.276999998534064
 20
1.114315403424988
 30
0.0
 11
8.276999998534064
 21
1.444315403424987
 31
0.0
  0
LINE
  5
1C0B
330
1B9E
100
AcDbEntity
  8
TRIM
100
AcDbLine
 10
10.66999999853406
 20
0.6043154034249874
 30
0.0
 11
9.462094455480064
 21
0.6043154034249878
 31
0.0
  0
LINE
  5
1C0C
330
1B9E
100
AcDbEntity
  8
TRIM
100
AcDbLine
 10
10.66999999853406
 20
0.3249999982734621
 30
0.0
 11
10.66999999853406
 21
0.4749999982734625
 31
0.0
  0
LINE
  5
1C0D
330
1B9E
100
AcDbEntity
  8
TRIM
100
AcDbLine
 10
10.66999999853406
 20
0.934315403424987
 30
0.0
 11
9.462094455480039
 21
0.9343154034249874
 31
0.0
  0
LINE
  5
1C0E
330
1B9E
100
AcDbEntity
  8
TRIM
100
AcDbLine
 10
10.66999999853406
 20
1.114315403424987
 30
0.0
 11
9.462094455480032
 21
1.114315403424987
 31
0.0
  0
LINE
  5
1C0F
330
1B9E
100
AcDbEntity
  8
TRIM
100
AcDbLine
 10
10.66999999853406
 20
1.294315403424987
 30
0.0
 11
9.462094455480025
 21
1.294315403424988
 31
0.0
  0
LINE
  5
1C10
330
1B9E
100
AcDbEntity
  8
TRIM
100
AcDbLine
 10
10.66999999853406
 20
1.474315403424987
 30
0.0
 11
9.462094455480018
 21
1.474315403424987
 31
0.0
  0
TEXT
  5
1C11
330
1B9E
100
AcDbEntity
  8
TRIM
100
AcDbText
 10
9.527645854177304
 20
0.8310145276027238
 30
0.0
 40
0.07
  1
DESIGN ENGINEER
  7
SIMPLEX
100
AcDbText
  0
LINE
  5
1C12
330
1B9E
100
AcDbEntity
  8
TRIM
 62
     2
100
AcDbLine
 10
10.66418891242604
 20
0.7957609724770874
 30
0.0
 11
9.462094455480064
 21
0.7957609724770878
 31
0.0
  0
LINE
  5
1C13
330
1B9E
100
AcDbEntity
  8
TRIM
100
AcDbLine
 10
9.432094455480024
 20
1.444315403424987
 30
0.0
 11
9.432094455480063
 21
0.6043154034249878
 31
0.0
  0
LINE
  5
1C14
330
1B9E
100
AcDbEntity
  8
TRIM
 62
     2
100
AcDbLine
 10
8.986598446570452
 20
0.7957609724770878
 30
0.0
 11
8.98659844657045
 21
0.6043154034249878
 31
0.0
  0
LINE
  5
1C15
330
1B9E
100
AcDbEntity
  8
TRIM
 62
     2
100
AcDbLine
 10
8.986598446570452
 20
1.114315403424987
 30
0.0
 11
8.986598446570452
 21
0.9343154034249874
 31
0.0
  0
LINE
  5
1C16
330
1B9E
100
AcDbEntity
  8
TRIM
100
AcDbLine
 10
3.592499998534113
 20
0.9184716413094671
 30
0.0
 11
4.343749998534113
 21
0.9184716413094662
 31
0.0
  0
ATTDEF
  5
1C17
330
1B9E
100
AcDbEntity
  8
DIM
100
AcDbText
 10
1.748750001101063
 20
0.9930549840549819
 30
0.0
 40
0.13
  1

  7
SIMPLEX
100
AcDbAttributeDefinition
  3
PART_#
  2
PART_#
 70
     0
  0
ATTDEF
  5
1C18
330
1B9E
100
AcDbEntity
  8
DIM
100
AcDbText
 10
1.754683743625886
 20
0.6688693887053426
 30
0.0
 40
0.13
  1

  7
SIMPLEX
100
AcDbAttributeDefinition
  3
PART_DESCRIPTION
  2
PART_DESCRIPTION
 70
     0
  0
ATTDEF
  5
1C19
330
1B9E
100
AcDbEntity
  8
DIM
100
AcDbText
 10
1.75
 20
0.3555424452224223
 30
0.0
 40
0.13
  1

  7
SIMPLEX
100
AcDbAttributeDefinition
  3
EXTRA_DESCRIPTION
  2
EXTRA_DESCRIPTION
 70
     0
  0
ATTDEF
  5
1C1A
330
1B9E
100
AcDbEntity
  8
DIM
100
AcDbText
 10
3.96875
 20
1.0
 30
0.0
 40
0.1
  1

  7
SIMPLEX
 72
     4
 11
3.96875
 21
1.0
 31
0.0
100
AcDbAttributeDefinition
  3
SHEET
  2
SHEET
 70
     0
  0
ENDBLK
  5
1C1B
330
1B9E
100
AcDbEntity
  8
0
100
AcDbBlockEnd
  0
BLOCK
  5
1C1D
330
1C1C
100
AcDbEntity
  8
0
100
AcDbBlockBegin
  2
A$C56887695
 70
     2
 10
0.0
 20
0.0
 30
0.0
  3
A$C56887695
  1

  0
ATTDEF
  5
1C1E
330
1C1C
100
AcDbEntity
  8
DIM
100
AcDbText
 10
0.0000000016510064
 20
0.0076190448079387
 30
0.0
 40
0.08
  1

  7
SIMPLEX
100
AcDbAttributeDefinition
  3
FILE_NAME
  2
FILE_NAME
 70
     0
  0
ENDBLK
  5
1C1F
330
1C1C
100
AcDbEntity
  8
0
100
AcDbBlockEnd
  0
BLOCK
  5
1C21
330
1C20
100
AcDbEntity
  8
0
100
AcDbBlockBegin
  2
A$C406F4052
 70
     2
 10
0.0
 20
0.0
 30
0.0
  3
A$C406F4052
  1

  0
ATTDEF
  5
1C22
330
1C20
100
AcDbEntity
  8
DIM
100
AcDbText
 10
0.0000000097657775
 20
0.0000000059644165
 30
0.0
 40
0.08
  1

  7
SIMPLEX
100
AcDbAttributeDefinition
  3
DRAWING_SCALE
  2
SCALE
 70
     0
  0
ENDBLK
  5
1C23
330
1C20
100
AcDbEntity
  8
0
100
AcDbBlockEnd
  0
BLOCK
  5
1C25
330
1C24
100
AcDbEntity
  8
0
100
AcDbBlockBegin
  2
A$C217D2A32
 70
     2
 10
0.0
 20
0.0
 30
0.0
  3
A$C217D2A32
  1

  0
ATTDEF
  5
1C26
330
1C24
100
AcDbEntity
  8
DIM
100
AcDbText
 10
0.1409523881144832
 20
0.0400000152139821
 30
0.0
 40
0.08
  1

  7
SIMPLEX
 72
     4
 11
0.1409523881144832
 21
0.0400000152139821
 31
0.0
100
AcDbAttributeDefinition
  3
DATE_DRAWN
  2
DATE
 70
     0
  0
ENDBLK
  5
1C27
330
1C24
100
AcDbEntity
  8
0
100
AcDbBlockEnd
  0
BLOCK
  5
1C29
330
1C28
100
AcDbEntity
  8
0
100
AcDbBlockBegin
  2
A$C26835032
 70
     2
 10
0.0
 20
0.0
 30
0.0
  3
A$C26835032
  1

  0
ATTDEF
  5
1C2A
330
1C28
100
AcDbEntity
  8
DIM
100
AcDbText
 10
0.1504761941594115
 20
0.0400000152139821
 30
0.0
 40
0.08
  1

  7
SIMPLEX
 72
     4
 11
0.1504761941594115
 21
0.0400000152139821
 31
0.0
100
AcDbAttributeDefinition
  3
DRAWN_BY?
  2
WHO?
 70
     0
  0
ENDBLK
  5
1C2B
330
1C28
100
AcDbEntity
  8
0
100
AcDbBlockEnd
  0
BLOCK
  5
1C2D
330
1C2C
100
AcDbEntity
  8
0
100
AcDbBlockBegin
  2
A$C11730435
 70
     2
 10
0.0
 20
0.0
 30
0.0
  3
A$C11730435
  1

  0
ATTDEF
  5
1C2E
330
1C2C
100
AcDbEntity
  8
DIM
100
AcDbText
 10
0.1542857245995872
 20
0.0399999866443972
 30
0.0
 40
0.08
  1

  7
SCRIPT
 72
     4
 11
0.1542857245995872
 21
0.0399999866443972
 31
0.0
100
AcDbAttributeDefinition
  3
DATE_APPROVED
  2
DATE
 70
     0
  0
ENDBLK
  5
1C2F
330
1C2C
100
AcDbEntity
  8
0
100
AcDbBlockEnd
  0
BLOCK
  5
1C31
330
1C30
100
AcDbEntity
  8
0
100
AcDbBlockBegin
  2
A$C740A492C
 70
     2
 10
0.0
 20
0.0
 30
0.0
  3
A$C740A492C
  1

  0
ATTDEF
  5
1C32
330
1C30
100
AcDbEntity
  8
DIM
100
AcDbText
 10
0.1676190447818424
 20
0.0399999866443968
 30
0.0
 40
0.08
  1

  7
SCRIPT
 72
     4
 11
0.1676190447818424
 21
0.0399999866443968
 31
0.0
100
AcDbAttributeDefinition
  3
APPROVED_BY?
  2
WHO?
 70
     0
  0
ENDBLK
  5
1C33
330
1C30
100
AcDbEntity
  8
0
100
AcDbBlockEnd
  0
BLOCK
  5
1C35
330
1C34
100
AcDbEntity
  8
0
100
AcDbBlockBegin
  2
A$C251463E3
 70
     2
 10
0.0
 20
0.0
 30
0.0
  3
A$C251463E3
  1

  0
ATTDEF
  5
1C36
330
1C34
100
AcDbEntity
  8
DIM
100
AcDbText
 10
-0.0076190422628919
 20
-0.0000000133556033
 30
0.0
 40
0.08
  1

  7
SCRIPT
 11
-0.0076190422628919
 21
0.0399999866443968
 31
0.0
100
AcDbAttributeDefinition
  3
ENGINEER_IN_CHARGE
  2
WHO?
 70
     0
 74
     2
  0
ENDBLK
  5
1C37
330
1C34
100
AcDbEntity
  8
0
100
AcDbBlockEnd
  0
BLOCK
  5
1C39
330
1C38
100
AcDbEntity
  8
0
100
AcDbBlockBegin
  2
A$C46507260
 70
     0
 10
0.0
 20
0.0
 30
0.0
  3
A$C46507260
  1

  0
TEXT
  5
1C3A
330
1C38
100
AcDbEntity
  8
DIM
100
AcDbText
 10
0.0000000011396958
 20
0.0000000091671084
 30
0.0
 40
0.04
  1
F04-0001-01 REV. 00
 72
     2
 11
0.6933333344730297
 21
0.0000000091671084
 31
0.0
100
AcDbText
  0
ENDBLK
  5
1C3B
330
1C38
100
AcDbEntity
  8
0
100
AcDbBlockEnd
  0
BLOCK
  5
1CCB
330
1C47
100
AcDbEntity
  8
0
100
AcDbBlockBegin
  2
tft_aprlist
 70
     2
 10
0.0
 20
0.0
 30
0.0
  3
tft_aprlist
  1

  0
INSERT
  5
1C48
330
1C47
100
AcDbEntity
  8
DIM
100
AcDbBlockReference
 66
     1
  2
A$C4FB65283
 10
0.9375
 20
-0.9375
 30
0.0
  0
ATTRIB
  5
1C49
330
1C48
100
AcDbEntity
  8
DIM
100
AcDbText
 10
0.937500002566999
 20
-0.8941666572544825
 30
0.0
 40
0.13
  1

  7
SIMPLEX
100
AcDbAttribute
  2
PART_#
 70
     0
  0
SEQEND
  5
1C4A
330
1C48
100
AcDbEntity
  8
DIM
  0
LINE
  5
1C4B
330
1C47
100
AcDbEntity
  8
TRIM
100
AcDbLine
 10
10.42
 20
3.919999999999998
 30
0.0
 11
0.0299999999999994
 21
3.919999999999998
 31
0.0
  0
LINE
  5
1C4C
330
1C47
100
AcDbEntity
  8
TRIM
100
AcDbLine
 10
0.0000000000000004
 20
3.949999999999999
 30
0.0
 11
10.45
 21
3.949999999999999
 31
0.0
  0
LINE
  5
1C4D
330
1C47
100
AcDbEntity
  8
TRIM
100
AcDbLine
 10
0.0299999999999994
 20
3.919999999999998
 30
0.0
 11
0.0300000000000001
 21
-2.962292535445997
 31
0.0
  0
LINE
  5
1C4E
330
1C47
100
AcDbEntity
  8
TRIM
100
AcDbLine
 10
0.0
 20
3.949999999999999
 30
0.0
 11
0.0
 21
-3.95
 31
0.0
  0
LINE
  5
1C4F
330
1C47
100
AcDbEntity
  8
TRIM
100
AcDbLine
 10
10.42
 20
-1.5175
 30
0.0
 11
10.42
 21
3.919999999999996
 31
0.0
  0
LINE
  5
1C50
330
1C47
100
AcDbEntity
  8
TRIM
100
AcDbLine
 10
10.45
 20
-3.950000000000002
 30
0.0
 11
10.45
 21
3.949999999999997
 31
0.0
  0
SOLID
  5
1C51
330
1C47
100
AcDbEntity
  8
SOLID
 62
     1
100
AcDbTrace
 10
8.850645716126262
 20
-2.583175278293517
 30
0.0
 11
8.953204584543676
 21
-2.390290100204915
 31
0.0
 12
8.844321505542426
 22
-2.575224655934988
 32
0.0
 13
8.947606643984826
 23
-2.380973562589405
 33
0.0
  0
SOLID
  5
1C52
330
1C47
100
AcDbEntity
  8
SOLID
 62
     1
100
AcDbTrace
 10
8.74363316304192
 20
-2.589343763358917
 30
0.0
 11
8.928899859358651
 21
-2.368551512435391
 31
0.0
 12
8.835889224763977
 22
-2.564623826123615
 32
0.0
 13
8.940142723239695
 23
-2.368551512435391
 33
0.0
  0
SOLID
  5
1C53
330
1C47
100
AcDbEntity
  8
SOLID
 62
     1
100
AcDbTrace
 10
8.775982482150034
 20
-2.368551512435392
 30
0.0
 11
9.123139627170399
 21
-2.27553103578049
 31
0.0
 12
9.073679762395343
 22
-2.368551512435391
 32
0.0
 13
9.073679762395343
 23
-2.368551512435391
 33
0.0
  0
SOLID
  5
1C54
330
1C47
100
AcDbEntity
  8
SOLID
 62
     1
100
AcDbTrace
 10
8.816585181828658
 20
-2.344811799209671
 30
0.0
 11
9.147519866606604
 21
-2.256138117675972
 31
0.0
 12
8.834870361405812
 22
-2.330267110631282
 32
0.0
 13
9.165805046183757
 23
-2.241593429097584
 33
0.0
  0
LINE
  5
1C55
330
1C47
100
AcDbEntity
  8
TRIM
100
AcDbLine
 10
10.42
 20
-1.5475
 30
0.0
 11
8.026999999999999
 21
-1.547499999999999
 31
0.0
  0
TEXT
  5
1C56
330
1C47
100
AcDbEntity
  8
TRIM
100
AcDbText
 10
8.09375
 20
-1.717123664042923
 30
0.0
 40
0.1
  1
TASK FORCE TIPS, INC.
 51
10.0
  7
ROMAND
100
AcDbText
  0
TEXT
  5
1C57
330
1C47
100
AcDbEntity
  8
TRIM
100
AcDbText
 10
8.128853320039944
 20
-2.15479946193006
 30
0.0
 40
0.09
  1
219-462-6161
  7
SIMPLEX
100
AcDbText
  0
TEXT
  5
1C58
330
1C47
100
AcDbEntity
  8
TRIM
 62
     2
100
AcDbText
 10
8.128853320039944
 20
-2.004135382055867
 30
0.0
 40
0.09
  1
VALPARAISO, IN 46383
  7
SIMPLEX
100
AcDbText
  0
TEXT
  5
1C59
330
1C47
100
AcDbEntity
  8
TRIM
 62
     2
100
AcDbText
 10
8.128853320039944
 20
-1.859417196791166
 30
0.0
 40
0.09
  1
2800 E. EVANS AVE.
  7
SIMPLEX
100
AcDbText
  0
LINE
  5
1C5A
330
1C47
100
AcDbEntity
  8
TRIM
100
AcDbLine
 10
10.42
 20
-1.5175
 30
0.0
 11
7.997000000000003
 21
-1.5175
 31
0.0
  0
LINE
  5
1C5B
330
1C47
100
AcDbEntity
  8
TRIM
100
AcDbLine
 10
8.026999999999997
 20
-2.695684594848474
 30
0.0
 11
8.026999999999999
 21
-1.547499999999999
 31
0.0
  0
LINE
  5
1C5C
330
1C47
100
AcDbEntity
  8
TRIM
100
AcDbLine
 10
7.996999999999999
 20
-3.281528356963998
 30
0.0
 11
7.997000000000003
 21
-1.5175
 31
0.0
  0
SOLID
  5
1C5D
330
1C47
100
AcDbEntity
  8
SOLID
 62
     1
100
AcDbTrace
 10
8.043289410762174
 20
-2.390290100204915
 30
0.0
 11
8.307257976534964
 21
-2.390290100204915
 31
0.0
 12
8.114055539671543
 22
-2.380973562589405
 32
0.0
 13
8.327237355926614
 23
-2.380973562589405
 33
0.0
  0
SOLID
  5
1C5E
330
1C47
100
AcDbEntity
  8
SOLID
 62
     1
100
AcDbTrace
 10
8.043289410762174
 20
-2.390290100204915
 30
0.0
 11
8.598232942251094
 21
-2.241593429097584
 31
0.0
 12
8.114055539671543
 22
-2.380973562589405
 32
0.0
 13
8.579947762673942
 23
-2.256138117675972
 33
0.0
  0
SOLID
  5
1C5F
330
1C47
100
AcDbEntity
  8
SOLID
 62
     1
100
AcDbTrace
 10
8.168609832132082
 20
-2.589343763358917
 30
0.0
 11
8.353876528448813
 21
-2.368551512435391
 31
0.0
 12
8.260865893854139
 22
-2.564623826123616
 32
0.0
 13
8.365119392329857
 23
-2.368551512435391
 33
0.0
  0
SOLID
  5
1C60
330
1C47
100
AcDbEntity
  8
SOLID
 62
     1
100
AcDbTrace
 10
8.107639478387344
 20
-2.628186162520601
 30
0.0
 11
8.307257976534964
 21
-2.390290100204915
 31
0.0
 12
8.133769629992231
 22
-2.611539420022737
 32
0.0
 13
8.327237355926614
 23
-2.380973562589405
 33
0.0
  0
SOLID
  5
1C61
330
1C47
100
AcDbEntity
  8
SOLID
 62
     1
100
AcDbTrace
 10
8.269298174632588
 20
-2.575224655934988
 30
0.0
 11
8.372583313074988
 21
-2.380973562589405
 31
0.0
 12
8.275622385216424
 22
-2.583175278293517
 32
0.0
 13
8.378181253633838
 23
-2.390290100204915
 33
0.0
  0
SOLID
  5
1C62
330
1C47
100
AcDbEntity
  8
SOLID
 62
     1
100
AcDbTrace
 10
8.519123824336961
 20
-2.473989674493337
 30
0.0
 11
8.389737608104452
 21
-2.628186162520601
 31
0.0
 12
8.534207787034425
 22
-2.470507267310368
 32
0.0
 13
8.415867759709337
 23
-2.611539420022737
 33
0.0
  0
SOLID
  5
1C63
330
1C47
100
AcDbEntity
  8
SOLID
 62
     1
100
AcDbTrace
 10
8.55772051493353
 20
-2.583175278293517
 30
0.0
 11
8.597274695487143
 21
-2.508784684111249
 31
0.0
 12
8.551396304349694
 22
-2.575224655934988
 32
0.0
 13
8.59312736164485
 23
-2.496739952053105
 33
0.0
  0
SOLID
  5
1C64
330
1C47
100
AcDbEntity
  8
SOLID
 62
     1
100
AcDbTrace
 10
8.902260686836452
 20
-2.380973562589405
 30
0.0
 11
8.708792960902071
 21
-2.611539420022736
 31
0.0
 12
8.882281307444802
 22
-2.390290100204915
 32
0.0
 13
8.682662809297184
 23
-2.628186162520601
 33
0.0
  0
SOLID
  5
1C65
330
1C47
100
AcDbEntity
  8
SOLID
 62
     1
100
AcDbTrace
 10
8.450707961849186
 20
-2.589343763358917
 30
0.0
 11
8.554319737297708
 21
-2.465864057733076
 31
0.0
 12
8.542964023571245
 22
-2.564623826123616
 32
0.0
 13
8.587597583188456
 23
-2.480680309308914
 33
0.0
  0
SOLID
  5
1C66
330
1C47
100
AcDbEntity
  8
SOLID
 62
     1
100
AcDbTrace
 10
8.389737608104452
 20
-2.628186162520601
 30
0.0
 11
8.55772051493353
 21
-2.583175278293517
 31
0.0
 12
8.415867759709337
 22
-2.611539420022737
 32
0.0
 13
8.551396304349694
 23
-2.575224655934988
 33
0.0
  0
SOLID
  5
1C67
330
1C47
100
AcDbEntity
  8
SOLID
 62
     1
100
AcDbTrace
 10
8.107639478387344
 20
-2.628186162520601
 30
0.0
 11
8.275622385216424
 21
-2.583175278293517
 31
0.0
 12
8.133769629992231
 22
-2.611539420022737
 32
0.0
 13
8.269298174632588
 23
-2.575224655934988
 33
0.0
  0
SOLID
  5
1C68
330
1C47
100
AcDbEntity
  8
SOLID
 62
     1
100
AcDbTrace
 10
8.682662809297184
 20
-2.628186162520601
 30
0.0
 11
8.850645716126262
 21
-2.583175278293517
 31
0.0
 12
8.708792960902071
 22
-2.611539420022736
 32
0.0
 13
8.844321505542426
 23
-2.575224655934988
 33
0.0
  0
SOLID
  5
1C69
330
1C47
100
AcDbEntity
  8
SOLID
 62
     1
100
AcDbTrace
 10
8.20841037821737
 20
-2.368551512435391
 30
0.0
 11
8.555567523237739
 21
-2.27553103578049
 31
0.0
 12
8.50610765846268
 22
-2.368551512435391
 32
0.0
 13
8.50610765846268
 23
-2.368551512435391
 33
0.0
  0
SOLID
  5
1C6A
330
1C47
100
AcDbEntity
  8
SOLID
 62
     1
100
AcDbTrace
 10
8.372583313074988
 20
-2.380973562589405
 30
0.0
 11
8.609335485643718
 21
-2.380973562589405
 31
0.0
 12
8.378181253633838
 22
-2.390290100204915
 32
0.0
 13
8.58935610625207
 23
-2.390290100204915
 33
0.0
  0
SOLID
  5
1C6B
330
1C47
100
AcDbEntity
  8
SOLID
 62
     1
100
AcDbTrace
 10
8.572168428944468
 20
-2.410773576384599
 30
0.0
 11
8.457090831512811
 21
-2.446370806652486
 31
0.0
 12
8.577542132047717
 22
-2.418863405958059
 32
0.0
 13
8.483530453625318
 23
-2.44794426478169
 33
0.0
  0
SOLID
  5
1C6C
330
1C47
100
AcDbEntity
  8
SOLID
 62
     1
100
AcDbTrace
 10
8.457090831512811
 20
-2.446370806652486
 30
0.0
 11
8.519123824336961
 21
-2.473989674493337
 31
0.0
 12
8.483530453625318
 22
-2.44794426478169
 32
0.0
 13
8.534207787034425
 23
-2.470507267310368
 33
0.0
  0
SOLID
  5
1C6D
330
1C47
100
AcDbEntity
  8
SOLID
 62
     1
100
AcDbTrace
 10
8.492196430183701
 20
-2.368551512435392
 30
0.0
 11
8.839353575204068
 21
-2.27553103578049
 31
0.0
 12
8.78989371042901
 22
-2.368551512435391
 32
0.0
 13
8.78989371042901
 23
-2.368551512435391
 33
0.0
  0
SOLID
  5
1C6E
330
1C47
100
AcDbEntity
  8
SOLID
 62
     1
100
AcDbTrace
 10
8.710751963821957
 20
-2.380973562589405
 30
0.0
 11
8.902260686836452
 21
-2.380973562589405
 31
0.0
 12
8.716349904380805
 22
-2.390290100204915
 32
0.0
 13
8.882281307444802
 23
-2.390290100204915
 33
0.0
  0
SOLID
  5
1C6F
330
1C47
100
AcDbEntity
  8
SOLID
 62
     1
100
AcDbTrace
 10
8.551084309439481
 20
-2.330267110631282
 30
0.0
 11
8.882018994217425
 21
-2.241593429097584
 31
0.0
 12
8.532799129862327
 22
-2.34481179920967
 32
0.0
 13
8.863733814640273
 23
-2.256138117675972
 33
0.0
  0
SOLID
  5
1C70
330
1C47
100
AcDbEntity
  8
SOLID
 62
     1
100
AcDbTrace
 10
8.532799129862327
 20
-2.34481179920967
 30
0.0
 11
8.579947762673942
 21
-2.256138117675972
 31
0.0
 12
8.551084309439481
 22
-2.330267110631282
 32
0.0
 13
8.598232942251094
 23
-2.241593429097584
 33
0.0
  0
SOLID
  5
1C71
330
1C47
100
AcDbEntity
  8
SOLID
 62
     1
100
AcDbTrace
 10
8.59312736164485
 20
-2.496739952053105
 30
0.0
 11
8.638464999731693
 21
-2.516925569053505
 31
0.0
 12
8.597274695487143
 22
-2.508784684111249
 32
0.0
 13
8.642612333573987
 23
-2.528970301111649
 33
0.0
  0
SOLID
  5
1C72
330
1C47
100
AcDbEntity
  8
SOLID
 62
     1
100
AcDbTrace
 10
8.518783283108664
 20
-2.450042208953961
 30
0.0
 11
8.687749359579143
 21
-2.397775525726124
 31
0.0
 12
8.6329352212753
 22
-2.500865926309313
 32
0.0
 13
8.6329352212753
 23
-2.500865926309313
 33
0.0
  0
SOLID
  5
1C73
330
1C47
100
AcDbEntity
  8
SOLID
 62
     1
100
AcDbTrace
 10
8.584707069518715
 20
-2.429649845389338
 30
0.0
 11
8.635974658165919
 21
-2.368551512435391
 31
0.0
 12
8.620641232051864
 22
-2.41853424437989
 32
0.0
 13
8.647217522046963
 23
-2.368551512435391
 33
0.0
  0
SOLID
  5
1C74
330
1C47
100
AcDbEntity
  8
SOLID
 62
     1
100
AcDbTrace
 10
8.58935610625207
 20
-2.390290100204915
 30
0.0
 11
8.572168428944468
 21
-2.410773576384599
 31
0.0
 12
8.609335485643718
 22
-2.380973562589405
 32
0.0
 13
8.577542132047717
 23
-2.418863405958059
 33
0.0
  0
SOLID
  5
1C75
330
1C47
100
AcDbEntity
  8
SOLID
 62
     1
100
AcDbTrace
 10
8.638464999731693
 20
-2.516925569053505
 30
0.0
 11
8.710751963821957
 21
-2.380973562589405
 31
0.0
 12
8.642612333573987
 22
-2.528970301111649
 32
0.0
 13
8.716349904380805
 23
-2.390290100204915
 33
0.0
  0
SOLID
  5
1C76
330
1C47
100
AcDbEntity
  8
SOLID
 62
     1
100
AcDbTrace
 10
8.645754239211189
 20
-2.397763190625549
 30
0.0
 11
8.700031216426285
 21
-2.380973562589405
 31
0.0
 12
8.654681442792094
 22
-2.380973562589405
 32
0.0
 13
8.654681442792094
 23
-2.380973562589405
 33
0.0
  0
SOLID
  5
1C77
330
1C47
100
AcDbEntity
  8
SOLID
 62
     1
100
AcDbTrace
 10
8.816585181828658
 20
-2.344811799209671
 30
0.0
 11
8.863733814640273
 21
-2.256138117675972
 31
0.0
 12
8.834870361405812
 22
-2.330267110631282
 32
0.0
 13
8.882018994217425
 23
-2.241593429097584
 33
0.0
  0
LINE
  5
1C78
330
1C47
100
AcDbEntity
  8
TRIM
100
AcDbLine
 10
10.42
 20
-2.169660401921237
 30
0.0
 11
10.42
 21
-1.5475
 31
0.0
  0
LINE
  5
1C79
330
1C47
100
AcDbEntity
  8
TRIM
100
AcDbLine
 10
9.212094456945933
 20
-2.199660401921237
 30
0.0
 11
9.212094456945999
 21
-3.595684594848474
 31
0.0
  0
LINE
  5
1C7A
330
1C47
100
AcDbEntity
  8
TRIM
100
AcDbLine
 10
10.42
 20
-3.595684594848474
 30
0.0
 11
10.42
 21
-2.199660401921237
 31
0.0
  0
LINE
  5
1C7B
330
1C47
100
AcDbEntity
  8
TRIM
100
AcDbLine
 10
9.212094456945933
 20
-2.199660401921237
 30
0.0
 11
10.42
 21
-2.199660401921237
 31
0.0
  0
LINE
  5
1C7C
330
1C47
100
AcDbEntity
  8
TRIM
100
AcDbLine
 10
9.182094456945932
 20
-2.169660401921237
 30
0.0
 11
10.42
 21
-2.169660401921237
 31
0.0
  0
TEXT
  5
1C7D
330
1C47
100
AcDbEntity
  8
DIM
100
AcDbText
 10
9.571579665705828
 20
-2.334434594848473
 30
0.0
 40
0.09
  1
DATE
 41
0.9
 72
     1
 11
9.714293951420113
 21
-2.334434594848473
 31
0.0
100
AcDbText
  0
LINE
  5
1C7E
330
1C47
100
AcDbEntity
  8
TRIM
100
AcDbLine
 10
9.994468265884984
 20
-2.365684594848473
 30
0.0
 11
9.434119636955241
 21
-2.365684594848473
 31
0.0
  0
LINE
  5
1C7F
330
1C47
100
AcDbEntity
  8
TRIM
100
AcDbLine
 10
10.42
 20
-2.545684594848474
 30
0.0
 11
9.212094456945946
 21
-2.545684594848474
 31
0.0
  0
LINE
  5
1C80
330
1C47
100
AcDbEntity
  8
TRIM
100
AcDbLine
 10
9.434119636955241
 20
-2.199660401921237
 30
0.0
 11
9.434119636955237
 21
-3.265684594848474
 31
0.0
  0
LINE
  5
1C81
330
1C47
100
AcDbEntity
  8
TRIM
100
AcDbLine
 10
9.182094456945932
 20
-2.169660401921237
 30
0.0
 11
9.182094456945957
 21
-2.695684594848474
 31
0.0
  0
TEXT
  5
1C82
330
1C47
100
AcDbEntity
  8
DIM
100
AcDbText
 10
9.227107046950591
 20
-2.334434594848473
 30
0.0
 40
0.09
  1
REV
 41
0.8
 72
     1
 11
9.323107046950591
 21
-2.334434594848473
 31
0.0
100
AcDbText
  0
LINE
  5
1C83
330
1C47
100
AcDbEntity
  8
TRIM
100
AcDbLine
 10
9.434119636955241
 20
-2.365684594848473
 30
0.0
 11
9.212094456945941
 21
-2.365684594848473
 31
0.0
  0
SOLID
  5
1C84
330
1C47
100
AcDbEntity
  8
SOLID
 62
     1
100
AcDbTrace
 10
9.086741623699323
 20
-2.390290100204915
 30
0.0
 11
9.165805046183757
 21
-2.241593429097584
 31
0.0
 12
9.081143683140474
 22
-2.380973562589405
 32
0.0
 13
9.147519866606604
 23
-2.256138117675972
 33
0.0
  0
SOLID
  5
1C85
330
1C47
100
AcDbEntity
  8
SOLID
 62
     1
100
AcDbTrace
 10
8.953204584543676
 20
-2.390290100204915
 30
0.0
 11
9.086741623699323
 21
-2.390290100204915
 31
0.0
 12
8.947606643984826
 22
-2.380973562589405
 32
0.0
 13
9.081143683140474
 23
-2.380973562589405
 33
0.0
  0
LINE
  5
1C86
330
1C47
100
AcDbEntity
  8
TRIM
100
AcDbLine
 10
9.994468265884982
 20
-2.199660401921237
 30
0.0
 11
9.994468265884982
 21
-3.265684594848475
 31
0.0
  0
TEXT
  5
1C87
330
1C47
100
AcDbEntity
  8
DIM
100
AcDbText
 10
10.01058171753503
 20
-2.334434594848473
 30
0.0
 40
0.09
  1
INITIALS
 41
0.8
 72
     1
 11
10.21115314610646
 21
-2.334434594848473
 31
0.0
100
AcDbText
  0
LINE
  5
1C88
330
1C47
100
AcDbEntity
  8
TRIM
100
AcDbLine
 10
10.42
 20
-2.365684594848473
 30
0.0
 11
9.994468265884984
 21
-2.365684594848473
 31
0.0
  0
LINE
  5
1C89
330
1C47
100
AcDbEntity
  8
TRIM
100
AcDbLine
 10
0.0300000000000482
 20
-3.600764178481992
 30
0.0
 11
7.996999999999999
 21
-3.600764178481998
 31
0.0
  0
LINE
  5
1C8A
330
1C47
100
AcDbEntity
  8
TRIM
100
AcDbLine
 10
0.0299999999999994
 20
-3.311528356963992
 30
0.0
 11
7.996999999999999
 21
-3.311528356963998
 31
0.0
  0
LINE
  5
1C8B
330
1C47
100
AcDbEntity
  8
TRIM
100
AcDbLine
 10
0.0
 20
-3.95
 30
0.0
 11
10.45
 21
-3.949999999999999
 31
0.0
  0
LINE
  5
1C8C
330
1C47
100
AcDbEntity
  8
TRIM
100
AcDbLine
 10
0.0299999999999994
 20
-3.630764178481992
 30
0.0
 11
7.996999999999999
 21
-3.630764178481999
 31
0.0
  0
LINE
  5
1C8D
330
1C47
100
AcDbEntity
  8
TRIM
100
AcDbLine
 10
0.0300000000000482
 20
-3.919999999999992
 30
0.0
 11
7.996999999999999
 21
-3.919999999999999
 31
0.0
  0
LINE
  5
1C8E
330
1C47
100
AcDbEntity
  8
TRIM
100
AcDbLine
 10
0.0300000000000001
 20
-2.962292535445997
 30
0.0
 11
6.060374999999972
 21
-2.962292535446001
 31
0.0
  0
LINE
  5
1C8F
330
1C47
100
AcDbEntity
  8
TRIM
100
AcDbLine
 10
0.0300000000000491
 20
-2.992292535445997
 30
0.0
 11
5.249124999999975
 21
-2.992292535445999
 31
0.0
  0
LINE
  5
1C90
330
1C47
100
AcDbEntity
  8
TRIM
100
AcDbLine
 10
0.0299999999999994
 20
-3.281528356963997
 30
0.0
 11
5.249125000000024
 21
-3.281528356964
 31
0.0
  0
TEXT
  5
1C91
330
1C47
100
AcDbEntity
  8
TRIM
100
AcDbText
 10
0.1075473557651141
 20
-3.529971212324582
 30
0.0
 40
0.14
  1
DESCRIPTION:
 41
0.9
  7
SIMPLEX
100
AcDbText
  0
TEXT
  5
1C92
330
1C47
100
AcDbEntity
  8
TRIM
100
AcDbText
 10
0.1075473557651141
 20
-3.842471212324582
 30
0.0
 40
0.14
  1
EXTRA DESC:
 41
0.9
  7
SIMPLEX
100
AcDbText
  0
TEXT
  5
1C93
330
1C47
100
AcDbEntity
  8
TRIM
100
AcDbText
 10
0.1101805231206985
 20
-3.206860587244686
 30
0.0
 40
0.14
  1
PART NUMBER:
 41
0.8
  7
SIMPLEX
100
AcDbText
  0
LINE
  5
1C94
330
1C47
100
AcDbEntity
  8
TRIM
100
AcDbLine
 10
0.0299999999999994
 20
-3.311528356963992
 30
0.0
 11
0.0300000000000482
 21
-3.600764178481992
 31
0.0
  0
LINE
  5
1C95
330
1C47
100
AcDbEntity
  8
TRIM
100
AcDbLine
 10
0.0299999999999994
 20
-3.630764178481992
 30
0.0
 11
0.0300000000000482
 21
-3.919999999999992
 31
0.0
  0
LINE
  5
1C96
330
1C47
100
AcDbEntity
  8
TRIM
100
AcDbLine
 10
0.0300000000000003
 20
-2.992292535445996
 30
0.0
 11
0.0299999999999994
 21
-3.281528356963997
 31
0.0
  0
LINE
  5
1C97
330
1C47
100
AcDbEntity
  8
TRIM
100
AcDbLine
 10
5.279124999999976
 20
-2.992292535445999
 30
0.0
 11
6.030374999999975
 21
-2.992292535445999
 31
0.0
  0
TEXT
  5
1C98
330
1C47
100
AcDbEntity
  8
DIM
 62
     1
100
AcDbText
 10
5.476327380952356
 20
-3.096250000000002
 30
0.0
 40
0.08
  1
SHEET
 72
     1
 11
5.655374999999975
 21
-3.096250000000002
 31
0.0
100
AcDbText
  0
LINE
  5
1C99
330
1C47
100
AcDbEntity
  8
TRIM
100
AcDbLine
 10
5.279124999999976
 20
-2.992292535445999
 30
0.0
 11
5.279125000000023
 21
-3.281528356963997
 31
0.0
  0
LINE
  5
1C9A
330
1C47
100
AcDbEntity
  8
TRIM
100
AcDbLine
 10
5.249124999999975
 20
-2.992292535446
 30
0.0
 11
5.249125000000024
 21
-3.281528356964
 31
0.0
  0
LINE
  5
1C9B
330
1C47
100
AcDbEntity
  8
TRIM
100
AcDbLine
 10
6.060374999999972
 20
-2.962292535446001
 30
0.0
 11
6.060375000000024
 21
-3.281528356963997
 31
0.0
  0
LINE
  5
1C9C
330
1C47
100
AcDbEntity
  8
TRIM
100
AcDbLine
 10
6.030374999999975
 20
-2.992292535445999
 30
0.0
 11
6.030375000000024
 21
-3.281528356964
 31
0.0
  0
LINE
  5
1C9D
330
1C47
100
AcDbEntity
  8
TRIM
100
AcDbLine
 10
6.060375000000024
 20
-3.281528356963998
 30
0.0
 11
7.996999999999999
 21
-3.281528356963999
 31
0.0
  0
LINE
  5
1C9E
330
1C47
100
AcDbEntity
  8
TRIM
100
AcDbLine
 10
9.182094456945959
 20
-2.695684594848474
 30
0.0
 11
8.026999999999997
 21
-2.695684594848474
 31
0.0
  0
TEXT
  5
1C9F
330
1C47
100
AcDbEntity
  8
DIM
100
AcDbText
 10
8.043249999999998
 20
-3.684660772043169
 30
0.0
 40
0.056
  1
DIMENSIONS IN 'INCHES' UNLESS SPECIFIED OTHERWISE
100
AcDbText
  0
LINE
  5
1CA0
330
1C47
100
AcDbEntity
  8
TRIM
100
AcDbLine
 10
9.182094456945939
 20
-2.905684594848473
 30
0.0
 11
8.026999999999986
 21
-2.905684594848474
 31
0.0
  0
LINE
  5
1CA1
330
1C47
100
AcDbEntity
  8
TRIM
100
AcDbLine
 10
9.182094456945959
 20
-2.725684594848474
 30
0.0
 11
8.027000000000001
 21
-2.725684594848474
 31
0.0
  0
LINE
  5
1CA2
330
1C47
100
AcDbEntity
  8
TRIM
100
AcDbLine
 10
8.026999999999999
 20
-3.874999999999999
 30
0.0
 11
10.42
 21
-3.875
 31
0.0
  0
LINE
  5
1CA3
330
1C47
100
AcDbEntity
  8
TRIM
100
AcDbLine
 10
8.026999999999999
 20
-3.724999999999999
 30
0.0
 11
10.42
 21
-3.724999999999999
 31
0.0
  0
TEXT
  5
1CA4
330
1C47
100
AcDbEntity
  8
TRIM
100
AcDbText
 10
8.07456365306904
 20
-3.368985470670738
 30
0.0
 40
0.07
  1
PRINT APPROVED
 41
1.058889550608496
  7
SIMPLEX
 72
     5
 11
9.024034616781325
 21
-3.368985470670738
 31
0.0
100
AcDbText
  0
LINE
  5
1CA5
330
1C47
100
AcDbEntity
  8
TRIM
100
AcDbLine
 10
9.182094456945998
 20
-3.595684594848474
 30
0.0
 11
8.026999999999999
 21
-3.595684594848474
 31
0.0
  0
LINE
  5
1CA6
330
1C47
100
AcDbEntity
  8
TRIM
 62
     2
100
AcDbLine
 10
9.182094456945947
 20
-3.085684594848474
 30
0.0
 11
8.026999999999999
 21
-3.085684594848474
 31
0.0
  0
LINE
  5
1CA7
330
1C47
100
AcDbEntity
  8
TRIM
100
AcDbLine
 10
9.182094456945952
 20
-3.265684594848474
 30
0.0
 11
8.026999999999999
 21
-3.265684594848475
 31
0.0
  0
LINE
  5
1CA8
330
1C47
100
AcDbEntity
  8
TRIM
 62
     2
100
AcDbLine
 10
9.182094456945959
 20
-3.404239025796374
 30
0.0
 11
8.026999999999999
 21
-3.404239025796374
 31
0.0
  0
LINE
  5
1CA9
330
1C47
100
AcDbEntity
  8
TRIM
100
AcDbLine
 10
9.182094456945966
 20
-3.595684594848474
 30
0.0
 11
8.026999999999999
 21
-3.595684594848474
 31
0.0
  0
LINE
  5
1CAA
330
1C47
100
AcDbEntity
  8
TRIM
100
AcDbLine
 10
7.996999999999999
 20
-3.600764178482002
 30
0.0
 11
7.996999999999999
 21
-3.311528356964002
 31
0.0
  0
LINE
  5
1CAB
330
1C47
100
AcDbEntity
  8
TRIM
100
AcDbLine
 10
8.026999999999999
 20
-3.595684594848474
 30
0.0
 11
8.026999999999999
 21
-3.085684594848474
 31
0.0
  0
TEXT
  5
1CAC
330
1C47
100
AcDbEntity
  8
TRIM
100
AcDbText
 10
8.0625
 20
-3.839999999999999
 30
0.0
 40
0.08
  1
FILE:
  7
SIMPLEX
100
AcDbText
  0
LINE
  5
1CAD
330
1C47
100
AcDbEntity
  8
TRIM
100
AcDbLine
 10
8.026999999999999
 20
-3.874999999999996
 30
0.0
 11
8.099999999999999
 21
-3.874999999999997
 31
0.0
  0
LINE
  5
1CAE
330
1C47
100
AcDbEntity
  8
TRIM
100
AcDbLine
 10
8.026999999999999
 20
-3.875
 30
0.0
 11
8.026999999999999
 21
-3.724999999999999
 31
0.0
  0
LINE
  5
1CAF
330
1C47
100
AcDbEntity
  8
TRIM
100
AcDbLine
 10
7.996999999999999
 20
-3.920000000000002
 30
0.0
 11
7.996999999999999
 21
-3.630764178482002
 31
0.0
  0
TEXT
  5
1CB0
330
1C47
100
AcDbEntity
  8
TRIM
100
AcDbText
 10
8.074563653069027
 20
-3.050431039722838
 30
0.0
 40
0.07
  1
PRINT DRAWN
 41
1.047995828933662
  7
SIMPLEX
 72
     5
 11
8.81165405275237
 21
-3.050431039722838
 31
0.0
100
AcDbText
  0
TEXT
  5
1CB1
330
1C47
100
AcDbEntity
  8
TRIM
100
AcDbText
 10
8.074583589391938
 20
-2.867078253753203
 30
0.0
 40
0.09
  1
SCALE:
  7
SIMPLEX
100
AcDbText
  0
LINE
  5
1CB2
330
1C47
100
AcDbEntity
  8
TRIM
100
AcDbLine
 10
8.026999999999999
 20
-3.085684594848474
 30
0.0
 11
8.026999999999999
 21
-2.725684594848474
 31
0.0
  0
LINE
  5
1CB3
330
1C47
100
AcDbEntity
  8
TRIM
100
AcDbLine
 10
10.42
 20
-3.595684594848474
 30
0.0
 11
9.212094456945999
 21
-3.595684594848474
 31
0.0
  0
LINE
  5
1CB4
330
1C47
100
AcDbEntity
  8
TRIM
100
AcDbLine
 10
10.42
 20
-3.875
 30
0.0
 11
10.42
 21
-3.724999999999999
 31
0.0
  0
LINE
  5
1CB5
330
1C47
100
AcDbEntity
  8
TRIM
100
AcDbLine
 10
10.42
 20
-3.265684594848475
 30
0.0
 11
9.212094456945974
 21
-3.265684594848474
 31
0.0
  0
LINE
  5
1CB6
330
1C47
100
AcDbEntity
  8
TRIM
100
AcDbLine
 10
10.42
 20
-3.085684594848474
 30
0.0
 11
9.212094456945967
 21
-3.085684594848474
 31
0.0
  0
LINE
  5
1CB7
330
1C47
100
AcDbEntity
  8
TRIM
100
AcDbLine
 10
10.42
 20
-2.905684594848474
 30
0.0
 11
9.21209445694596
 21
-2.905684594848473
 31
0.0
  0
LINE
  5
1CB8
330
1C47
100
AcDbEntity
  8
TRIM
100
AcDbLine
 10
10.42
 20
-2.725684594848474
 30
0.0
 11
9.212094456945953
 21
-2.725684594848474
 31
0.0
  0
TEXT
  5
1CB9
330
1C47
100
AcDbEntity
  8
TRIM
100
AcDbText
 10
9.277645855643239
 20
-3.368985470670738
 30
0.0
 40
0.07
  1
DESIGN ENGINEER
  7
SIMPLEX
100
AcDbText
  0
LINE
  5
1CBA
330
1C47
100
AcDbEntity
  8
TRIM
 62
     2
100
AcDbLine
 10
10.41418891389197
 20
-3.404239025796374
 30
0.0
 11
9.212094456945999
 21
-3.404239025796374
 31
0.0
  0
LINE
  5
1CBB
330
1C47
100
AcDbEntity
  8
TRIM
100
AcDbLine
 10
9.182094456945959
 20
-2.725684594848474
 30
0.0
 11
9.182094456945998
 21
-3.595684594848474
 31
0.0
  0
LINE
  5
1CBC
330
1C47
100
AcDbEntity
  8
TRIM
 62
     2
100
AcDbLine
 10
8.736598448036387
 20
-3.404239025796374
 30
0.0
 11
8.736598448036385
 21
-3.595684594848474
 31
0.0
  0
LINE
  5
1CBD
330
1C47
100
AcDbEntity
  8
TRIM
 62
     2
100
AcDbLine
 10
8.736598448036387
 20
-3.085684594848474
 30
0.0
 11
8.736598448036387
 21
-3.265684594848474
 31
0.0
  0
LINE
  5
1CBE
330
1C47
100
AcDbEntity
  8
TRIM
100
AcDbLine
 10
5.279125000000023
 20
-3.281528356963997
 30
0.0
 11
6.030375000000023
 21
-3.281528356963998
 31
0.0
  0
ATTDEF
  5
1CBF
330
1C47
100
AcDbEntity
  8
DIM
100
AcDbText
 10
1.498750002566998
 20
-3.20694501421848
 30
0.0
 40
0.13
  1

  7
SIMPLEX
100
AcDbAttributeDefinition
  3
PART_#
  2
PART_#
 70
     0
  0
ATTDEF
  5
1CC0
330
1C47
100
AcDbEntity
  8
DIM
100
AcDbText
 10
1.504683745091821
 20
-3.531130609568119
 30
0.0
 40
0.13
  1

  7
SIMPLEX
100
AcDbAttributeDefinition
  3
PART_DESCRIPTION
  2
PART_DESCRIPTION
 70
     0
  0
ATTDEF
  5
1CC1
330
1C47
100
AcDbEntity
  8
DIM
100
AcDbText
 10
1.500000001465934
 20
-3.844457553051039
 30
0.0
 40
0.13
  1

  7
SIMPLEX
100
AcDbAttributeDefinition
  3
EXTRA_DESCRIPTION
  2
EXTRA_DESCRIPTION
 70
     0
  0
ATTDEF
  5
1CC2
330
1C47
100
AcDbEntity
  8
DIM
100
AcDbText
 10
5.65537500146591
 20
-3.199999998273464
 30
0.0
 40
0.1
  1

  7
SIMPLEX
 72
     4
 11
5.65537500146591
 21
-3.199999998273464
 31
0.0
100
AcDbAttributeDefinition
  3
SHEET
  2
SHEET
 70
     0
  0
ATTDEF
  5
1CC3
330
1C47
100
AcDbEntity
  8
DIM
100
AcDbText
 10
8.370750001651005
 20
-3.841069024870303
 30
0.0
 40
0.08
  1

  7
SIMPLEX
100
AcDbAttributeDefinition
  3
FILE_NAME
  2
FILE_NAME
 70
     0
  0
ATTDEF
  5
1CC4
330
1C47
100
AcDbEntity
  8
DIM
100
AcDbText
 10
8.593750001465934
 20
-2.867243860095429
 30
0.0
 40
0.08
  1

  7
SIMPLEX
100
AcDbAttributeDefinition
  3
DRAWING_SCALE
  2
SCALE
 70
     0
  0
ATTDEF
  5
1CC5
330
1C47
100
AcDbEntity
  8
DIM
100
AcDbText
 10
8.381799224018193
 20
-3.175684594848474
 30
0.0
 40
0.08
  1

  7
SIMPLEX
 72
     4
 11
8.381799224018193
 21
-3.175684594848474
 31
0.0
100
AcDbAttributeDefinition
  3
DATE_DRAWN
  2
DATE
 70
     0
  0
ATTDEF
  5
1CC6
330
1C47
100
AcDbEntity
  8
DIM
100
AcDbText
 10
8.959346452491169
 20
-3.175684594848474
 30
0.0
 40
0.08
  1

  7
SIMPLEX
 72
     4
 11
8.959346452491169
 21
-3.175684594848474
 31
0.0
100
AcDbAttributeDefinition
  3
DRAWN_BY?
  2
WHO?
 70
     0
  0
ATTDEF
  5
1CC7
330
1C47
100
AcDbEntity
  8
DIM
100
AcDbText
 10
8.381799224018193
 20
-3.499961810322424
 30
0.0
 40
0.08
  1

  7
SCRIPT
 72
     4
 11
8.381799224018193
 21
-3.499961810322424
 31
0.0
100
AcDbAttributeDefinition
  3
DATE_APPROVED
  2
DATE
 70
     0
  0
ATTDEF
  5
1CC8
330
1C47
100
AcDbEntity
  8
DIM
100
AcDbText
 10
8.959346452491192
 20
-3.499961810322424
 30
0.0
 40
0.08
  1

  7
SCRIPT
 72
     4
 11
8.959346452491192
 21
-3.499961810322424
 31
0.0
100
AcDbAttributeDefinition
  3
APPROVED_BY?
  2
WHO?
 70
     0
  0
ATTDEF
  5
1CC9
330
1C47
100
AcDbEntity
  8
DIM
100
AcDbText
 10
9.277645855643239
 20
-3.539961810322424
 30
0.0
 40
0.08
  1

  7
SCRIPT
 11
9.277645855643239
 21
-3.499961810322424
 31
0.0
100
AcDbAttributeDefinition
  3
ENGINEER_IN_CHARGE
  2
WHO?
 70
     0
 74
     2
  0
TEXT
  5
1CCA
330
1C47
100
AcDbEntity
  8
DIM
100
AcDbText
 10
9.716766296807861
 20
-3.931972942467266
 30
0.0
 40
0.04
  1
F04-0052-01 REV. 00
 72
     2
 11
10.41771867776024
 21
-3.931972942467266
 31
0.0
100
AcDbText
  0
ENDBLK
  5
1CCC
330
1C47
100
AcDbEntity
  8
0
100
AcDbBlockEnd
  0
ENDSEC
  0
SECTION
  2
ENTITIES
  0
LWPOLYLINE
  5
11D
330
A
100
AcDbEntity
  8
0
  6
Continuous
 62
     7
100
AcDbPolyline
 90
       14
 70
   128
 43
0.0
 10
-8.601001690426542
 20
6.682761936780025
 10
-8.593346973634275
 20
6.730859508463716
 10
-8.586246092417475
 20
6.866452812472871
 10
-8.593275070902826
 20
7.002592277109563
 10
-8.614302721469719
 20
7.139021812491677
 10
-8.649307372386168
 20
7.275567243448797
 10
-8.69836168648446
 20
7.412042625982472
 10
-8.761580256901055
 20
7.548188041388229
 10
-8.839039235812911
 20
7.683619664846233
 10
-8.930688450583389
 20
7.817812682934125
 10
-9.036287679599475
 20
7.950129405821066
 10
-9.155392918811578
 20
8.079884200710431
 10
-9.281110815168744
 20
8.2007323327636
 10
-9.319748440301204
 20
8.235215261527649
  0
LWPOLYLINE
  5
12D
330
A
100
AcDbEntity
  8
0
  6
Continuous
 62
     7
100
AcDbPolyline
 90
       42
 70
   128
 43
0.0
 10
-9.313627940772711
 20
6.78287877003035
 10
-9.317968322341585
 20
6.749638900632657
 10
-9.343750040575471
 20
6.661592854425869
 10
-9.37840665323474
 20
6.585438240186984
 10
-9.423286650099029
 20
6.511937228129355
 10
-9.484698566870804
 20
6.433022082988404
 10
-9.557956882913337
 20
6.35684182888032
 10
-9.643121830793511
 20
6.283204737610464
 10
-9.740326451627218
 20
6.212167771644764
 10
-9.84957769006904
 20
6.144033685915232
 10
-9.970736645525455
 20
6.079232989420265
 10
-10.10347607515378
 20
6.018269812523929
 10
-10.24736164115969
 20
5.961637375884038
 10
-10.4018980720604
 20
5.909790222376869
 10
-10.56649292610878
 20
5.863155036110022
 10
-10.74047168489031
 20
5.822119501827032
 10
-10.92309149990573
 20
5.787026293528636
 10
-11.11355326092475
 20
5.758170319693789
 10
-11.31101198132489
 20
5.735797972242067
 10
-11.51458564533924
 20
5.72010755082325
 10
-11.72336273585899
 20
5.711250320145172
 10
-11.93640868269612
 20
5.709331853631621
 10
-12.15277146029857
 20
5.714413449349532
 10
-12.37148653649873
 20
5.726513492036616
 10
-12.59158134078698
 20
5.745608691221001
 10
-12.81207938850545
 20
5.771635159472843
 10
-13.03200416989784
 20
5.804489313849977
 10
-13.25038056591116
 20
5.844028134319565
 10
-13.46622590464698
 20
5.890066414795992
 10
-13.67858667090988
 20
5.94238326581151
 10
-13.88652445440156
 20
6.000719874859285
 10
-14.08911985011894
 20
6.064779447323708
 10
-14.28547661374068
 20
6.134226951780707
 10
-14.47472618049251
 20
6.208688678570975
 10
-14.6560326944409
 20
6.287751641815809
 10
-14.82859873456116
 20
6.370962891918157
 10
-14.99167196806122
 20
6.457828867879186
 10
-15.14455300418865
 20
6.547815018951059
 10
-15.28660475066783
 20
6.640346080626684
 10
-15.41726356711256
 20
6.734807624348846
 10
-15.52999302172459
 20
6.825396601683891
 10
-15.56371982205754
 20
6.854493536745771
  0
LWPOLYLINE
  5
159
330
A
100
AcDbEntity
  8
0
  6
Continuous
 62
     7
100
AcDbPolyline
 90
       43
 70
   128
 43
0.0
 10
-16.03858869626462
 20
6.313671574537842
 10
-15.96230412431439
 20
6.248712962667678
 10
-15.80925605326337
 20
6.129132921555527
 10
-15.64551166764707
 20
6.014264714546445
 10
-15.47170261911326
 20
5.904344901426938
 10
-15.28852931168181
 20
5.799637421415567
 10
-15.09668057395423
 20
5.700378844684735
 10
-14.89684206130781
 20
5.606789537507232
 10
-14.68970348796296
 20
5.519079749066435
 10
-14.47596386433559
 20
5.437452201428165
 10
-14.25633469552106
 20
5.362102504220594
 10
-14.03154142906456
 20
5.293218351224112
 10
-13.80232351741947
 20
5.230978131296115
 10
-13.56943343205064
 20
5.175549348356689
 10
-13.33363490572567
 20
5.127087087620473
 10
-13.09570061876159
 20
5.085732667327523
 10
-12.85640949508228
 20
5.051612557560634
 10
-12.61654567708957
 20
5.02483780239924
 10
-12.37690889404096
 20
5.005504183869714
 10
-12.13827832461204
 20
4.993688646652657
 10
-11.90142674393582
 20
4.98945238988443
 10
-11.66711745484142
 20
4.992841651196176
 10
-11.43610143897804
 20
5.003888950941348
 10
-11.20911489170191
 20
5.022614818138695
 10
-10.98687735774049
 20
5.049029997303147
 10
-10.77009077029331
 20
5.083138086503208
 10
-10.55943981417314
 20
5.124938459022185
 10
-10.35559418312368
 20
5.17442913850963
 10
-10.15921346310284
 20
5.231608977561364
 10
-9.970955481009212
 20
5.296477964461043
 10
-9.791488846580556
 20
5.369033696502448
 10
-9.621509739344638
 20
5.449261057227193
 10
-9.461781691979155
 20
5.537099102285857
 10
-9.313195451466107
 20
5.632365680543248
 10
-9.176632658635469
 20
5.734778757958526
 10
-9.052988858193657
 20
5.84388484215281
 10
-8.943095458532198
 20
5.959040427464689
 10
-8.847620204036715
 20
6.079441314300037
 10
-8.76698748240534
 20
6.204200181023306
 10
-8.701358270744627
 20
6.332442874774429
 10
-8.650676230071901
 20
6.463384496695152
 10
-8.614751544999627
 20
6.596366236727831
 10
-8.601001690426542
 20
6.682761936780025
  0
LWPOLYLINE
  5
186
330
A
100
AcDbEntity
  8
0
  6
Continuous
 62
     7
100
AcDbPolyline
 90
       12
 70
   128
 43
0.0
 10
-9.794617314508279
 20
7.694393299319713
 10
-9.738233198483484
 20
7.64331488585185
 10
-9.641405028173274
 20
7.546972815849102
 10
-9.557193322317779
 20
7.451262148709631
 10
-9.485628306723775
 20
7.35687513903602
 10
-9.426586379348371
 20
7.264451125499775
 10
-9.37975523801095
 20
7.174446615354206
 10
-9.344698401117526
 20
7.087055146006427
 10
-9.320951849259579
 20
7.00205220684181
 10
-9.308230786683026
 20
6.918603742559199
 10
-9.30680528061621
 20
6.835128630773816
 10
-9.313627940772711
 20
6.78287877003035
  0
LINE
  5
194
330
A
100
AcDbEntity
  8
0
  6
Continuous
 62
     7
100
AcDbLine
 10
-15.56383979558816
 20
6.854598780599628
 30
0.0
 11
-17.1777165432225
 21
8.271663806282342
 31
0.0
  0
LINE
  5
195
330
A
100
AcDbEntity
  8
0
  6
Continuous
 62
     7
100
AcDbLine
 10
-17.62407149695873
 20
7.705805188281182
 30
0.0
 11
-16.03868427140806
 21
6.313755557200313
 31
0.0
  0
LINE
  5
1CC
330
A
100
AcDbEntity
  8
0
  6
Continuous
 62
     7
100
AcDbLine
 10
-9.319715755740485
 20
8.235186555489304
 30
0.0
 11
-10.92002310046455
 21
9.640336871588498
 31
0.0
  0
LINE
  5
1CE
330
A
100
AcDbEntity
  8
0
  6
Continuous
 62
     7
100
AcDbLine
 10
-11.3663960208775
 20
9.07449402923282
 30
0.0
 11
-9.794649778357186
 21
7.694421811463048
 31
0.0
  0
LINE
  5
1FF
330
A
100
AcDbEntity
  8
0
  6
Continuous
 62
     7
100
AcDbLine
 10
-12.73661933790987
 20
10.89464388010664
 30
0.0
 11
-12.76113987554842
 21
10.87659324108861
 31
0.0
  0
LINE
  5
200
330
A
100
AcDbEntity
  8
0
  6
Continuous
 62
     7
100
AcDbLine
 10
-12.85886589982872
 20
10.76529434768714
 30
0.0
 11
-12.87257554331669
 21
10.74048795629273
 31
0.0
  0
LWPOLYLINE
  5
204
330
A
100
AcDbEntity
  8
0
  6
Continuous
 62
     7
100
AcDbPolyline
 90
       42
 70
   128
 43
0.0
 10
-9.32922012674593
 20
21.03009158089947
 10
-9.333560358024897
 20
20.99685286246437
 10
-9.359342076258784
 20
20.90880681625758
 10
-9.39399868891806
 20
20.8326522020187
 10
-9.438878685782341
 20
20.75915118996107
 10
-9.500290602554109
 20
20.68023604482011
 10
-9.573548918596642
 20
20.60405579071203
 10
-9.658713866476816
 20
20.53041869944217
 10
-9.755918487310516
 20
20.45938173347648
 10
-9.865169725752345
 20
20.39124764774694
 10
-9.98632868120876
 20
20.32644695125198
 10
-10.11906811083708
 20
20.26548377435564
 10
-10.26295367684299
 20
20.20885133771574
 10
-10.41749010774371
 20
20.15700418420857
 10
-10.58208496179208
 20
20.11036899794173
 10
-10.75606372057363
 20
20.06933346365874
 10
-10.93868353558903
 20
20.03424025536034
 10
-11.12914529660806
 20
20.0053842815255
 10
-11.32660401700818
 20
19.98301193407376
 10
-11.53017768102253
 20
19.96732151265496
 10
-11.73895477154228
 20
19.95846428197689
 10
-11.95200071837942
 20
19.95654581546332
 10
-12.16836349598185
 20
19.96162741118123
 10
-12.38707857218203
 20
19.97372745386833
 10
-12.60717337647028
 20
19.9928226530527
 10
-12.82767142418875
 20
20.01884912130454
 10
-13.04759620558114
 20
20.05170327568167
 10
-13.26597260159446
 20
20.09124209615126
 10
-13.48181794033029
 20
20.13728037662769
 10
-13.6941787065932
 20
20.18959722764321
 10
-13.90211649008488
 20
20.24793383669099
 10
-14.10471188580226
 20
20.31199340915541
 10
-14.30106864942399
 20
20.38144091361241
 10
-14.49031821617582
 20
20.45590264040268
 10
-14.67162473012421
 20
20.53496560364751
 10
-14.84419077024448
 20
20.61817685374985
 10
-15.00726400374453
 20
20.70504282971088
 10
-15.16014503987198
 20
20.79502898078277
 10
-15.30219678635115
 20
20.88756004245839
 10
-15.43285560279589
 20
20.98202158618056
 10
-15.54558505740791
 20
21.0726105635156
 10
-15.57931185774086
 20
21.10170749857747
  0
LWPOLYLINE
  5
230
330
A
100
AcDbEntity
  8
0
  6
Continuous
 62
     7
100
AcDbPolyline
 90
       14
 70
   128
 43
0.0
 10
-8.616996892414547
 20
20.92744264744567
 10
-8.608939009317587
 20
20.97807347029542
 10
-8.601838128100787
 20
21.11366677430458
 10
-8.608867106586139
 20
21.24980623894127
 10
-8.629894757153039
 20
21.38623577432338
 10
-8.664899408069487
 20
21.52278120528052
 10
-8.713953722167786
 20
21.65925658781419
 10
-8.777172292584381
 20
21.79540200321994
 10
-8.854631271496238
 20
21.93083362667795
 10
-8.946280486266729
 20
22.06502664476585
 10
-9.051879715282801
 20
22.19734336765278
 10
-9.170984954494912
 20
22.32709816254215
 10
-9.296702850852092
 20
22.44794629459533
 10
-9.335340475984523
 20
22.48242922335935
  0
LWPOLYLINE
  5
240
330
A
100
AcDbEntity
  8
0
  6
Continuous
 62
     7
100
AcDbPolyline
 90
       12
 70
   128
 43
0.0
 10
-9.810209350191598
 20
21.94160726115143
 10
-9.753825234166804
 20
21.89052884768356
 10
-9.6569970638566
 20
21.79418677768081
 10
-9.572785358001098
 20
21.69847611054134
 10
-9.501220342407101
 20
21.60408910086773
 10
-9.442178415031698
 20
21.51166508733148
 10
-9.395347273694277
 20
21.42166057718592
 10
-9.360290436800852
 20
21.33426910783814
 10
-9.336543884942891
 20
21.24926616867352
 10
-9.323822822366345
 20
21.1658177043909
 10
-9.322397316299522
 20
21.08234259260553
 10
-9.32922012674593
 20
21.03009158089947
  0
LWPOLYLINE
  5
24E
330
A
100
AcDbEntity
  8
0
  6
Continuous
 62
     7
100
AcDbPolyline
 90
       43
 70
   128
 43
0.0
 10
-16.05418073194794
 20
20.56088553636954
 10
-15.97789615999771
 20
20.49592692449937
 10
-15.82484808894671
 20
20.37634688338725
 10
-15.66110370333042
 20
20.26147867637815
 10
-15.48729465479661
 20
20.15155886325866
 10
-15.30412134736514
 20
20.04685138324728
 10
-15.11227260963757
 20
19.94759280651645
 10
-14.91243409699114
 20
19.85400349933893
 10
-14.7052955236463
 20
19.76629371089815
 10
-14.49155590001893
 20
19.68466616325987
 10
-14.27192673120439
 20
19.6093164660523
 10
-14.04713346474791
 20
19.54043231305582
 10
-13.8179155531028
 20
19.47819209312782
 10
-13.58502546773397
 20
19.4227633101884
 10
-13.34922694140901
 20
19.37430104945218
 10
-13.11129265444493
 20
19.33294662915922
 10
-12.87200153076562
 20
19.29882651939233
 10
-12.63213771277291
 20
19.27205176423094
 10
-12.3925009297243
 20
19.25271814570141
 10
-12.15387036029537
 20
19.24090260848436
 10
-11.91701877961916
 20
19.23666635171613
 10
-11.68270949052476
 20
19.24005561302788
 10
-11.45169347466139
 20
19.25110291277305
 10
-11.22470692738527
 20
19.26982877997039
 10
-11.00246939342383
 20
19.29624395913485
 10
-10.78568280597666
 20
19.3303520483349
 10
-10.57503184985648
 20
19.37215242085388
 10
-10.37118621880702
 20
19.42164310034133
 10
-10.17480549878618
 20
19.47882293939306
 10
-9.986547516692546
 20
19.54369192629274
 10
-9.807080882263889
 20
19.61624765833414
 10
-9.637101775027979
 20
19.69647501905889
 10
-9.477373727662488
 20
19.78431306411755
 10
-9.32878748714944
 20
19.87957964237494
 10
-9.192224694318795
 20
19.98199271979023
 10
-9.068580893876976
 20
20.09109880398451
 10
-8.958687494215517
 20
20.20625438929639
 10
-8.863212239720041
 20
20.32665527613174
 10
-8.782579518088653
 20
20.451414142855
 10
-8.716950306427953
 20
20.57965683660613
 10
-8.666268265755221
 20
20.71059845852685
 10
-8.630343580682946
 20
20.84358019855953
 10
-8.616996892414547
 20
20.92744264744567
  0
LINE
  5
27C
330
A
100
AcDbEntity
  8
0
  6
Continuous
 62
     7
100
AcDbLine
 10
-15.57950253250127
 20
21.10187467081685
 30
0.0
 11
-17.15109056411008
 21
22.48180822849056
 31
0.0
  0
LINE
  5
27D
330
A
100
AcDbEntity
  8
0
  6
Continuous
 62
     7
100
AcDbLine
 10
-17.65445539211128
 20
21.96600714643039
 30
0.0
 11
-16.05393896056303
 21
20.56067365039776
 31
0.0
  0
LINE
  5
2B2
330
A
100
AcDbEntity
  8
0
  6
Continuous
 62
     7
100
AcDbLine
 10
-9.335242811303567
 20
22.48234340319739
 30
0.0
 11
-10.92082327667864
 21
23.87456283710268
 31
0.0
  0
LINE
  5
2B4
330
A
100
AcDbEntity
  8
0
  6
Continuous
 62
     7
100
AcDbLine
 10
-11.42420607135655
 20
23.35877753068798
 30
0.0
 11
-9.810613291700587
 21
21.94196306770612
 31
0.0
  0
LINE
  5
2B8
330
A
100
AcDbEntity
  8
0
  6
Continuous
 62
     7
100
AcDbLine
 10
-11.48119322695781
 20
23.40881511849998
 30
0.0
 11
-11.46941123212157
 21
23.39846993465989
 31
0.0
  0
LINE
  5
2E0
330
A
100
AcDbEntity
  8
0
  6
Continuous
 62
     7
100
AcDbLine
 10
-12.62122068430077
 20
24.4098165442251
 30
0.0
 11
-12.60942071652137
 21
24.3994555792373
 31
0.0
  0
LINE
  5
2E9
330
A
100
AcDbEntity
  8
0
  6
Continuous
 62
     7
100
AcDbLine
 10
-21.5820616267278
 20
9.261055537985063
 30
0.0
 11
-20.2444089971243
 21
9.556849021488446
 31
0.0
  0
LINE
  5
2EA
330
A
100
AcDbEntity
  8
0
  6
Continuous
 62
     7
100
AcDbLine
 10
-15.02487735348845
 20
15.03010546055634
 30
0.0
 11
-23.62407282951096
 21
13.12857592374887
 31
0.0
  0
LINE
  5
2EB
330
A
100
AcDbEntity
  8
0
  6
Continuous
 62
     7
100
AcDbLine
 10
-14.3205187803088
 20
10.86679159128915
 30
0.0
 11
-12.98286615070529
 21
11.16258507479254
 31
0.0
  0
LINE
  5
2EC
330
A
100
AcDbEntity
  8
0
  6
Continuous
 62
     7
100
AcDbLine
 10
-21.56529287376791
 20
23.54713700647779
 30
0.0
 11
-20.2276402441644
 21
23.84293048998118
 31
0.0
  0
LINE
  5
2ED
330
A
100
AcDbEntity
  8
0
  6
Continuous
 62
     7
100
AcDbLine
 10
-15.00810860052856
 20
29.31618692904909
 30
0.0
 11
-23.60730407655106
 21
27.4146573922416
 31
0.0
  0
LINE
  5
2EE
330
A
100
AcDbEntity
  8
0
  6
Continuous
 62
     7
100
AcDbLine
 10
-14.3037500273489
 20
25.15287305978189
 30
0.0
 11
-12.96609739774539
 21
25.44866654328528
 31
0.0
  0
LWPOLYLINE
  5
2EF
330
A
100
AcDbEntity
  8
0
  6
Continuous
 62
     7
100
AcDbPolyline
 90
        8
 70
   128
 43
0.0
 10
-17.18038837340797
 20
8.268310831903242
 10
-17.22633638741541
 20
8.300792819472484
 10
-17.31184223672135
 20
8.312713540298801
 10
-17.40931541582507
 20
8.288910711487872
 10
-17.50551604664746
 20
8.232396082209888
 10
-17.59117613869164
 20
8.147919428903129
 10
-17.65469262099703
 20
8.046486435171175
 10
-17.6926245261103
 20
7.916692177141889
  0
LWPOLYLINE
  5
2FF
330
A
100
AcDbEntity
  8
0
  6
Continuous
 62
     7
100
AcDbPolyline
 90
        5
 70
   128
 43
0.0
 10
-17.73782968687531
 20
7.956384581113788
 10
-17.73651620308636
 20
7.873721981397785
 10
-17.70434934917961
 20
7.786462396612826
 10
-17.64181479870709
 20
7.725452508750358
 10
-17.63498179497549
 20
7.723196705504939
  0
LWPOLYLINE
  5
306
330
A
100
AcDbEntity
  8
0
  6
Continuous
 62
     7
100
AcDbPolyline
 90
        4
 70
   128
 43
0.0
 10
-17.6926245261103
 20
7.916692177141889
 10
-17.69131104232134
 20
7.83402957742588
 10
-17.65914418841459
 20
7.746769992640928
 10
-17.62078975592477
 20
7.709350684313747
  0
LWPOLYLINE
  5
30C
330
A
100
AcDbEntity
  8
0
  6
Continuous
 62
     7
100
AcDbPolyline
 90
        6
 70
   128
 43
0.0
 10
-19.07423691449097
 20
9.422164169927029
 10
-18.99006750247646
 20
9.506613296047149
 10
-18.89351017719213
 20
9.564773445122767
 10
-18.7963123686136
 20
9.58981608298108
 10
-18.71050416954229
 20
9.579507759184906
 10
-18.68113844126597
 20
9.559793180609375
  0
LWPOLYLINE
  5
31A
330
A
100
AcDbEntity
  8
0
  6
Continuous
 62
     7
100
AcDbPolyline
 90
        9
 70
   128
 43
0.0
 10
-17.20060700921254
 20
8.282603973643055
 10
-17.20635202848773
 20
8.29440085583797
 10
-17.27154154818041
 20
8.340485223444382
 10
-17.35704739748637
 20
8.352405944270699
 10
-17.45452057659008
 20
8.328603115459777
 10
-17.55072120741249
 20
8.272088486181786
 10
-17.63638129945666
 20
8.187611832875035
 10
-17.69989778176204
 20
8.086178839143073
 10
-17.73782968687531
 20
7.956384581113788
  0
LWPOLYLINE
  5
325
330
A
100
AcDbEntity
  8
0
  6
Continuous
 62
     7
100
AcDbPolyline
 90
        5
 70
   128
 43
0.0
 10
-17.7948303653077
 20
8.006434042651413
 10
-17.79471410888624
 20
7.932133182108422
 10
-17.77670319205805
 20
7.86538303956231
 10
-17.72489985352844
 20
7.794349656697939
 10
-17.69872602072087
 20
7.780753246605762
  0
LWPOLYLINE
  5
32C
330
A
100
AcDbEntity
  8
0
  6
Continuous
 62
     7
100
AcDbPolyline
 90
        9
 70
   128
 43
0.0
 10
-17.26635649678783
 20
8.340835680846382
 10
-17.30188849979024
 20
8.377518679607575
 10
-17.38121235162269
 20
8.402197033759989
 10
-17.47554363654301
 20
8.391393462160571
 10
-17.57339796333784
 20
8.346250564005956
 10
-17.66436479192555
 20
8.270894700556858
 10
-17.736672399227
 20
8.17474372635317
 10
-17.78294439123811
 20
8.066490830771698
 10
-17.7948303653077
 20
8.006434042651413
  0
LWPOLYLINE
  5
337
330
A
100
AcDbEntity
  8
0
  6
Continuous
 62
     7
100
AcDbPolyline
 90
        5
 70
   128
 43
0.0
 10
-17.85183104374009
 20
8.056483504189031
 10
-17.85268886244785
 20
8.048082759978548
 10
-17.84495931446305
 20
7.947687261839014
 10
-17.80423131276108
 20
7.867174841800427
 10
-17.76361503726817
 20
7.836553893414297
  0
LWPOLYLINE
  5
33E
330
A
100
AcDbEntity
  8
0
  6
Continuous
 62
     7
100
AcDbPolyline
 90
        9
 70
   128
 43
0.0
 10
-17.31900704731561
 20
8.385338247144197
 10
-17.33550739421465
 20
8.410196557863073
 10
-17.40740375387803
 20
8.447351207559783
 10
-17.49702096399045
 20
8.449555534089746
 10
-17.59542907928212
 20
8.416263245503095
 10
-17.68978261772035
 20
8.351445791523076
 10
-17.77018963275368
 20
8.2613607545996
 10
-17.82492854978057
 20
8.160848130459541
 10
-17.85183104374009
 20
8.056483504189031
  0
LWPOLYLINE
  5
349
330
A
100
AcDbEntity
  8
0
  6
Continuous
 62
     7
100
AcDbPolyline
 90
        5
 70
   128
 43
0.0
 10
-17.90883172217247
 20
8.106532965726643
 10
-17.90877573854985
 20
8.032708669452034
 10
-17.87949455069504
 20
7.943388869720337
 10
-17.81957323650565
 20
7.87985682390655
 10
-17.80757716231798
 20
7.875374615812496
  0
LWPOLYLINE
  5
350
330
A
100
AcDbEntity
  8
0
  6
Continuous
 62
     7
100
AcDbPolyline
 90
       10
 70
   128
 43
0.0
 10
-17.36989874296533
 20
8.4321292804809
 10
-17.37288042540047
 20
8.438967674758771
 10
-17.43569635306843
 20
8.487844630854596
 10
-17.51975355128454
 20
8.502928714409343
 10
-17.61664944767134
 20
8.482308014539967
 10
-17.71334285074241
 20
8.428562666173917
 10
-17.80049737992648
 20
8.346169846246723
 10
-17.86624426263559
 20
8.245968238103728
 10
-17.89422611290693
 20
8.175904948311249
 10
-17.90883172217247
 20
8.106532965726643
  0
LWPOLYLINE
  5
35C
330
A
100
AcDbEntity
  8
0
  6
Continuous
 62
     7
100
AcDbPolyline
 90
        5
 70
   128
 43
0.0
 10
-17.96583240060486
 20
8.156582427264268
 10
-17.9662474223345
 20
8.086742391854194
 10
-17.95087896560018
 20
8.023197177498055
 10
-17.90177723294132
 20
7.949773777527511
 10
-17.8715448442964
 20
7.932470641235426
  0
LWPOLYLINE
  5
363
330
A
100
AcDbEntity
  8
0
  6
Continuous
 62
     7
100
AcDbPolyline
 90
        9
 70
   128
 43
0.0
 10
-17.43640495194773
 20
8.489381586124153
 10
-17.46679686412388
 20
8.523772035171248
 10
-17.54445665186225
 20
8.551568010617714
 10
-17.63770836342846
 20
8.543983102305332
 10
-17.73582952780293
 20
8.501703908573027
 10
-17.82778833377648
 20
8.428850954697821
 10
-17.90216121924313
 20
8.334121047846451
 10
-17.95106575495502
 20
8.226482167921105
 10
-17.96583240060486
 20
8.156582427264268
  0
LWPOLYLINE
  5
36E
330
A
100
AcDbEntity
  8
0
  6
Continuous
 62
     7
100
AcDbPolyline
 90
        4
 70
   128
 43
0.0
 10
-18.02283307903724
 20
8.206631888801894
 10
-18.01795865944761
 20
8.105785368424562
 10
-17.98011793068774
 20
8.023475976038589
 10
-17.93680626238016
 20
7.987902208751748
  0
LWPOLYLINE
  5
374
330
A
100
AcDbEntity
  8
0
  6
Continuous
 62
     7
100
AcDbPolyline
 90
       10
 70
   128
 43
0.0
 10
-17.48869496226994
 20
8.534490332397993
 10
-17.50130368532742
 20
8.555437554682775
 10
-17.57109994754459
 20
8.595575180397624
 10
-17.65942278775777
 20
8.600970329592087
 10
-17.75766296930058
 20
8.570739122758915
 10
-17.85267820152518
 20
8.508614671826933
 10
-17.9349147704421
 20
8.420236184543739
 10
-17.99372655315169
 20
8.316423781079755
 10
-18.02271605459889
 20
8.207641325380535
 10
-18.02283307903724
 20
8.206631888801894
  0
LWPOLYLINE
  5
380
330
A
100
AcDbEntity
  8
0
  6
Continuous
 62
     7
100
AcDbPolyline
 90
        5
 70
   128
 43
0.0
 10
-18.07983375746963
 20
8.256681350339512
 10
-18.08075524752817
 20
8.191812521685129
 10
-18.05441220939664
 20
8.100545801722425
 10
-17.99712695600249
 20
8.034523777342492
 10
-17.98021078780822
 20
8.027434817477562
  0
LWPOLYLINE
  5
387
330
A
100
AcDbEntity
  8
0
  6
Continuous
 62
     7
100
AcDbPolyline
 90
       10
 70
   128
 43
0.0
 10
-17.5390256810865
 20
8.581736281387421
 10
-17.539656546108
 20
8.583333152673482
 10
-17.60002259128607
 20
8.63492514327784
 10
-17.68258100416145
 20
8.65316245494619
 10
-17.77876833626069
 20
8.635746094259424
 10
-17.87589908210138
 20
8.584793946795706
 10
-17.96442909913588
 20
8.504598062133815
 10
-18.03236625202634
 20
8.405674944564339
 10
-18.06369573656011
 20
8.330980355322225
 10
-18.07983375746963
 20
8.256681350339512
  0
LWPOLYLINE
  5
393
330
A
100
AcDbEntity
  8
0
  6
Continuous
 62
     7
100
AcDbPolyline
 90
        5
 70
   128
 43
0.0
 10
-18.13683443590202
 20
8.30673081187713
 10
-18.12861760153253
 20
8.193132685735506
 10
-18.07841858538388
 20
8.105428978722862
 10
-18.02443090275658
 20
8.066979264324793
 10
-18.02353825966413
 20
8.066719600968696
  0
LWPOLYLINE
  5
39A
330
A
100
AcDbEntity
  8
0
  6
Continuous
 62
     7
100
AcDbPolyline
 90
       11
 70
   128
 43
0.0
 10
-17.60527896110329
 20
8.638985295913904
 10
-17.63191330029111
 20
8.669765109250825
 10
-17.68701257470305
 20
8.696208596151862
 10
-17.75211194696713
 20
8.7029655138654
 10
-17.82455097043081
 20
8.689561070189888
 10
-17.89824431703105
 20
8.656893490101403
 10
-17.96882509835446
 20
8.606885324537699
 10
-18.0321510093017
 20
8.541953000297773
 10
-18.0828932045321
 20
8.467662391965689
 10
-18.11892330280528
 20
8.386486752691048
 10
-18.13683443590202
 20
8.30673081187713
  0
LWPOLYLINE
  5
3A7
330
A
100
AcDbEntity
  8
0
  6
Continuous
 62
     7
100
AcDbPolyline
 90
        5
 70
   128
 43
0.0
 10
-18.1938351143344
 20
8.356780273414756
 10
-18.18957197846903
 20
8.258615041646464
 10
-18.15407050829755
 20
8.177605130443055
 10
-18.090490650012
 20
8.121655054990561
 10
-18.09034248841317
 20
8.121612668665591
  0
LWPOLYLINE
  5
3AE
330
A
100
AcDbEntity
  8
0
  6
Continuous
 62
     7
100
AcDbPolyline
 90
       11
 70
   128
 43
0.0
 10
-17.65993108477126
 20
8.687387623246998
 10
-17.6817874480454
 20
8.714202731536794
 10
-17.73493520266502
 20
8.743514705797757
 10
-17.82191289792983
 20
8.752092260056656
 10
-17.91985031480052
 20
8.724970437051254
 10
-18.01547191577941
 20
8.665564576912196
 10
-18.08031014581557
 20
8.602529430571919
 10
-18.13309233833778
 20
8.529472912112652
 10
-18.17157940673157
 20
8.448986153477825
 10
-18.19247804771081
 20
8.367266576581428
 10
-18.1938351143344
 20
8.356780273414756
  0
LWPOLYLINE
  5
3BB
330
A
100
AcDbEntity
  8
0
  6
Continuous
 62
     7
100
AcDbPolyline
 90
        6
 70
   128
 43
0.0
 10
-18.25083579276679
 20
8.406829734952374
 10
-18.25245450088644
 20
8.351020660800784
 10
-18.23805649285073
 20
8.279218076124337
 10
-18.20557917655592
 20
8.220408218189739
 10
-18.15625506216339
 20
8.17676856502409
 10
-18.15562965209054
 20
8.17651822468327
  0
LWPOLYLINE
  5
3C3
330
A
100
AcDbEntity
  8
0
  6
Continuous
 62
     7
100
AcDbPolyline
 90
       10
 70
   128
 43
0.0
 10
-17.72330530467501
 20
8.743088275132734
 10
-17.76453007060967
 20
8.781730185425317
 10
-17.84553968670167
 20
8.803109996548315
 10
-17.91622704732248
 20
8.795845702228291
 10
-17.9902911529392
 20
8.768687264213014
 10
-18.06197494888944
 20
8.723880722382126
 10
-18.12818493020035
 20
8.66288405581168
 10
-18.18746483006077
 20
8.583877184746633
 10
-18.22970868852994
 20
8.495913709262737
 10
-18.25083579276679
 20
8.406829734952374
  0
LWPOLYLINE
  5
3CF
330
A
100
AcDbEntity
  8
0
  6
Continuous
 62
     7
100
AcDbPolyline
 90
        4
 70
   128
 43
0.0
 10
-18.30783647119918
 20
8.45687919649
 10
-18.29845579026973
 20
8.339408577393598
 10
-18.25481791429855
 20
8.261305954002168
 10
-18.21742927586656
 20
8.235603481630292
  0
LWPOLYLINE
  5
3D5
330
A
100
AcDbEntity
  8
0
  6
Continuous
 62
     7
100
AcDbPolyline
 90
       10
 70
   128
 43
0.0
 10
-17.77628039393118
 20
8.786937031782677
 10
-17.79724543447151
 20
8.815504347672892
 10
-17.87124448889434
 20
8.849466472892736
 10
-17.96217012608114
 20
8.848300574597587
 10
-18.06060939540698
 20
8.811844406308637
 10
-18.15420585737937
 20
8.744218136711928
 10
-18.2325830005485
 20
8.652470091630114
 10
-18.27568062237741
 20
8.573872405769172
 10
-18.30214850613348
 20
8.491693858402555
 10
-18.30783647119918
 20
8.45687919649
  0
LWPOLYLINE
  5
3E1
330
A
100
AcDbEntity
  8
0
  6
Continuous
 62
     7
100
AcDbPolyline
 90
        6
 70
   128
 43
0.0
 10
-18.36483714963157
 20
8.506928658027618
 10
-18.36697448083834
 20
8.474387983492945
 10
-18.35842928446139
 20
8.399882359611297
 10
-18.33112859671475
 20
8.336649990323337
 10
-18.2684547109814
 20
8.275776121633469
 10
-18.26190472852448
 20
8.273628705035129
  0
LWPOLYLINE
  5
3E9
330
A
100
AcDbEntity
  8
0
  6
Continuous
 62
     7
100
AcDbPolyline
 90
       10
 70
   128
 43
0.0
 10
-17.83108204189154
 20
8.839877217999536
 10
-17.83360607825132
 20
8.845238069871022
 10
-17.88022393219995
 20
8.882736221664103
 10
-17.93982422672479
 20
8.901448776231731
 10
-18.00821580876833
 20
8.900290679847103
 10
-18.08200286982755
 20
8.878949260092717
 10
-18.17817554000633
 20
8.822286960506126
 10
-18.26375229486213
 20
8.737701974515708
 10
-18.32714816554882
 20
8.636204349545643
 10
-18.36483714963157
 20
8.506928658027618
  0
LWPOLYLINE
  5
3F5
330
A
100
AcDbEntity
  8
0
  6
Continuous
 62
     7
100
AcDbPolyline
 90
        5
 70
   128
 43
0.0
 10
-18.42183782806395
 20
8.556978119565236
 10
-18.42037303819577
 20
8.473376036025179
 10
-18.39621241633446
 20
8.400461383212579
 10
-18.35158603124669
 20
8.344617797823453
 10
-18.32603056175735
 20
8.329514192842658
  0
LWPOLYLINE
  5
3FC
330
A
100
AcDbEntity
  8
0
  6
Continuous
 62
     7
100
AcDbPolyline
 90
       10
 70
   128
 43
0.0
 10
-17.8913221820239
 20
8.890824529974374
 10
-17.92922812488385
 20
8.92826395931312
 10
-18.00863902903254
 20
8.952774907605153
 10
-18.10302541859861
 20
8.94179874435597
 10
-18.20086386424642
 20
8.896503070603124
 10
-18.27029044566123
 20
8.842376169194672
 10
-18.33087685446004
 20
8.774681349780856
 10
-18.37824477744766
 20
8.698426217149382
 10
-18.41009867619832
 20
8.616508242876371
 10
-18.42183782806395
 20
8.556978119565236
  0
LWPOLYLINE
  5
408
330
A
100
AcDbEntity
  8
0
  6
Continuous
 62
     7
100
AcDbPolyline
 90
        6
 70
   128
 43
0.0
 10
-18.47883850649633
 20
8.607027581102862
 10
-18.47974109970607
 20
8.598123292952678
 10
-18.47706813548724
 20
8.521590049746009
 10
-18.45518825909599
 20
8.45428691643189
 10
-18.41598636585931
 20
8.401355526443964
 10
-18.3848910662183
 20
8.380714614636517
  0
LWPOLYLINE
  5
410
330
A
100
AcDbEntity
  8
0
  6
Continuous
 62
     7
100
AcDbPolyline
 90
        9
 70
   128
 43
0.0
 10
-17.94415798922427
 20
8.938407062794631
 10
-17.97855053228476
 20
8.973366687583272
 10
-18.03480630980151
 20
8.997990343024056
 10
-18.12449142230969
 20
9.000023506177214
 10
-18.22290472755387
 20
8.966568752313989
 10
-18.31722125554102
 20
8.901607765574894
 10
-18.39557344282844
 20
8.814198528404546
 10
-18.4514214781252
 20
8.712677122318297
 10
-18.47883850649633
 20
8.607027581102862
  0
LWPOLYLINE
  5
41B
330
A
100
AcDbEntity
  8
0
  6
Continuous
 62
     7
100
AcDbPolyline
 90
        5
 70
   128
 43
0.0
 10
-18.53583918492872
 20
8.65707704264048
 10
-18.53572292850725
 20
8.582776182097504
 10
-18.5166535208892
 20
8.513639009441639
 10
-18.48000791660087
 20
8.458459007634608
 10
-18.44283829653484
 20
8.43086631272471
  0
LWPOLYLINE
  5
422
330
A
100
AcDbEntity
  8
0
  6
Continuous
 62
     7
100
AcDbPolyline
 90
       10
 70
   128
 43
0.0
 10
-17.99700150536262
 20
8.982704159899824
 10
-18.00012129484398
 20
8.989815958283394
 10
-18.06306637512721
 20
9.038545214361747
 10
-18.14720245183824
 20
9.053460083830579
 10
-18.2193599385484
 20
9.041203479082611
 10
-18.29317131901416
 20
9.009539995413405
 10
-18.36397007986856
 20
8.960505378698023
 10
-18.42787847958903
 20
8.896266586040702
 10
-18.500621118847
 20
8.780982988496454
 10
-18.53583918492872
 20
8.65707704264048
  0
LWPOLYLINE
  5
42E
330
A
100
AcDbEntity
  8
0
  6
Continuous
 62
     7
100
AcDbPolyline
 90
        5
 70
   128
 43
0.0
 10
-18.59283986336111
 20
8.707126504178098
 10
-18.59322819974339
 20
8.637046775271151
 10
-18.57772285386323
 20
8.573325494795312
 10
-18.52847587191253
 20
8.500029287257916
 10
-18.49845302786549
 20
8.482933318498496
  0
LWPOLYLINE
  5
435
330
A
100
AcDbEntity
  8
0
  6
Continuous
 62
     7
100
AcDbPolyline
 90
       10
 70
   128
 43
0.0
 10
-18.06346515103933
 20
9.040007562461859
 10
-18.094125569452
 20
9.074531426896044
 10
-18.17187719880236
 20
9.102160817687831
 10
-18.26518834789829
 20
9.094403626978454
 10
-18.3632966452661
 20
9.051970451321203
 10
-18.45520559764126
 20
8.978981169582581
 10
-18.52946890065521
 20
8.884173953972165
 10
-18.56885154253844
 20
8.803989806227228
 10
-18.59080258262222
 20
8.722130180098645
 10
-18.59283986336111
 20
8.707126504178098
  0
LWPOLYLINE
  5
441
330
A
100
AcDbEntity
  8
0
  6
Continuous
 62
     7
100
AcDbPolyline
 90
        5
 70
   128
 43
0.0
 10
-18.64984054179349
 20
8.757175965715724
 10
-18.64491296158483
 20
8.656102495177833
 10
-18.60687017341523
 20
8.573685516820631
 10
-18.5584622481383
 20
8.52912211298458
 10
-18.55460477840854
 20
8.527493597162219
  0
LWPOLYLINE
  5
448
330
A
100
AcDbEntity
  8
0
  6
Continuous
 62
     7
100
AcDbPolyline
 90
       10
 70
   128
 43
0.0
 10
-18.11995944498004
 20
9.090680164163174
 10
-18.12858411767394
 20
9.106250438656701
 10
-18.17885742096003
 20
9.139401968204772
 10
-18.24078667914642
 20
9.153262422579729
 10
-18.31107959671266
 20
9.147147108340789
 10
-18.38514143750724
 20
9.121057496326699
 10
-18.4801226248533
 20
9.058788122834194
 10
-18.56226378457921
 20
8.970314925503195
 10
-18.62095061495163
 20
8.866443167170992
 10
-18.64984054179349
 20
8.757175965715724
  0
LWPOLYLINE
  5
454
330
A
100
AcDbEntity
  8
0
  6
Continuous
 62
     7
100
AcDbPolyline
 90
        5
 70
   128
 43
0.0
 10
-18.70684122022588
 20
8.807225427253342
 10
-18.70433425969345
 20
8.717657262150162
 10
-18.67578034999494
 20
8.641188283487018
 10
-18.62378877129676
 20
8.584819238448027
 10
-18.60983044668165
 20
8.579004519254354
  0
LWPOLYLINE
  5
45B
330
A
100
AcDbEntity
  8
0
  6
Continuous
 62
     7
100
AcDbPolyline
 90
       11
 70
   128
 43
0.0
 10
-18.16668387289579
 20
9.132883605723961
 10
-18.16764755320778
 20
9.13527183156281
 10
-18.22738317677517
 20
9.185640587753347
 10
-18.31002315050949
 20
9.203709243030381
 10
-18.4062517330774
 20
9.186120802422671
 10
-18.50336045735185
 20
9.135018420059282
 10
-18.57121563216255
 20
9.077037890969855
 10
-18.62874562021179
 20
9.007001388279093
 10
-18.67265724519621
 20
8.928830344126893
 10
-18.70015071513414
 20
8.846645557198115
 10
-18.70684122022588
 20
8.807225427253342
  0
LWPOLYLINE
  5
468
330
A
100
AcDbEntity
  8
0
  6
Continuous
 62
     7
100
AcDbPolyline
 90
        6
 70
   128
 43
0.0
 10
-18.76384189865826
 20
8.857274888790961
 10
-18.76588001684935
 20
8.829139284530818
 10
-18.75843619152508
 20
8.75420156395031
 10
-18.73212738652083
 20
8.690168596784893
 10
-18.68877540113527
 20
8.6409253103158
 10
-18.66894617291452
 20
8.630057291307686
  0
LWPOLYLINE
  5
470
330
A
100
AcDbEntity
  8
0
  6
Continuous
 62
     7
100
AcDbPolyline
 90
       10
 70
   128
 43
0.0
 10
-18.22879661561224
 20
9.189900475520424
 10
-18.23045694831231
 20
9.192974062090513
 10
-18.27619736513377
 20
9.231439249482448
 10
-18.33521376069905
 20
9.251266465532133
 10
-18.42739065153185
 20
9.246722367150915
 10
-18.52571229614794
 20
9.207174075993364
 10
-18.61849004434315
 20
9.136769107575702
 10
-18.68890781557303
 20
9.05238983894543
 10
-18.73906719373764
 20
8.956201623748768
 10
-18.76384189865826
 20
8.857274888790961
  0
LWPOLYLINE
  5
47C
330
A
100
AcDbEntity
  8
0
  6
Continuous
 62
     7
100
AcDbPolyline
 90
        5
 70
   128
 43
0.0
 10
-18.82084257709065
 20
8.907324350328586
 10
-18.81781146775377
 20
8.815028375002661
 10
-18.78251480324318
 20
8.73016716542537
 10
-18.71711983467023
 20
8.671994006339822
 10
-18.71626033109907
 20
8.671750003781461
  0
LWPOLYLINE
  5
483
330
A
100
AcDbEntity
  8
0
  6
Continuous
 62
     7
100
AcDbPolyline
 90
       10
 70
   128
 43
0.0
 10
-18.28535092347061
 20
9.234362879623148
 10
-18.294602655809
 20
9.251273404767061
 10
-18.36232289336556
 20
9.294184312397597
 10
-18.44937393258748
 20
9.302591603349775
 10
-18.52259313182363
 20
9.285375636442388
 10
-18.59581640322501
 20
9.249398967303619
 10
-18.66554620949937
 20
9.19619952931454
 10
-18.72679337850994
 20
9.129104828454771
 10
-18.79001504178403
 20
9.021221965389919
 10
-18.82084257709065
 20
8.907324350328586
  0
LWPOLYLINE
  5
48F
330
A
100
AcDbEntity
  8
0
  6
Continuous
 62
     7
100
AcDbPolyline
 90
        6
 70
   128
 43
0.0
 10
-18.87784325552304
 20
8.957373811866204
 10
-18.87832404503705
 20
8.95291966086944
 10
-18.87674468315878
 20
8.876083959490408
 10
-18.85591075530966
 20
8.808077273209136
 10
-18.80114070894408
 20
8.739728527906933
 10
-18.77981007681764
 20
8.729829673245482
  0
LWPOLYLINE
  5
497
330
A
100
AcDbEntity
  8
0
  6
Continuous
 62
     7
100
AcDbPolyline
 90
       10
 70
   128
 43
0.0
 10
-18.34340479682673
 20
9.288467743528336
 10
-18.37476464560987
 20
9.321752991847645
 10
-18.43033390178474
 20
9.347468618500002
 10
-18.49575715477739
 20
9.353472817844178
 10
-18.56837249868474
 20
9.339300870269866
 10
-18.66586596075391
 20
9.29101393025941
 10
-18.75558489509681
 20
9.212995995864325
 10
-18.8255576878604
 20
9.115326025262675
 10
-18.86019447706351
 20
9.036337569595993
 10
-18.87784325552304
 20
8.957373811866204
  0
LWPOLYLINE
  5
4A3
330
A
100
AcDbEntity
  8
0
  6
Continuous
 62
     7
100
AcDbPolyline
 90
        4
 70
   128
 43
0.0
 10
-18.93484393395542
 20
9.00742327340383
 10
-18.92773073057633
 20
8.897736255559046
 10
-18.88154246164411
 20
8.811537679334016
 10
-18.8406649545306
 20
8.779921732691626
  0
LWPOLYLINE
  5
4A9
330
A
100
AcDbEntity
  8
0
  6
Continuous
 62
     7
100
AcDbPolyline
 90
       10
 70
   128
 43
0.0
 10
-18.40258186072683
 20
9.338984524405141
 10
-18.42455105595803
 20
9.366290949485602
 10
-18.47819991150292
 20
9.394888581521236
 10
-18.54232000397476
 20
9.403889890625166
 10
-18.61417423516028
 20
9.392782873944682
 10
-18.68808141780116
 20
9.362136865863178
 10
-18.78163773901973
 20
9.294368571336953
 10
-18.85990985087019
 20
9.202538223558299
 10
-18.91371682971871
 20
9.096507247713766
 10
-18.93484393395542
 20
9.00742327340383
  0
LWPOLYLINE
  5
4B5
330
A
100
AcDbEntity
  8
0
  6
Continuous
 62
     7
100
AcDbPolyline
 90
        5
 70
   128
 43
0.0
 10
-18.99184461238781
 20
9.057472734941448
 10
-18.98816535881876
 20
8.962003873433985
 10
-18.95492792655126
 20
8.882351425423941
 10
-18.89509406374574
 20
8.826100506701166
 10
-18.89052841171805
 20
8.824614054939765
  0
LWPOLYLINE
  5
4BC
330
A
100
AcDbEntity
  8
0
  6
Continuous
 62
     7
100
AcDbPolyline
 90
       11
 70
   128
 43
0.0
 10
-18.45803945196207
 20
9.388126062609551
 10
-18.47469229631113
 20
9.41043452594107
 10
-18.52629985077942
 20
9.441855537476591
 10
-18.61195793292086
 20
9.453436749316935
 10
-18.70948509757615
 20
9.429294658938573
 10
-18.80562964833224
 20
9.372484759128383
 10
-18.87150903962038
 20
9.310963863269918
 10
-18.9258031079864
 20
9.238845656843061
 10
-18.96606705891232
 20
9.158988032027956
 10
-18.98906689878571
 20
9.077013119947515
 10
-18.99184461238781
 20
9.057472734941448
  0
LWPOLYLINE
  5
4C9
330
A
100
AcDbEntity
  8
0
  6
Continuous
 62
     7
100
AcDbPolyline
 90
        6
 70
   128
 43
0.0
 10
-19.04884529082019
 20
9.107522196479067
 10
-19.05086621436627
 20
9.060371754099151
 10
-19.03865160520877
 20
8.987479901679371
 10
-19.00810392430448
 20
8.927005596227054
 10
-18.96062422869316
 20
8.881534932407014
 10
-18.95360849818227
 20
8.878416030480678
  0
LWPOLYLINE
  5
4D1
330
A
100
AcDbEntity
  8
0
  6
Continuous
 62
     7
100
AcDbPolyline
 90
       10
 70
   128
 43
0.0
 10
-18.52046992746764
 20
9.442104708644862
 10
-18.55656832234083
 20
9.479008474570761
 10
-18.63606613578836
 20
9.503351982440257
 10
-18.70594441744144
 20
9.498383636674908
 10
-18.7799811558318
 20
9.473373053666563
 10
-18.85204076638013
 20
9.430518531559002
 10
-18.91918257449023
 20
9.371136200766279
 10
-18.98190437299524
 20
9.290330219826287
 10
-19.02659494183152
 20
9.199713423531186
 10
-19.04884529082019
 20
9.107522196479067
  0
LWPOLYLINE
  5
4DD
330
A
100
AcDbEntity
  8
0
  6
Continuous
 62
     7
100
AcDbPolyline
 90
        4
 70
   128
 43
0.0
 10
-19.10584596925257
 20
9.157571658016692
 10
-19.09873276587349
 20
9.047884640171908
 10
-19.05770786854297
 20
8.967615516499762
 10
-19.01740221587445
 20
8.937509467325064
  0
LWPOLYLINE
  5
4E3
330
A
100
AcDbEntity
  8
0
  6
Continuous
 62
     7
100
AcDbPolyline
 90
       10
 70
   128
 43
0.0
 10
-18.57315615659829
 20
9.486541422345268
 10
-18.59009378657839
 20
9.511796498779915
 10
-18.66220923093336
 20
9.548628661396769
 10
-18.75196209915326
 20
9.550490638767882
 10
-18.8258197008534
 20
9.528405936983453
 10
-18.89835050364272
 20
9.488162987924702
 10
-18.96660424978316
 20
9.431044356034789
 10
-19.02486458611188
 20
9.36150902754904
 10
-19.07915273754393
 20
9.261410464136808
 10
-19.10584596925257
 20
9.157571658016692
  0
LWPOLYLINE
  5
6B7
330
A
100
AcDbEntity
  8
0
  6
Continuous
 62
     7
100
AcDbPolyline
 90
        9
 70
   128
 43
0.0
 10
-19.16900473561727
 20
9.213028230374554
 10
-19.17159965046169
 20
9.189243362601828
 10
-19.17237960134466
 20
9.165999710406246
 10
-19.17133988811441
 20
9.143437345035735
 10
-19.16848677630649
 20
9.121692232157251
 10
-19.16383745938638
 20
9.100895412498481
 10
-19.15741995513793
 20
9.081172212168134
 10
-19.14927293682215
 20
9.062641487413934
 10
-19.13944550012388
 20
9.045414908369295
  0
LWPOLYLINE
  5
6C9
330
A
100
AcDbEntity
  8
0
  6
Continuous
 62
     7
100
AcDbPolyline
 90
        4
 70
   128
 43
0.0
 10
-18.99205913704508
 20
9.502731868622475
 10
-19.0265533463245
 20
9.476963299355453
 10
-19.09127248663257
 20
9.401383183271924
 10
-19.11104140897613
 20
9.364063887483631
  0
LWPOLYLINE
  5
6DC
330
A
100
AcDbEntity
  8
0
  6
Continuous
 62
     7
100
AcDbPolyline
 90
        9
 70
   128
 43
0.0
 10
-11.47715348357015
 20
9.32243863269258
 10
-11.47465989393272
 20
9.335006390837641
 10
-11.43573055189404
 20
9.438715782457805
 10
-11.36791399382815
 20
9.535758923858594
 10
-11.27726949275216
 20
9.616302677131649
 10
-11.17546646072176
 20
9.669642780894491
 10
-11.07141539155282
 20
9.690402761655917
 10
-10.97881729323303
 20
9.675636963530401
 10
-10.92223120861806
 20
9.637472600791333
  0
LWPOLYLINE
  5
6F8
330
A
100
AcDbEntity
  8
0
  6
Continuous
 62
     7
100
AcDbPolyline
 90
        4
 70
   128
 43
0.0
 10
-11.42002392151789
 20
9.128327462744671
 10
-11.45180946414011
 20
9.157540483863776
 10
-11.47923191125026
 20
9.232108470740087
 10
-11.47715348357015
 20
9.32243863269258
  0
LWPOLYLINE
  5
6FE
330
A
100
AcDbEntity
  8
0
  6
Continuous
 62
     7
100
AcDbPolyline
 90
       12
 70
   128
 43
0.0
 10
-12.90368526338624
 20
10.49755410260488
 10
-12.91259506385268
 20
10.51411679435206
 10
-12.91892587712011
 20
10.59979114520622
 10
-12.89447629725499
 20
10.69492575377825
 10
-12.84074864067225
 20
10.79008697950592
 10
-12.76375985616621
 20
10.87304792206333
 10
-12.6700414011536
 20
10.9354970567752
 10
-12.57110549662449
 20
10.96872115805608
 10
-12.4762348193718
 20
10.96874500430525
 10
-12.39707465227243
 20
10.9346805468123
 10
-12.36597132329517
 20
10.90555470314336
 10
-12.36597132329517
 20
10.90555470314336
  0
LWPOLYLINE
  5
70C
330
A
100
AcDbEntity
  8
0
  6
Continuous
 62
     7
100
AcDbPolyline
 90
        6
 70
   128
 43
0.0
 10
-12.8068409825677
 20
10.34920138775675
 10
-12.82600963686595
 20
10.35690173647928
 10
-12.87621574459241
 20
10.4185919088644
 10
-12.8936211374442
 20
10.48168962062978
 10
-12.89188230850583
 20
10.55413195861403
 10
-12.89037492671243
 20
10.56331811356737
  0
LWPOLYLINE
  5
714
330
A
100
AcDbEntity
  8
0
  6
Continuous
 62
     7
100
AcDbPolyline
 90
       10
 70
   128
 43
0.0
 10
-12.89037492671243
 20
10.56331811356737
 10
-12.86934336520038
 20
10.63580092961272
 10
-12.83226421496542
 20
10.70843184308112
 10
-12.75746325898179
 20
10.80155892555986
 10
-12.66220745401497
 20
10.87540168702694
 10
-12.55889157932618
 20
10.91995671845164
 10
-12.48131442984056
 20
10.93135859725278
 10
-12.41084949676784
 20
10.92273611968318
 10
-12.3498182306022
 20
10.89420612381764
 10
-12.31471130070615
 20
10.85923429182534
  0
LWPOLYLINE
  5
720
330
A
100
AcDbEntity
  8
0
  6
Continuous
 62
     7
100
AcDbPolyline
 90
        4
 70
   128
 43
0.0
 10
-12.75120603647188
 20
10.29754489559191
 10
-12.79068721711901
 20
10.32611471295117
 10
-12.83246656020142
 20
10.40729849634724
 10
-12.83337424828004
 20
10.51326865202976
  0
LWPOLYLINE
  5
726
330
A
100
AcDbEntity
  8
0
  6
Continuous
 62
     7
100
AcDbPolyline
 90
       10
 70
   128
 43
0.0
 10
-12.83337424828004
 20
10.51326865202976
 10
-12.80946278364273
 20
10.59277615925948
 10
-12.75085356733411
 20
10.69390611569653
 10
-12.66758454104435
 20
10.78123222714616
 10
-12.56834385288887
 20
10.84509996040518
 10
-12.48997166073486
 20
10.87291405987857
 10
-12.41310354491965
 20
10.8812728819872
 10
-12.34392778064761
 20
10.86964956489316
 10
-12.28474474107031
 20
10.83820129255743
 10
-12.25973581086749
 20
10.80924062124764
  0
LWPOLYLINE
  5
732
330
A
100
AcDbEntity
  8
0
  6
Continuous
 62
     7
100
AcDbPolyline
 90
        5
 70
   128
 43
0.0
 10
-12.69128662208656
 20
10.24449409622554
 10
-12.69332638836506
 20
10.24502286200554
 10
-12.74947655595185
 20
10.29596748729954
 10
-12.77820267487681
 20
10.37130495606722
 10
-12.77637356984766
 20
10.46321919049213
  0
LWPOLYLINE
  5
739
330
A
100
AcDbEntity
  8
0
  6
Continuous
 62
     7
100
AcDbPolyline
 90
       11
 70
   128
 43
0.0
 10
-12.77637356984766
 20
10.46321919049213
 10
-12.77366607475834
 20
10.47676073963253
 10
-12.74728085496121
 20
10.55454818286102
 10
-12.70340841637047
 20
10.63071048120246
 10
-12.64550569017155
 20
10.69943540259796
 10
-12.57554225907799
 20
10.75773925689584
 10
-12.47368009611732
 20
10.8107865902827
 10
-12.36967325151961
 20
10.83120946791029
 10
-12.27722347944751
 20
10.81610319913534
 10
-12.22002343451993
 20
10.78179870788012
 10
-12.20004444462879
 20
10.75723515492995
  0
LWPOLYLINE
  5
746
330
A
100
AcDbEntity
  8
0
  6
Continuous
 62
     7
100
AcDbPolyline
 90
        6
 70
   128
 43
0.0
 10
-12.64089992046842
 20
10.19825725293493
 10
-12.64428378351021
 20
10.19954825745721
 10
-12.68823406430989
 20
10.23990454434438
 10
-12.71539962981787
 20
10.29544449248674
 10
-12.72421047905985
 20
10.36359860444513
 10
-12.71937289141527
 20
10.41316972895451
  0
LWPOLYLINE
  5
74E
330
A
100
AcDbEntity
  8
0
  6
Continuous
 62
     7
100
AcDbPolyline
 90
       10
 70
   128
 43
0.0
 10
-12.71937289141527
 20
10.41316972895451
 10
-12.69270507918069
 20
10.49908535077306
 10
-12.6443016478858
 20
10.58363466890502
 10
-12.57859224892898
 20
10.65900064233089
 10
-12.5073039263137
 20
10.71522547916486
 10
-12.43097642756314
 20
10.75528379166258
 10
-12.35226168510809
 20
10.77747190724216
 10
-12.2773020220885
 20
10.77974464195049
 10
-12.19082541636293
 20
10.75178680750007
 10
-12.15160232411708
 20
10.71402840267079
  0
LWPOLYLINE
  5
75A
330
A
100
AcDbEntity
  8
0
  6
Continuous
 62
     7
100
AcDbPolyline
 90
        4
 70
   128
 43
0.0
 10
-12.58546209813948
 20
10.15417376871369
 10
-12.62444199568399
 20
10.18130179944431
 10
-12.66096067210981
 20
10.25500700107812
 10
-12.66237221298289
 20
10.36312026741689
  0
LWPOLYLINE
  5
760
330
A
100
AcDbEntity
  8
0
  6
Continuous
 62
     7
100
AcDbPolyline
 90
       11
 70
   128
 43
0.0
 10
-12.66237221298289
 20
10.36312026741689
 10
-12.65370340155572
 20
10.39986716352173
 10
-12.62171522191222
 20
10.47795360046577
 10
-12.57337852276007
 20
10.55219275194263
 10
-12.51141431275189
 20
10.61830845144472
 10
-12.43895968577498
 20
10.67233384218009
 10
-12.36215218713658
 20
10.70978935298973
 10
-12.28352426982718
 20
10.72906164205925
 10
-12.18704199071719
 20
10.72366831951625
 10
-12.10760185866871
 20
10.68305632176474
 10
-12.08788980913293
 20
10.65639670297614
  0
LWPOLYLINE
  5
76D
330
A
100
AcDbEntity
  8
0
  6
Continuous
 62
     7
100
AcDbPolyline
 90
        6
 70
   128
 43
0.0
 10
-12.51982671382689
 20
10.09578017668379
 10
-12.52864918399651
 20
10.09846024775625
 10
-12.58420846060085
 20
10.15498103848611
 10
-12.60609030077593
 20
10.21484353021496
 10
-12.60906895692909
 20
10.28562468181531
 10
-12.6053715345505
 20
10.31307080587927
  0
LWPOLYLINE
  5
775
330
A
100
AcDbEntity
  8
0
  6
Continuous
 62
     7
100
AcDbPolyline
 90
       10
 70
   128
 43
0.0
 10
-12.6053715345505
 20
10.31307080587927
 10
-12.55835817210742
 20
10.43953503415894
 10
-12.48805799083647
 20
10.53526749677534
 10
-12.3956549996163
 20
10.61358625737269
 10
-12.29326747475921
 20
10.66388386539128
 10
-12.21489971566535
 20
10.68018813644837
 10
-12.14237387508161
 20
10.67644078948002
 10
-12.07864474405079
 20
10.65275296242527
 10
-12.02811321206622
 20
10.61037574846541
 10
-12.026574535534
 20
10.60730332953123
  0
LWPOLYLINE
  5
781
330
A
100
AcDbEntity
  8
0
  6
Continuous
 62
     7
100
AcDbPolyline
 90
        4
 70
   128
 43
0.0
 10
-12.46215277169286
 20
10.04616086146959
 10
-12.49517030682823
 20
10.06561703320235
 10
-12.54549014818341
 20
10.14916767931208
 10
-12.54837085611812
 20
10.26302134434165
  0
LWPOLYLINE
  5
787
330
A
100
AcDbEntity
  8
0
  6
Continuous
 62
     7
100
AcDbPolyline
 90
       10
 70
   128
 43
0.0
 10
-12.54837085611812
 20
10.26302134434165
 10
-12.53199085116807
 20
10.32330145139637
 10
-12.49463882006967
 20
10.40100171131628
 10
-12.44212708002745
 20
10.47294033847288
 10
-12.37635153919333
 20
10.53606491265266
 10
-12.30205708921186
 20
10.58537099228797
 10
-12.19803309637576
 20
10.62421255440075
 10
-12.09792981107154
 20
10.62854172435389
 10
-12.0130349293928
 20
10.59742528641907
 10
-11.9767611381293
 20
10.56100648857361
  0
LWPOLYLINE
  5
793
330
A
100
AcDbEntity
  8
0
  6
Continuous
 62
     7
100
AcDbPolyline
 90
        6
 70
   128
 43
0.0
 10
-12.41139263938107
 20
9.999414535907241
 10
-12.4447548638308
 20
10.02175866883792
 10
-12.47868125378756
 20
10.07145615878052
 10
-12.49503321279084
 20
10.1352528837679
 10
-12.49221644963816
 20
10.20801608390818
 10
-12.49137017768572
 20
10.21297188280403
  0
LWPOLYLINE
  5
79B
330
A
100
AcDbEntity
  8
0
  6
Continuous
 62
     7
100
AcDbPolyline
 90
        9
 70
   128
 43
0.0
 10
-12.49137017768572
 20
10.21297188280403
 10
-12.45741059518775
 20
10.31461654479297
 10
-12.39446135487258
 20
10.41188940680386
 10
-12.30851279000351
 20
10.49447312870022
 10
-12.20787981392131
 20
10.55306870633246
 10
-12.10331115064395
 20
10.579882314143
 10
-12.00810478867907
 20
10.5713063306593
 10
-11.94774951003644
 20
10.54167682171459
 10
-11.91564740582147
 20
10.50841694758902
  0
LWPOLYLINE
  5
7A6
330
A
100
AcDbEntity
  8
0
  6
Continuous
 62
     7
100
AcDbPolyline
 90
        6
 70
   128
 43
0.0
 10
-12.32695787765348
 20
9.936598349118213
 10
-12.34619001527677
 20
9.942084685640544
 10
-12.39396357649892
 20
9.978266173028202
 10
-12.42533283269952
 20
10.03020871046047
 10
-12.438840294998
 20
10.09578005140046
 10
-12.43436949925335
 20
10.16292242126641
  0
LWPOLYLINE
  5
7AE
330
A
100
AcDbEntity
  8
0
  6
Continuous
 62
     7
100
AcDbPolyline
 90
       10
 70
   128
 43
0.0
 10
-12.43436949925335
 20
10.16292242126641
 10
-12.39117427644486
 20
10.2824943238212
 10
-12.30955806447277
 20
10.39300452471829
 10
-12.24050138695511
 20
10.45254334639825
 10
-12.16499808413567
 20
10.49679409423733
 10
-12.08650991248422
 20
10.52357855957133
 10
-12.00995012918893
 20
10.53079572234651
 10
-11.92035955915815
 20
10.50934047493024
 10
-11.85218581654956
 20
10.45410622738337
 10
-11.84989002679149
 20
10.44917892108091
  0
LWPOLYLINE
  5
7BA
330
A
100
AcDbEntity
  8
0
  6
Continuous
 62
     7
100
AcDbPolyline
 90
        5
 70
   128
 43
0.0
 10
-12.29741679934025
 20
9.902246620882735
 10
-12.32941127225027
 20
9.92033825284227
 10
-12.3715774908065
 20
9.989284161159389
 10
-12.38195728813624
 20
10.04807302897782
 10
-12.37736882082095
 20
10.11287295972878
  0
LWPOLYLINE
  5
7C1
330
A
100
AcDbEntity
  8
0
  6
Continuous
 62
     7
100
AcDbPolyline
 90
       10
 70
   128
 43
0.0
 10
-12.37736882082095
 20
10.11287295972878
 10
-12.37367875401212
 20
10.13072642805332
 10
-12.34623060229807
 20
10.2086215432559
 10
-12.30148615312865
 20
10.28447168219767
 10
-12.22036355539708
 20
10.37338920877187
 10
-12.12194882430689
 20
10.4399740505362
 10
-12.01764419439254
 20
10.47591539439033
 10
-11.91868044715081
 20
10.47706051797618
 10
-11.83544770575013
 20
10.44280010392872
 10
-11.80638520674677
 20
10.40975237207114
  0
LWPOLYLINE
  5
7CD
330
A
100
AcDbEntity
  8
0
  6
Continuous
 62
     7
100
AcDbPolyline
 90
        5
 70
   128
 43
0.0
 10
-12.24156303639861
 20
9.848345196690914
 10
-12.24817824245078
 20
9.851025238944409
 10
-12.29121700366839
 20
9.892304535848275
 10
-12.321827864848
 20
9.968686992337168
 10
-12.32036814238857
 20
10.06282349819117
  0
LWPOLYLINE
  5
7D4
330
A
100
AcDbEntity
  8
0
  6
Continuous
 62
     7
100
AcDbPolyline
 90
       10
 70
   128
 43
0.0
 10
-12.32036814238857
 20
10.06282349819117
 10
-12.28349543909639
 20
10.17033528392804
 10
-12.21783334539685
 20
10.26844619257194
 10
-12.12880857074405
 20
10.35078035607111
 10
-12.02755175761166
 20
10.40669092763025
 10
-11.94884924652418
 20
10.42779380895686
 10
-11.87431697531927
 20
10.42893337483295
 10
-11.80827749389524
 20
10.41015763061125
 10
-11.75400744512988
 20
10.3720514931583
 10
-11.74625586315237
 20
10.35865741126
  0
LWPOLYLINE
  5
7E0
330
A
100
AcDbEntity
  8
0
  6
Continuous
 62
     7
100
AcDbPolyline
 90
        5
 70
   128
 43
0.0
 10
-12.18092458203895
 20
9.797758698928738
 10
-12.19869104207528
 20
9.806130018748113
 10
-12.24400112331579
 20
9.857851158226438
 10
-12.26635472600424
 20
9.928982561292556
 10
-12.26336746395618
 20
10.01277403665355
  0
LWPOLYLINE
  5
7E7
330
A
100
AcDbEntity
  8
0
  6
Continuous
 62
     7
100
AcDbPolyline
 90
       11
 70
   128
 43
0.0
 10
-12.26336746395618
 20
10.01277403665355
 10
-12.25338699077802
 20
10.05390925323119
 10
-12.22037311439986
 20
10.1319756672569
 10
-12.17124873008947
 20
10.20579352093795
 10
-12.10853381035415
 20
10.27139627761042
 10
-12.03568412596442
 20
10.3245688653162
 10
-11.93238988886316
 20
10.36927531509244
 10
-11.83027839858525
 20
10.38016236304204
 10
-11.74218165822051
 20
10.35553819835147
 10
-11.67795920020589
 20
10.29965631743178
 10
-11.67770218755235
 20
10.29907464104608
  0
LWPOLYLINE
  5
7F4
330
A
100
AcDbEntity
  8
0
  6
Continuous
 62
     7
100
AcDbPolyline
 90
        6
 70
   128
 43
0.0
 10
-12.12643378255785
 20
9.749483321184108
 10
-12.14886149216144
 20
9.76164163490263
 10
-12.18690565822163
 20
9.807630604190364
 10
-12.20777113368758
 20
9.868266449419543
 10
-12.2096585809082
 20
9.939468792633896
 10
-12.2063667855238
 20
9.962724575115927
  0
LWPOLYLINE
  5
7FC
330
A
100
AcDbEntity
  8
0
  6
Continuous
 62
     7
100
AcDbPolyline
 90
       10
 70
   128
 43
0.0
 10
-12.2063667855238
 20
9.962724575115927
 10
-12.17545646387103
 20
10.0579870258948
 10
-12.11857964983529
 20
10.15025161264516
 10
-12.04102739959216
 20
10.23031455567568
 10
-11.94182667000657
 20
10.2943216752212
 10
-11.83729963653226
 20
10.32733099296653
 10
-11.73952075704733
 20
10.32529193812512
 10
-11.67637855347215
 20
10.30047980936255
 10
-11.62674612789796
 20
10.25715754545782
 10
-11.62648875485156
 20
10.25669836248917
  0
LWPOLYLINE
  5
808
330
A
100
AcDbEntity
  8
0
  6
Continuous
 62
     7
100
AcDbPolyline
 90
        5
 70
   128
 43
0.0
 10
-12.06288582787117
 20
9.693500822829641
 10
-12.06597466335164
 20
9.694294319350703
 10
-12.12423084728661
 20
9.748100103497705
 10
-12.15229834573354
 20
9.828444878300736
 10
-12.14936610709141
 20
9.912675113578302
  0
LWPOLYLINE
  5
80F
330
A
100
AcDbEntity
  8
0
  6
Continuous
 62
     7
100
AcDbPolyline
 90
       10
 70
   128
 43
0.0
 10
-12.14936610709141
 20
9.912675113578302
 10
-12.11118489514798
 20
10.02275509948213
 10
-12.03974159412289
 20
10.12642820905901
 10
-11.97330908942292
 20
10.18892504784746
 10
-11.89874458978916
 20
10.23730529860872
 10
-11.82087538612411
 20
10.2684896701767
 10
-11.7431467479905
 20
10.2806527309413
 10
-11.65062275104553
 20
10.26571669365836
 10
-11.57756884510757
 20
10.21620951090938
 10
-11.56922642338775
 20
10.20149825387421
  0
LWPOLYLINE
  5
81B
330
A
100
AcDbEntity
  8
0
  6
Continuous
 62
     7
100
AcDbPolyline
 90
        6
 70
   128
 43
0.0
 10
-12.00986656928399
 20
9.64975295705576
 10
-12.03339406223899
 20
9.660350448369385
 10
-12.08109139902456
 20
9.724367936780552
 10
-12.09638303072765
 20
9.78884522645626
 10
-12.09249311848013
 20
9.861905863113207
 10
-12.09236542865903
 20
9.862625652040684
  0
LWPOLYLINE
  5
823
330
A
100
AcDbEntity
  8
0
  6
Continuous
 62
     7
100
AcDbPolyline
 90
        9
 70
   128
 43
0.0
 10
-12.09236542865903
 20
9.862625652040684
 10
-12.06953394051138
 20
9.939540881643054
 10
-12.02883884588056
 20
10.01620332323554
 10
-11.95201063123944
 20
10.10805394244754
 10
-11.85562620648003
 20
10.17969275720798
 10
-11.7519509802721
 20
10.22155870888823
 10
-11.65074731003869
 20
10.22924933868586
 10
-11.56418717817856
 20
10.20146087547213
 10
-11.52467920175137
 20
10.16359744280597
  0
LWPOLYLINE
  5
82E
330
A
100
AcDbEntity
  8
0
  6
Continuous
 62
     7
100
AcDbPolyline
 90
        4
 70
   128
 43
0.0
 10
-11.95495531493287
 20
9.597009495474594
 10
-11.99718584573405
 20
9.63046641344043
 10
-12.03527030714386
 20
9.710299915105103
 10
-12.03536475022664
 20
9.812576190503065
  0
LWPOLYLINE
  5
834
330
A
100
AcDbEntity
  8
0
  6
Continuous
 62
     7
100
AcDbPolyline
 90
       10
 70
   128
 43
0.0
 10
-12.03536475022664
 20
9.812576190503065
 10
-12.00761040863438
 20
9.900941863224275
 10
-11.9467219033429
 20
10.00120052083046
 10
-11.86155846947027
 20
10.08704704742718
 10
-11.7616348208513
 20
10.14843640921085
 10
-11.68305439386132
 20
10.17417951748184
 10
-11.60682587684236
 20
10.18025510256823
 10
-11.5386274120784
 20
10.16638055329003
 10
-11.48091764926832
 20
10.13278610757812
 10
-11.4604998434413
 20
10.10752310704264
  0
LWPOLYLINE
  5
840
330
A
100
AcDbEntity
  8
0
  6
Continuous
 62
     7
100
AcDbPolyline
 90
        5
 70
   128
 43
0.0
 10
-11.8947661264037
 20
9.545745948998821
 10
-11.90130784576573
 20
9.547717263840759
 10
-11.95394251768412
 20
9.599069059715994
 10
-11.98058841749534
 20
9.673159388355259
 10
-11.97836407179425
 20
9.762526728965447
  0
LWPOLYLINE
  5
847
330
A
100
AcDbEntity
  8
0
  6
Continuous
 62
     7
100
AcDbPolyline
 90
       11
 70
   128
 43
0.0
 10
-11.97836407179425
 20
9.762526728965447
 10
-11.97362972528353
 20
9.784709160090855
 10
-11.94512417415341
 20
9.862688263744594
 10
-11.8995237779313
 20
9.938203783823993
 10
-11.84009603984812
 20
10.00596877971826
 10
-11.76912541276641
 20
10.062726899322
 10
-11.66676481721492
 20
10.11317259734386
 10
-11.56321948615498
 20
10.13060440699113
 10
-11.47210135364467
 20
10.112492074824
 10
-11.41647005444921
 20
10.07609620756023
 10
-11.40153909738906
 20
10.05621020601815
  0
LWPOLYLINE
  5
854
330
A
100
AcDbEntity
  8
0
  6
Continuous
 62
     7
100
AcDbPolyline
 90
        6
 70
   128
 43
0.0
 10
-11.84226392169474
 20
9.498369408548086
 10
-11.85202686424403
 20
9.50256108085167
 10
-11.89414393832127
 20
9.544747688257828
 10
-11.91934942222171
 20
9.601925967080951
 10
-11.92597792495451
 20
9.671137442926962
 10
-11.92136339336186
 20
9.712477267427821
  0
LWPOLYLINE
  5
85C
330
A
100
AcDbEntity
  8
0
  6
Continuous
 62
     7
100
AcDbPolyline
 90
       11
 70
   128
 43
0.0
 10
-11.92136339336186
 20
9.712477267427821
 10
-11.89338464525478
 20
9.8013439309087
 10
-11.84235451018295
 20
9.888384278726711
 10
-11.77298250451547
 20
9.965343282039555
 10
-11.70080531119104
 20
10.01993125797053
 10
-11.62411638135131
 20
10.05804164882885
 10
-11.54545039636973
 20
10.07805087013157
 10
-11.47136676563907
 20
10.07806103158744
 10
-11.40583310660602
 20
10.05815168508717
 10
-11.35239963712702
 20
10.01903821927404
 10
-11.34362959237052
 20
10.00601643351749
  0
LWPOLYLINE
  5
869
330
A
100
AcDbEntity
  8
0
  6
Continuous
 62
     7
100
AcDbPolyline
 90
        4
 70
   128
 43
0.0
 10
-11.78904585310869
 20
9.454089584437191
 10
-11.83071010976619
 20
9.485855146519455
 10
-11.86458792446934
 20
9.561695686834553
 10
-11.86436271492948
 20
9.662427805890203
  0
LWPOLYLINE
  5
86F
330
A
100
AcDbEntity
  8
0
  6
Continuous
 62
     7
100
AcDbPolyline
 90
        9
 70
   128
 43
0.0
 10
-11.86436271492948
 20
9.662427805890203
 10
-11.83094180646259
 20
9.762963675373683
 10
-11.76906956169679
 20
9.859375966931054
 10
-11.6819685720827
 20
9.943577161866748
 10
-11.5813703724287
 20
10.00231567036883
 10
-11.47679513925917
 20
10.02929368922703
 10
-11.38151931528198
 20
10.0208881702944
 10
-11.30399054144061
 20
9.97741266215813
 10
-11.28817417221474
 20
9.954200496198119
  0
LWPOLYLINE
  5
87A
330
A
100
AcDbEntity
  8
0
  6
Continuous
 62
     7
100
AcDbPolyline
 90
        5
 70
   128
 43
0.0
 10
-11.72270853876067
 20
9.396631892176507
 10
-11.73644301792597
 20
9.401407362469598
 10
-11.78955076920342
 20
9.460330771017652
 10
-11.81180759630103
 20
9.544783606222452
 10
-11.80736203649709
 20
9.612378344352578
  0
LWPOLYLINE
  5
881
330
A
100
AcDbEntity
  8
0
  6
Continuous
 62
     7
100
AcDbPolyline
 90
       10
 70
   128
 43
0.0
 10
-11.80736203649709
 20
9.612378344352578
 10
-11.7883610604943
 20
9.679676951237745
 10
-11.75534872766886
 20
9.747481648693806
 10
-11.68295706219321
 20
9.842041399207914
 10
-11.58917183325717
 20
9.918351599202559
 10
-11.48633126383456
 20
9.966018478443494
 10
-11.38341088406962
 20
9.980269659530684
 10
-11.2937414946773
 20
9.958984292205748
 10
-11.22543577334282
 20
9.903895036717543
 10
-11.22300108921311
 20
9.89869745497549
  0
LWPOLYLINE
  5
88D
330
A
100
AcDbEntity
  8
0
  6
Continuous
 62
     7
100
AcDbPolyline
 90
        5
 70
   128
 43
0.0
 10
-11.67033702647191
 20
9.351651476168342
 10
-11.70212882132279
 20
9.369527358644198
 10
-11.74444082653238
 20
9.438346831482355
 10
-11.75493936875016
 20
9.497301887496185
 10
-11.75036135806471
 20
9.562328882814959
  0
LWPOLYLINE
  5
894
330
A
100
AcDbEntity
  8
0
  6
Continuous
 62
     7
100
AcDbPolyline
 90
        9
 70
   128
 43
0.0
 10
-11.75036135806471
 20
9.562328882814959
 10
-11.73064914765101
 20
9.631466813199715
 10
-11.6748110092509
 20
9.733464053201203
 10
-11.59379859371702
 20
9.822460931351969
 10
-11.49542943951903
 20
9.889181970585887
 10
-11.39113859126439
 20
9.92527940596755
 10
-11.29211263995459
 20
9.92659511185294
 10
-11.20878772064462
 20
9.892502432921773
 10
-11.17946588940402
 20
9.859308748160387
  0
LWPOLYLINE
  5
89F
330
A
100
AcDbEntity
  8
0
  6
Continuous
 62
     7
100
AcDbPolyline
 90
        5
 70
   128
 43
0.0
 10
-11.57846912580374
 20
9.285213258937112
 10
-11.60309023483076
 20
9.29043030148648
 10
-11.66398732589666
 20
9.341447378774169
 10
-11.69478353527228
 20
9.417928474728164
 10
-11.69336067963232
 20
9.512279421277334
  0
LWPOLYLINE
  5
8A6
330
A
100
AcDbEntity
  8
0
  6
Continuous
 62
     7
100
AcDbPolyline
 90
       10
 70
   128
 43
0.0
 10
-11.69336067963232
 20
9.512279421277334
 10
-11.69271127965068
 20
9.515806155878934
 10
-11.6567390935435
 20
9.619293720703119
 10
-11.59119981111115
 20
9.717463609769609
 10
-11.50226983583231
 20
9.799895951057862
 10
-11.40104522517258
 20
9.855951173504941
 10
-11.29666046536947
 20
9.879839417989757
 10
-11.20270185375656
 20
9.868252715532427
 10
-11.12729808245451
 20
9.821806212989166
 10
-11.11529332022815
 20
9.802564276792757
  0
LWPOLYLINE
  5
8B2
330
A
100
AcDbEntity
  8
0
  6
Continuous
 62
     7
100
AcDbPolyline
 90
        5
 70
   128
 43
0.0
 10
-11.55271365578328
 20
9.247963800719212
 10
-11.57137183150141
 20
9.255359032768119
 10
-11.62186031609645
 20
9.316783532168628
 10
-11.64114510214548
 20
9.403131990416454
 10
-11.63636000119994
 20
9.462229959739723
  0
LWPOLYLINE
  5
8B9
330
A
100
AcDbEntity
  8
0
  6
Continuous
 62
     7
100
AcDbPolyline
 90
       10
 70
   128
 43
0.0
 10
-11.63636000119994
 20
9.462229959739723
 10
-11.61552849178285
 20
9.534211006153348
 10
-11.57885075775046
 20
9.606379864041393
 10
-11.50428118628996
 20
9.69964844915831
 10
-11.40916067154447
 20
9.773735335215889
 10
-11.30588821068421
 20
9.818593117842105
 10
-11.20373190909409
 20
9.829651392490895
 10
-11.11555405780036
 20
9.805196880595126
 10
-11.04974984285007
 20
9.747443353427655
 10
-11.04973742282882
 20
9.747414672855377
  0
LWPOLYLINE
  5
8C5
330
A
100
AcDbEntity
  8
0
  6
Continuous
 62
     7
100
AcDbPolyline
 90
        5
 70
   128
 43
0.0
 10
-11.5007420229288
 20
9.202393798150225
 10
-11.5361483524445
 20
9.224467918461293
 10
-11.57572601027801
 20
9.295628486961938
 10
-11.5840996501254
 20
9.351404996723189
 10
-11.57935932276754
 20
9.412180498202097
  0
LWPOLYLINE
  5
8CC
330
A
100
AcDbEntity
  8
0
  6
Continuous
 62
     7
100
AcDbPolyline
 90
        9
 70
   128
 43
0.0
 10
-11.57935932276754
 20
9.412180498202097
 10
-11.5558682851783
 20
9.490684591803265
 10
-11.49752241592111
 20
9.591905700637703
 10
-11.41446987700144
 20
9.679396330604014
 10
-11.31530924563226
 20
9.743542739368741
 10
-11.21079132829901
 20
9.776710447700118
 10
-11.11294783740447
 20
9.774841967677147
 10
-11.03140099063
 20
9.737633841434295
 10
-11.00679416867738
 20
9.707340030065786
  0
LWPOLYLINE
  5
8D7
330
A
100
AcDbEntity
  8
0
  6
Continuous
 62
     7
100
AcDbPolyline
 90
        5
 70
   128
 43
0.0
 10
-11.43583215015101
 20
9.142856272977788
 10
-11.4386223954934
 20
9.143566557476923
 10
-11.49701462490512
 20
9.197232887835681
 10
-11.52443707201528
 20
9.271800874711978
 10
-11.52235864433516
 20
9.362131036664479
  0
LWPOLYLINE
  5
8DE
330
A
100
AcDbEntity
  8
0
  6
Continuous
 62
     7
100
AcDbPolyline
 90
       10
 70
   128
 43
0.0
 10
-11.52235864433516
 20
9.362131036664479
 10
-11.51986505469774
 20
9.374698794809539
 10
-11.48093571265907
 20
9.478408186429703
 10
-11.41311915459317
 20
9.575451327830492
 10
-11.32247465351718
 20
9.655995081103554
 10
-11.22067162148678
 20
9.70933518486639
 10
-11.11662055231783
 20
9.730095165627815
 10
-11.02402245399805
 20
9.715329367502299
 10
-10.95084642283237
 20
9.665975951088782
 10
-10.94232675255504
 20
9.651025997063015
  0
LWPOLYLINE
  5
A98
330
A
100
AcDbEntity
  8
0
  6
Continuous
 62
     7
100
AcDbPolyline
 90
        5
 70
   128
 43
0.0
 10
-12.85886589982872
 20
10.76529434768714
 10
-12.84960592719221
 20
10.78101662378509
 10
-12.81099505418347
 20
10.83169544315504
 10
-12.76407643636831
 20
10.87440630673018
 10
-12.76113987554842
 20
10.87659324108861
  0
LWPOLYLINE
  5
AB2
330
A
100
AcDbEntity
  8
0
  6
Continuous
 62
     7
100
AcDbPolyline
 90
        9
 70
   128
 43
0.0
 10
-17.70821656179363
 20
22.16390613897359
 10
-17.68273800688851
 20
22.2470920175734
 10
-17.62317232557112
 20
22.34787466166713
 10
-17.53911302304448
 20
22.43459234957478
 10
-17.43958356766897
 20
22.49743496192551
 10
-17.33499637492256
 20
22.52911749530293
 10
-17.23776089432611
 20
22.52565704184105
 10
-17.15714783084414
 20
22.48690512629715
 10
-17.15229573762385
 20
22.48067370527887
  0
LWPOLYLINE
  5
ABD
330
A
100
AcDbEntity
  8
0
  6
Continuous
 62
     7
100
AcDbPolyline
 90
        9
 70
   128
 43
0.0
 10
-17.75342172255863
 20
22.20359854294548
 10
-17.72794316765352
 20
22.28678442154531
 10
-17.66837748633613
 20
22.38756706563903
 10
-17.5843181838095
 20
22.47428475354668
 10
-17.48478872843397
 20
22.53712736589741
 10
-17.38020153568757
 20
22.56880989927483
 10
-17.28296605509111
 20
22.56534944581295
 10
-17.20235299160915
 20
22.52659753026905
 10
-17.18000045063749
 20
22.49789072532959
  0
LWPOLYLINE
  5
AD3
330
A
100
AcDbEntity
  8
0
  6
Continuous
 62
     7
100
AcDbPolyline
 90
        4
 70
   128
 43
0.0
 10
-17.65224728395777
 20
21.96887141722756
 10
-17.66742708114019
 20
21.97882228885729
 10
-17.70562734947064
 20
22.05113823814639
 10
-17.70821656179363
 20
22.16390613897359
  0
LWPOLYLINE
  5
AE3
330
A
100
AcDbEntity
  8
0
  6
Continuous
 62
     7
100
AcDbPolyline
 90
        4
 70
   128
 43
0.0
 10
-19.14649244936482
 20
23.28048810649767
 10
-19.17393831063671
 20
23.33534181799418
 10
-19.18312352624871
 20
23.39238611897075
 10
-19.17843868336829
 20
23.45483508138601
  0
LWPOLYLINE
  5
AE9
330
A
100
AcDbEntity
  8
0
  6
Continuous
 62
     7
100
AcDbPolyline
 90
       10
 70
   128
 43
0.0
 10
-19.17843868336829
 20
23.45483508138601
 10
-19.17352087619396
 20
23.4777542233665
 10
-19.14483636427241
 20
23.55574522695812
 10
-19.09909224762794
 20
23.63120171463199
 10
-19.01683698352898
 20
23.71929038910893
 10
-18.91797468280516
 20
23.78445527264787
 10
-18.81353599208129
 20
23.81877892538925
 10
-18.71522260488293
 20
23.81816135816607
 10
-18.6329628479693
 20
23.78217303302238
 10
-18.60653585313812
 20
23.75069600393834
  0
LWPOLYLINE
  5
AF5
330
A
100
AcDbEntity
  8
0
  6
Continuous
 62
     7
100
AcDbPolyline
 90
        5
 70
   128
 43
0.0
 10
-19.04229237757069
 20
23.19073435777483
 10
-19.05258139608845
 20
23.19519483186899
 10
-19.0945409910401
 20
23.23753391665579
 10
-19.12326710996505
 20
23.31287138542344
 10
-19.1214380049359
 20
23.40478561984839
  0
LWPOLYLINE
  5
AFC
330
A
100
AcDbEntity
  8
0
  6
Continuous
 62
     7
100
AcDbPolyline
 90
       10
 70
   128
 43
0.0
 10
-19.1214380049359
 20
23.40478561984839
 10
-19.0819298445348
 20
23.51743001172237
 10
-19.01500409486523
 20
23.61492229114593
 10
-18.92501916588095
 20
23.69622198590558
 10
-18.82343765368984
 20
23.75063250378413
 10
-18.74478028679058
 20
23.77045521926099
 10
-18.67077492377235
 20
23.77027401716484
 10
-18.60532749573157
 20
23.75017199013095
 10
-18.5520376265564
 20
23.71088878292574
 10
-18.54601853425942
 20
23.70008281592607
  0
LWPOLYLINE
  5
B08
330
A
100
AcDbEntity
  8
0
  6
Continuous
 62
     7
100
AcDbPolyline
 90
        5
 70
   128
 43
0.0
 10
-18.98242336637038
 20
23.14018487823181
 10
-19.00294603585244
 20
23.15047952571377
 10
-19.04635986690852
 20
23.20218699798841
 10
-19.06760801868697
 20
23.27245899769145
 10
-19.06443732650351
 20
23.35473615831077
  0
LWPOLYLINE
  5
B0F
330
A
100
AcDbEntity
  8
0
  6
Continuous
 62
     7
100
AcDbPolyline
 90
       10
 70
   128
 43
0.0
 10
-19.06443732650351
 20
23.35473615831077
 10
-19.05284466759545
 20
23.40101775772352
 10
-19.01864244871314
 20
23.4790301421311
 10
-18.96860026024461
 20
23.55234954245791
 10
-18.90502803061295
 20
23.61732433384425
 10
-18.83174552921402
 20
23.6694803824225
 10
-18.72823439803306
 20
23.71261806562753
 10
-18.62660879597722
 20
23.72173549430895
 10
-18.53935739070861
 20
23.69535904651824
 10
-18.49613961991282
 20
23.65626743846018
  0
LWPOLYLINE
  5
B1B
330
A
100
AcDbEntity
  8
0
  6
Continuous
 62
     7
100
AcDbPolyline
 90
        6
 70
   128
 43
0.0
 10
-18.92740683473734
 20
23.09147321601468
 10
-18.95296192864098
 20
23.10616498996171
 10
-18.9899003143152
 20
23.153161416003
 10
-19.00956476092403
 20
23.21468125408165
 10
-19.01017823875509
 20
23.28634727530956
 10
-19.00743664807112
 20
23.30468669677315
  0
LWPOLYLINE
  5
B23
330
A
100
AcDbEntity
  8
0
  6
Continuous
 62
     7
100
AcDbPolyline
 90
        9
 70
   128
 43
0.0
 10
-19.00743664807112
 20
23.30468669677315
 10
-18.97571585689488
 20
23.40167107984488
 10
-18.91723028402797
 20
23.49530037715181
 10
-18.83742588988716
 20
23.57611018617109
 10
-18.7378189802118
 20
23.63867232124227
 10
-18.63322155827382
 20
23.67003464853655
 10
-18.53611781075972
 20
23.66623307825868
 10
-18.47368890043705
 20
23.64011154211345
 10
-18.43179751639592
 20
23.60180569026977
  0
LWPOLYLINE
  5
B2E
330
A
100
AcDbEntity
  8
0
  6
Continuous
 62
     7
100
AcDbPolyline
 90
        5
 70
   128
 43
0.0
 10
-18.86444094079022
 20
23.03647459733408
 10
-18.87057547059349
 20
23.03820011000191
 10
-18.92741893537928
 20
23.09343775515234
 10
-18.95389837070156
 20
23.17495977628241
 10
-18.95043596963875
 20
23.25463723523553
  0
LWPOLYLINE
  5
B35
330
A
100
AcDbEntity
  8
0
  6
Continuous
 62
     7
100
AcDbPolyline
 90
       10
 70
   128
 43
0.0
 10
-18.95043596963875
 20
23.25463723523553
 10
-18.91092780923764
 20
23.36728162710951
 10
-18.83679897232134
 20
23.47284332591795
 10
-18.76962221127179
 20
23.53457973166685
 10
-18.69477192838401
 20
23.58186204886959
 10
-18.61671899322818
 20
23.6118728507309
 10
-18.53926186843594
 20
23.62270578081038
 10
-18.44751081188145
 20
23.60601107043877
 10
-18.37573486037308
 20
23.55492734071277
 10
-18.36916672103871
 20
23.54273332747905
  0
LWPOLYLINE
  5
B41
330
A
100
AcDbEntity
  8
0
  6
Continuous
 62
     7
100
AcDbPolyline
 90
        5
 70
   128
 43
0.0
 10
-18.81157984879535
 20
22.99238044941916
 10
-18.837527213427
 20
23.00483809638771
 10
-18.88374524902362
 20
23.07020055842275
 10
-18.89765554846001
 20
23.13346108568337
 10
-18.89343529120636
 20
23.2045877736979
  0
LWPOLYLINE
  5
B48
330
A
100
AcDbEntity
  8
0
  6
Continuous
 62
     7
100
AcDbPolyline
 90
       10
 70
   128
 43
0.0
 10
-18.89343529120636
 20
23.2045877736979
 10
-18.89264784776905
 20
23.20883769413196
 10
-18.86858480436968
 20
23.28631084412311
 10
-18.82665737641734
 20
23.36307198731187
 10
-18.74865736543605
 20
23.45415394528914
 10
-18.65166874977203
 20
23.52446557705981
 10
-18.5478035123603
 20
23.5647464673401
 10
-18.44715985674891
 20
23.57066949605274
 10
-18.36146875570394
 20
23.54113163030936
 10
-18.32487427705035
 20
23.50440734285207
  0
LWPOLYLINE
  5
B54
330
A
100
AcDbEntity
  8
0
  6
Continuous
 62
     7
100
AcDbPolyline
 90
        4
 70
   128
 43
0.0
 10
-18.75703013147986
 20
22.93894276345058
 10
-18.80079166738405
 20
22.97546798503688
 10
-18.83678755101074
 20
23.05443969830581
 10
-18.83643461277397
 20
23.15453831216029
  0
LWPOLYLINE
  5
B5A
330
A
100
AcDbEntity
  8
0
  6
Continuous
 62
     7
100
AcDbPolyline
 90
       10
 70
   128
 43
0.0
 10
-18.83643461277397
 20
23.15453831216029
 10
-18.80632620798591
 20
23.24807784403817
 10
-18.74413750799029
 20
23.34778067495429
 10
-18.65788851494484
 20
23.43273178845632
 10
-18.55758549383174
 20
23.49265775909426
 10
-18.47892746619366
 20
23.51716858793479
 10
-18.40311521208159
 20
23.52190978428675
 10
-18.33549331698626
 20
23.50671657286566
 10
-18.27867895894877
 20
23.47188510341459
 10
-18.2660475197625
 20
23.45216283775402
  0
LWPOLYLINE
  5
B66
330
A
100
AcDbEntity
  8
0
  6
Continuous
 62
     7
100
AcDbPolyline
 90
        5
 70
   128
 43
0.0
 10
-18.69665835366485
 20
22.88878452848
 10
-18.70580010562821
 20
22.89177158959452
 10
-18.75641690008213
 20
22.94328937053949
 10
-18.78187670910727
 20
23.01661797311447
 10
-18.77943393434159
 20
23.10448885062266
  0
LWPOLYLINE
  5
B6D
330
A
100
AcDbEntity
  8
0
  6
Continuous
 62
     7
100
AcDbPolyline
 90
       11
 70
   128
 43
0.0
 10
-18.77943393434159
 20
23.10448885062266
 10
-18.77339965422654
 20
23.13175531693769
 10
-18.74366506339305
 20
23.20980243643598
 10
-18.69708437808595
 20
23.28489839981125
 10
-18.63676680676579
 20
23.35209245372761
 10
-18.56524783718534
 20
23.40791425397987
 10
-18.46261561030614
 20
23.45682544643315
 10
-18.35939890988873
 20
23.47249858693764
 10
-18.26907746889378
 20
23.45262931120936
 10
-18.21439505585256
 20
23.41503167506739
 10
-18.20224697455865
 20
23.3980681152841
  0
LWPOLYLINE
  5
B7A
330
A
100
AcDbEntity
  8
0
  6
Continuous
 62
     7
100
AcDbPolyline
 90
        6
 70
   128
 43
0.0
 10
-18.64303884316107
 20
22.84068440930736
 10
-18.65637531728129
 20
22.84679872454803
 10
-18.69740210449487
 20
22.89002614451579
 10
-18.72145371584697
 20
22.94815732866741
 10
-18.7268036558906
 20
23.01794688188679
 10
-18.7224332559092
 20
23.05443938908504
  0
LWPOLYLINE
  5
B82
330
A
100
AcDbEntity
  8
0
  6
Continuous
 62
     7
100
AcDbPolyline
 90
       10
 70
   128
 43
0.0
 10
-18.7224332559092
 20
23.05443938908504
 10
-18.6936759522856
 20
23.14503123410605
 10
-18.64108898003856
 20
23.23350473931922
 10
-18.56954167208205
 20
23.31134957365438
 10
-18.47156781188116
 20
23.37919694083614
 10
-18.36739733448292
 20
23.41659196676969
 10
-18.26785807996969
 20
23.41932916321345
 10
-18.20292912670146
 20
23.39809310332404
 10
-18.15049373898305
 20
23.35781829788587
 10
-18.1442056823974
 20
23.34801751610352
  0
LWPOLYLINE
  5
B8E
330
A
100
AcDbEntity
  8
0
  6
Continuous
 62
     7
100
AcDbPolyline
 90
        5
 70
   128
 43
0.0
 10
-18.55049224934186
 20
22.77696885656572
 10
-18.57218665115382
 20
22.7811634356636
 10
-18.63417957050756
 20
22.83097060963394
 10
-18.66650182434934
 20
22.90804286251655
 10
-18.66543257747681
 20
23.00438992754742
  0
LWPOLYLINE
  5
B95
330
A
100
AcDbEntity
  8
0
  6
Continuous
 62
     7
100
AcDbPolyline
 90
       10
 70
   128
 43
0.0
 10
-18.66543257747681
 20
23.00438992754742
 10
-18.63075386418064
 20
23.10750290972128
 10
-18.56636413198041
 20
23.20590892810808
 10
-18.50207752721621
 20
23.27032326400105
 10
-18.42845030066852
 20
23.32159481505549
 10
-18.35109824048803
 20
23.35593227578423
 10
-18.27279844453887
 20
23.37167593358169
 10
-18.17824642298479
 20
23.36150917674903
 10
-18.10188094346784
 20
23.31638157077639
 10
-18.08821413832536
 20
23.29532652094096
  0
LWPOLYLINE
  5
BA1
330
A
100
AcDbEntity
  8
0
  6
Continuous
 62
     7
100
AcDbPolyline
 90
        6
 70
   128
 43
0.0
 10
-18.52432687324526
 20
22.73943262476796
 10
-18.54082203814276
 20
22.74560722301348
 10
-18.59248347902608
 20
22.80591994987918
 10
-18.61111159910446
 20
22.86817717310987
 10
-18.61063896609463
 20
22.94021455158559
 10
-18.60843189904442
 20
22.9543404660098
  0
LWPOLYLINE
  5
BA9
330
A
100
AcDbEntity
  8
0
  6
Continuous
 62
     7
100
AcDbPolyline
 90
       10
 70
   128
 43
0.0
 10
-18.60843189904442
 20
22.9543404660098
 10
-18.58842577771866
 20
23.02423093461225
 10
-18.55340269296445
 20
23.09446279985106
 10
-18.47980132108678
 20
23.18831439379476
 10
-18.38526079304805
 20
23.26340629057991
 10
-18.2821751874745
 20
23.30952184581669
 10
-18.20434043461995
 20
23.32225225604858
 10
-18.13331585844742
 20
23.31494383328509
 10
-18.07151917505108
 20
23.28770874108911
 10
-18.03279872321118
 20
23.2508742841094
  0
LWPOLYLINE
  5
BB5
330
A
100
AcDbEntity
  8
0
  6
Continuous
 62
     7
100
AcDbPolyline
 90
        4
 70
   128
 43
0.0
 10
-18.4682058803624
 20
22.6883624762947
 10
-18.50600771212441
 20
22.71427846167958
 10
-18.55001967973896
 20
22.79617773813343
 10
-18.55143122061203
 20
22.90429100447217
  0
LWPOLYLINE
  5
BBB
330
A
100
AcDbEntity
  8
0
  6
Continuous
 62
     7
100
AcDbPolyline
 90
       11
 70
   128
 43
0.0
 10
-18.55143122061203
 20
22.90429100447217
 10
-18.52965966346332
 20
22.97861369466589
 10
-18.48927572028572
 20
23.05576135070217
 10
-18.43431587690821
 20
23.12627469653122
 10
-18.36652414616407
 20
23.18733914062453
 10
-18.29145536116359
 20
23.23367089290353
 10
-18.21324851949719
 20
23.26267390254749
 10
-18.13604914819672
 20
23.27236741261264
 10
-18.06630642515537
 20
23.26205940170066
 10
-18.00629651010049
 20
23.23188293215883
 10
-17.97855381553977
 20
23.20097167008752
  0
LWPOLYLINE
  5
BC8
330
A
100
AcDbEntity
  8
0
  6
Continuous
 62
     7
100
AcDbPolyline
 90
        4
 70
   128
 43
0.0
 10
-18.42107095543996
 20
22.64571346873374
 10
-18.46603931419251
 20
22.68480519190632
 10
-18.49601573802807
 20
22.76084450442056
 10
-18.49443054217965
 20
22.85424154293455
  0
LWPOLYLINE
  5
BCE
330
A
100
AcDbEntity
  8
0
  6
Continuous
 62
     7
100
AcDbPolyline
 90
       11
 70
   128
 43
0.0
 10
-18.49443054217965
 20
22.85424154293455
 10
-18.49279421724225
 20
22.86276222776489
 10
-18.46765854832429
 20
22.94039386887834
 10
-18.42482593682457
 20
23.01689247393246
 10
-18.36781755076496
 20
23.08616969341351
 10
-18.298483178673
 20
23.14534416765789
 10
-18.1969324468374
 20
23.19990027525823
 10
-18.09271474064214
 20
23.22206102098492
 10
-17.99950393793776
 20
23.20871416898881
 10
-17.94141895024479
 20
23.17565270639491
 10
-17.91832423813729
 20
23.14854537474994
  0
LWPOLYLINE
  5
BDB
330
A
100
AcDbEntity
  8
0
  6
Continuous
 62
     7
100
AcDbPolyline
 90
        5
 70
   128
 43
0.0
 10
-18.35893494063524
 20
22.58855054337878
 10
-18.40389511583828
 20
22.62777058087426
 10
-18.43220017721261
 20
22.6823467036409
 10
-18.44228359264073
 20
22.74984279539264
 10
-18.43742986374727
 20
22.80419208139693
  0
LWPOLYLINE
  5
BE2
330
A
100
AcDbEntity
  8
0
  6
Continuous
 62
     7
100
AcDbPolyline
 90
       11
 70
   128
 43
0.0
 10
-18.43742986374727
 20
22.80419208139693
 10
-18.41151698633165
 20
22.88838086004743
 10
-18.36462863027131
 20
22.9714500284435
 10
-18.30102639229641
 20
23.04584054461977
 10
-18.23029937890995
 20
23.10299171482236
 10
-18.15418853228367
 20
23.14418451293903
 10
-18.07549024054955
 20
23.16763059080228
 10
-18.00005805956048
 20
23.17123278828296
 10
-17.91272427467202
 20
23.14502585101606
 10
-17.84833768290647
 20
23.0858372605698
 10
-17.84221997434837
 20
23.07049958905549
  0
LWPOLYLINE
  5
BEF
330
A
100
AcDbEntity
  8
0
  6
Continuous
 62
     7
100
AcDbPolyline
 90
        4
 70
   128
 43
0.0
 10
-18.30264506155733
 20
22.54479431291269
 10
-18.3398955831307
 20
22.5693436811237
 10
-18.37794787360001
 20
22.64178281776805
 10
-18.38042918531489
 20
22.75414261985932
  0
LWPOLYLINE
  5
BF5
330
A
100
AcDbEntity
  8
0
  6
Continuous
 62
     7
100
AcDbPolyline
 90
       10
 70
   128
 43
0.0
 10
-18.38042918531489
 20
22.75414261985932
 10
-18.37321675665748
 20
22.78577073831676
 10
-18.34243906584042
 20
22.86385003149715
 10
-18.29503885723594
 20
22.93856366423537
 10
-18.21087221900573
 20
23.02519775359326
 10
-18.11130396688112
 20
23.08790017529866
 10
-18.00671145555918
 20
23.11942268982589
 10
-17.90954177789252
 20
23.11579167690966
 10
-17.82903049828909
 20
23.0768749725256
 10
-17.8069152629453
 20
23.04834353638694
  0
LWPOLYLINE
  5
C01
330
A
100
AcDbEntity
  8
0
  6
Continuous
 62
     7
100
AcDbPolyline
 90
        6
 70
   128
 43
0.0
 10
-18.23738595716627
 20
22.48583475160817
 10
-18.24322887942958
 20
22.48746431414754
 10
-18.3002094813974
 20
22.54256391467805
 10
-18.32326738309938
 20
22.60150180952984
 10
-18.32752414705329
 20
22.67176148190506
 10
-18.3234285068825
 20
22.7040931583217
  0
LWPOLYLINE
  5
C09
330
A
100
AcDbEntity
  8
0
  6
Continuous
 62
     7
100
AcDbPolyline
 90
       10
 70
   128
 43
0.0
 10
-18.3234285068825
 20
22.7040931583217
 10
-18.27924583072587
 20
22.82547381026192
 10
-18.21018249738229
 20
22.92186988358139
 10
-18.11864001333072
 20
23.00131835343753
 10
-18.01653739217892
 20
23.05314195900797
 10
-17.9380343169928
 20
23.07075231268741
 10
-17.864959928968
 20
23.06832015506733
 10
-17.80057129519594
 20
23.04595236615615
 10
-17.74900509009219
 20
23.00470004098463
 10
-17.74585142986629
 20
22.99864831642088
  0
LWPOLYLINE
  5
C15
330
A
100
AcDbEntity
  8
0
  6
Continuous
 62
     7
100
AcDbPolyline
 90
        5
 70
   128
 43
0.0
 10
-18.185093167657
 20
22.44007248352589
 10
-18.21022630340527
 20
22.45404632799262
 10
-18.25047940843169
 20
22.50562318065332
 10
-18.26989022951289
 20
22.5743662378306
 10
-18.2664278284501
 20
22.65404369678408
  0
LWPOLYLINE
  5
C1C
330
A
100
AcDbEntity
  8
0
  6
Continuous
 62
     7
100
AcDbPolyline
 90
       10
 70
   128
 43
0.0
 10
-18.2664278284501
 20
22.65404369678408
 10
-18.25188549512423
 20
22.7091502544904
 10
-18.21568318441897
 20
22.78699384304889
 10
-18.16408007130574
 20
22.85944717418862
 10
-18.09909667209255
 20
22.92327952251375
 10
-18.02514815972221
 20
22.97365288644166
 10
-17.92130065724709
 20
23.01408756041501
 10
-17.82060104039441
 20
23.02018153201699
 10
-17.73482526582046
 20
22.99081288742609
 10
-17.69600457026617
 20
22.95330645135257
  0
LWPOLYLINE
  5
C28
330
A
100
AcDbEntity
  8
0
  6
Continuous
 62
     7
100
AcDbPolyline
 90
        6
 70
   128
 43
0.0
 10
-18.1293741362096
 20
22.39063335149098
 10
-18.1599720647719
 20
22.41002225127276
 10
-18.19501285288675
 20
22.45872763080264
 10
-18.21259640072353
 20
22.52170484374737
 10
-18.21104104674453
 20
22.59409037492353
 10
-18.20942715001772
 20
22.60399423524646
  0
LWPOLYLINE
  5
C30
330
A
100
AcDbEntity
  8
0
  6
Continuous
 62
     7
100
AcDbPolyline
 90
        9
 70
   128
 43
0.0
 10
-18.20942715001772
 20
22.60399423524646
 10
-18.17630101685738
 20
22.70392004811018
 10
-18.11501735987501
 20
22.79985712082779
 10
-18.03134130797245
 20
22.88183021205258
 10
-17.93107435379625
 20
22.94189824114295
 10
-17.82645762648497
 20
22.9704041234916
 10
-17.73053953751369
 20
22.96358980999892
 10
-17.66939545378626
 20
22.93524722625614
 10
-17.63377050353779
 20
22.89999561037503
  0
LWPOLYLINE
  5
C3B
330
A
100
AcDbEntity
  8
0
  6
Continuous
 62
     7
100
AcDbPolyline
 90
        6
 70
   128
 43
0.0
 10
-18.04722747427446
 20
22.32787439416698
 10
-18.06058341513274
 20
22.33135876730118
 10
-18.1093467434348
 20
22.36637161435607
 10
-18.14183891450085
 20
22.41733363707709
 10
-18.15659799651892
 20
22.48214414703352
 10
-18.15242647158533
 20
22.55394477370884
  0
LWPOLYLINE
  5
C43
330
A
100
AcDbEntity
  8
0
  6
Continuous
 62
     7
100
AcDbPolyline
 90
       10
 70
   128
 43
0.0
 10
-18.15242647158533
 20
22.55394477370884
 10
-18.11060738425203
 20
22.67096390895439
 10
-18.03178917418076
 20
22.77967798775653
 10
-17.96340250475448
 20
22.84005066202117
 10
-17.8881314055542
 20
22.88542452559157
 10
-17.80978125167387
 20
22.91341226282374
 10
-17.73286307342429
 20
22.92196490930479
 10
-17.6424639595616
 20
22.90226561387665
 10
-17.57293802023599
 20
22.84854150206171
 10
-17.56915774548706
 20
22.84085895268274
  0
LWPOLYLINE
  5
C4F
330
A
100
AcDbEntity
  8
0
  6
Continuous
 62
     7
100
AcDbPolyline
 90
        5
 70
   128
 43
0.0
 10
-18.0147425429695
 20
22.29272234588929
 10
-18.04459444644037
 20
22.30863577918186
 10
-18.08826329400688
 20
22.37626965165534
 10
-18.0998965888976
 20
22.43675294230524
 10
-18.09542579315295
 20
22.50389531217121
  0
LWPOLYLINE
  5
C56
330
A
100
AcDbEntity
  8
0
  6
Continuous
 62
     7
100
AcDbPolyline
 90
        9
 70
   128
 43
0.0
 10
-18.09542579315295
 20
22.50389531217121
 10
-18.07750379932218
 20
22.56835211695653
 10
-18.02295200265773
 20
22.67068630366507
 10
-17.94297276412231
 20
22.76041647568928
 10
-17.84504819408561
 20
22.82839794581112
 10
-17.7408928227247
 20
22.8659483006785
 10
-17.64129258126381
 20
22.86885607101607
 10
-17.55712439561515
 20
22.83633288243231
 10
-17.52534671666688
 20
22.80182895341642
  0
LWPOLYLINE
  5
C61
330
A
100
AcDbEntity
  8
0
  6
Continuous
 62
     7
100
AcDbPolyline
 90
        6
 70
   128
 43
0.0
 10
-17.92274726718935
 20
22.22623878625086
 10
-17.94481977165053
 20
22.23045778984974
 10
-18.00694321258481
 20
22.28011869231453
 10
-18.03941635323304
 20
22.35707230794429
 10
-18.03859500344347
 20
22.4528861595
 10
-18.03842511472057
 20
22.45384585063359
  0
LWPOLYLINE
  5
C69
330
A
100
AcDbEntity
  8
0
  6
Continuous
 62
     7
100
AcDbPolyline
 90
        9
 70
   128
 43
0.0
 10
-18.03842511472057
 20
22.45384585063359
 10
-18.00386894987163
 20
22.55670956397964
 10
-17.9397249051245
 20
22.65492374258492
 10
-17.85169545722235
 20
22.7382557448654
 10
-17.75077804588215
 20
22.79565662556729
 10
-17.64628012991193
 20
22.82109508990803
 10
-17.55165748030268
 20
22.81109875220604
 10
-17.47517799707796
 20
22.76613023838675
 10
-17.46130742739866
 20
22.74486199123245
  0
LWPOLYLINE
  5
C74
330
A
100
AcDbEntity
  8
0
  6
Continuous
 62
     7
100
AcDbPolyline
 90
        5
 70
   128
 43
0.0
 10
-17.89726538012908
 20
22.18880947421447
 10
-17.91349713607622
 20
22.19484311536593
 10
-17.96529893842851
 20
22.25502191002285
 10
-17.98607449787493
 20
22.34043637919744
 10
-17.98142443628818
 20
22.40379638909597
  0
LWPOLYLINE
  5
C7B
330
A
100
AcDbEntity
  8
0
  6
Continuous
 62
     7
100
AcDbPolyline
 90
       10
 70
   128
 43
0.0
 10
-17.98142443628818
 20
22.40379638909597
 10
-17.96151647543981
 20
22.4734360067439
 10
-17.92668998308371
 20
22.54343418579947
 10
-17.8532052381949
 20
22.63735502643372
 10
-17.7587360638504
 20
22.7125661878088
 10
-17.65567352668483
 20
22.7588322744916
 10
-17.55311794416778
 20
22.77148799246154
 10
-17.46418897694413
 20
22.7486175249708
 10
-17.39712413199795
 20
22.69218484967454
 10
-17.39592662248635
 20
22.68952331479253
  0
LWPOLYLINE
  5
C87
330
A
100
AcDbEntity
  8
0
  6
Continuous
 62
     7
100
AcDbPolyline
 90
        5
 70
   128
 43
0.0
 10
-17.84508762011876
 20
22.1435312207178
 10
-17.87873156506534
 20
22.16346141655316
 10
-17.91967982102635
 20
22.23345647328756
 10
-17.92909160875236
 20
22.29084228557184
 10
-17.92442375785579
 20
22.35374692755835
  0
LWPOLYLINE
  5
C8E
330
A
100
AcDbEntity
  8
0
  6
Continuous
 62
     7
100
AcDbPolyline
 90
        9
 70
   128
 43
0.0
 10
-17.92442375785579
 20
22.35374692755835
 10
-17.9028550251289
 20
22.42756782902329
 10
-17.8457519283915
 20
22.52919392925772
 10
-17.76371504997021
 20
22.61744429109025
 10
-17.66493604230764
 20
22.68288576612714
 10
-17.56052210827871
 20
22.71752319356373
 10
-17.46208176816218
 20
22.71724679091541
 10
-17.37963079297241
 20
22.68159210389704
 10
-17.35270007903819
 20
22.64980221024338
  0
LWPOLYLINE
  5
C99
330
A
100
AcDbEntity
  8
0
  6
Continuous
 62
     7
100
AcDbPolyline
 90
        5
 70
   128
 43
0.0
 10
-17.7533531761236
 20
22.07714380863153
 10
-17.7804427311958
 20
22.08345636694315
 10
-17.84009578349166
 20
22.13580886403254
 10
-17.86918233929515
 20
22.21135221149105
 10
-17.86742307942341
 20
22.30369746602072
  0
LWPOLYLINE
  5
CA0
330
A
100
AcDbEntity
  8
0
  6
Continuous
 62
     7
100
AcDbPolyline
 90
       10
 70
   128
 43
0.0
 10
-17.86742307942341
 20
22.30369746602072
 10
-17.86588594248366
 20
22.31173365873728
 10
-17.82843075427407
 20
22.41534965199991
 10
-17.76174881475697
 20
22.51296296857738
 10
-17.67194693458671
 20
22.59446570640713
 10
-17.57042712067606
 20
22.64916731327033
 10
-17.46619133147842
 20
22.67149571244368
 10
-17.37290758165366
 20
22.65831916697748
 10
-17.29860521389631
 20
22.61041070040542
 10
-17.28838459994039
 20
22.59327553171323
  0
LWPOLYLINE
  5
CAC
330
A
100
AcDbEntity
  8
0
  6
Continuous
 62
     7
100
AcDbPolyline
 90
        5
 70
   128
 43
0.0
 10
-17.72730867553655
 20
22.04006416492076
 10
-17.74831982305765
 20
22.04892325367215
 10
-17.79748769399174
 20
22.11158373285552
 10
-17.81527319746274
 20
22.1988378463049
 10
-17.81042240099102
 20
22.25364800448311
  0
LWPOLYLINE
  5
CB3
330
A
100
AcDbEntity
  8
0
  6
Continuous
 62
     7
100
AcDbPolyline
 90
       10
 70
   128
 43
0.0
 10
-17.81042240099102
 20
22.25364800448311
 10
-17.7886508438423
 20
22.32797069467685
 10
-17.75008586317365
 20
22.40228615027282
 10
-17.67443976683197
 20
22.49488916156504
 10
-17.57870093360647
 20
22.56782732085507
 10
-17.47523062412295
 20
22.61126934516731
 10
-17.37350774131372
 20
22.62072928552412
 10
-17.28609169960611
 20
22.59469187308722
 10
-17.22156694497495
 20
22.53564087725537
 10
-17.21481555238423
 20
22.51943106470744
  0
LWPOLYLINE
  5
CBF
330
A
100
AcDbEntity
  8
0
  6
Continuous
 62
     7
100
AcDbPolyline
 90
        4
 70
   128
 43
0.0
 10
-17.67555521015284
 20
21.99420944164923
 10
-17.7126322419052
 20
22.01851469282919
 10
-17.75083251023565
 20
22.09083064211828
 10
-17.75342172255863
 20
22.20359854294548
  0
LWPOLYLINE
  5
E72
330
A
100
AcDbEntity
  8
0
  6
Continuous
 62
     7
100
AcDbPolyline
 90
        8
 70
   128
 43
0.0
 10
-19.10259875384493
 20
23.65252403257693
 10
-19.06119172353004
 20
23.69958094519754
 10
-18.99149360264867
 20
23.75826000815018
 10
-18.91576249715661
 20
23.80138482206398
 10
-18.83716877228777
 20
23.82694997380264
 10
-18.76099876689347
 20
23.83283176449751
 10
-18.67222985290266
 20
23.80962176710474
 10
-18.63644928210905
 20
23.77924001877094
  0
LWPOLYLINE
  5
EA6
330
A
100
AcDbEntity
  8
0
  6
Continuous
 62
     7
100
AcDbPolyline
 90
        8
 70
   128
 43
0.0
 10
-10.9529305003384
 20
23.89455658399679
 10
-10.99113045065888
 20
23.93222826131557
 10
-11.07126122785912
 20
23.95534282703856
 10
-11.16609309156378
 20
23.94292806932622
 10
-11.26379293893738
 20
23.89636180614808
 10
-11.35421549968375
 20
23.81978899303029
 10
-11.42547491769193
 20
23.72294494645833
 10
-11.47040457815286
 20
23.61444005569542
  0
LINE
  5
EB0
330
A
100
AcDbEntity
  8
0
  6
Continuous
 62
     7
100
AcDbLine
 10
-11.47040457815286
 20
23.61444005569542
 30
0.0
 11
-11.42519941738785
 21
23.57474765172352
 31
0.0
  0
LWPOLYLINE
  5
EB1
330
A
100
AcDbEntity
  8
0
  6
Continuous
 62
     7
100
AcDbPolyline
 90
        8
 70
   128
 43
0.0
 10
-10.9241050177126
 20
23.87101734107013
 10
-10.94592528989386
 20
23.89253585734367
 10
-11.02605606709411
 20
23.91565042306666
 10
-11.12088793079877
 20
23.90323566535432
 10
-11.21858777817237
 20
23.85666940217619
 10
-11.30901033891874
 20
23.7800965890584
 10
-11.38026975692693
 20
23.68325254248643
 10
-11.42519941738785
 20
23.57474765172352
  0
LWPOLYLINE
  5
EC9
330
A
100
AcDbEntity
  8
0
  6
Continuous
 62
     7
100
AcDbPolyline
 90
        9
 70
   128
 43
0.0
 10
-12.90019087794927
 20
24.69235437983947
 10
-12.92721702188168
 20
24.74171957878868
 10
-12.93590124954387
 20
24.83457953499382
 10
-12.91242596963108
 20
24.93538690365493
 10
-12.86058747241691
 20
25.03198864192075
 10
-12.7865548089354
 20
25.11456054828864
 10
-12.70054490441176
 20
25.17308051260441
 10
-12.6115687268091
 20
25.20245641676015
 10
-12.60425700916771
 20
25.20220722963406
  0
LWPOLYLINE
  5
EDA
330
A
100
AcDbEntity
  8
0
  6
Continuous
 62
     7
100
AcDbPolyline
 90
        5
 70
   128
 43
0.0
 10
-11.53795068001848
 20
23.60934499849617
 10
-11.53919668038463
 20
23.59624739407567
 10
-11.52992551123175
 20
23.49640833267898
 10
-11.48781388076101
 20
23.41703473165079
 10
-11.44868146151054
 20
23.3887884616028
  0
LWPOLYLINE
  5
EE1
330
A
100
AcDbEntity
  8
0
  6
Continuous
 62
     7
100
AcDbPolyline
 90
        9
 70
   128
 43
0.0
 10
-11.00574249861553
 20
23.93875058165203
 10
-11.02431628647518
 20
23.96542280120321
 10
-11.09722496274903
 20
24.00106814379704
 10
-11.18747021885136
 20
24.00167408295132
 10
-11.28591173668505
 20
23.96687191517241
 10
-11.37991365930289
 20
23.90071777104425
 10
-11.45936842809384
 20
23.80982875998806
 10
-11.51201862015847
 20
23.71125497989273
 10
-11.53795068001848
 20
23.60934499849617
  0
LWPOLYLINE
  5
EEC
330
A
100
AcDbEntity
  8
0
  6
Continuous
 62
     7
100
AcDbPolyline
 90
        5
 70
   128
 43
0.0
 10
-11.59495135845087
 20
23.65939446003379
 10
-11.5943015832642
 20
23.58113557147474
 10
-11.56357052825098
 20
23.49283210165912
 10
-11.50233969380275
 20
23.43055712723514
 10
-11.49289607038207
 20
23.42723608490724
  0
LWPOLYLINE
  5
EF3
330
A
100
AcDbEntity
  8
0
  6
Continuous
 62
     7
100
AcDbPolyline
 90
       10
 70
   128
 43
0.0
 10
-11.05689151335851
 20
23.98528934517217
 10
-11.06120611334369
 20
23.99464574865886
 10
-11.12521880560035
 20
24.04213565895414
 10
-11.21000660514896
 20
24.05563929201703
 10
-11.30720767826738
 20
24.03342420516733
 10
-11.40366161647538
 20
23.97829119772209
 10
-11.49008354545691
 20
23.8948419647628
 10
-11.55472022260345
 20
23.79401875547209
 10
-11.58108722570908
 20
23.72630413616437
 10
-11.59495135845087
 20
23.65939446003379
  0
LWPOLYLINE
  5
EFF
330
A
100
AcDbEntity
  8
0
  6
Continuous
 62
     7
100
AcDbPolyline
 90
        5
 70
   128
 43
0.0
 10
-11.65195203688326
 20
23.70944392157142
 10
-11.65211017560034
 20
23.63736989002956
 10
-11.6354434084721
 20
23.57220050485057
 10
-11.58498829774602
 20
23.49996795823126
 10
-11.55674662321823
 20
23.48456082076305
  0
LWPOLYLINE
  5
F06
330
A
100
AcDbEntity
  8
0
  6
Continuous
 62
     7
100
AcDbPolyline
 90
        9
 70
   128
 43
0.0
 10
-11.1230093323987
 20
24.04302489194746
 10
-11.15593782733439
 20
24.07861395475483
 10
-11.23444182480386
 20
24.10485305654964
 10
-11.32824241806604
 20
24.09565954895058
 10
-11.42623719765193
 20
24.0519456894818
 10
-11.51771619352067
 20
23.97783008152892
 10
-11.59106164423796
 20
23.88238382180471
 10
-11.63865888661482
 20
23.77441967998676
 10
-11.65195203688326
 20
23.70944392157142
  0
LWPOLYLINE
  5
F11
330
A
100
AcDbEntity
  8
0
  6
Continuous
 62
     7
100
AcDbPolyline
 90
        5
 70
   128
 43
0.0
 10
-11.70895271531564
 20
23.75949338310903
 10
-11.70935600492579
 20
23.75579535242443
 10
-11.70316662723416
 20
23.6548790720479
 10
-11.66382703143753
 20
23.5732366137805
 10
-11.62181459661187
 20
23.54017015471182
  0
LWPOLYLINE
  5
F18
330
A
100
AcDbEntity
  8
0
  6
Continuous
 62
     7
100
AcDbPolyline
 90
        9
 70
   128
 43
0.0
 10
-11.17548589227565
 20
24.0878327397129
 10
-11.18999715778518
 20
24.11078204761524
 10
-11.26085581737968
 20
24.14943446807461
 10
-11.3498322081203
 20
24.15323522243084
 10
-11.44817322045895
 20
24.12146692305785
 10
-11.54286452507591
 20
24.05799273031917
 10
-11.62419904605609
 20
23.96874468545268
 10
-11.68106423632265
 20
23.86631048704547
 10
-11.70895271531564
 20
23.75949338310903
  0
LWPOLYLINE
  5
F23
330
A
100
AcDbEntity
  8
0
  6
Continuous
 62
     7
100
AcDbPolyline
 90
        5
 70
   128
 43
0.0
 10
-11.76595339374802
 20
23.80954284464666
 10
-11.76642118286458
 20
23.74018243590303
 10
-11.7386029876227
 20
23.64987463724142
 10
-11.67999689835722
 20
23.5850935646301
 10
-11.66550914863311
 20
23.57935508694831
  0
LWPOLYLINE
  5
F2A
330
A
100
AcDbEntity
  8
0
  6
Continuous
 62
     7
100
AcDbPolyline
 90
       10
 70
   128
 43
0.0
 10
-11.2261020202018
 20
24.13485791399962
 10
-11.22785798759948
 20
24.1391106326704
 10
-11.28945807338868
 20
24.18935523989325
 10
-11.37277213729003
 20
24.20601724068966
 10
-11.4693300273903
 20
24.18699648150703
 10
-11.56624903894483
 20
24.13464477146263
 10
-11.65410642263244
 20
24.05333664804945
 10
-11.72095347881089
 20
23.95376841579759
 10
-11.75058980577267
 20
23.88137800782035
 10
-11.76595339374802
 20
23.80954284464666
  0
LWPOLYLINE
  5
F36
330
A
100
AcDbEntity
  8
0
  6
Continuous
 62
     7
100
AcDbPolyline
 90
        5
 70
   128
 43
0.0
 10
-11.82295407218041
 20
23.85959230618428
 10
-11.82360845904728
 20
23.79199323339746
 10
-11.80949172270169
 20
23.73011464095165
 10
-11.76174845813839
 20
23.65550874884954
 10
-11.72960434034573
 20
23.63622615077695
  0
LWPOLYLINE
  5
F3D
330
A
100
AcDbEntity
  8
0
  6
Continuous
 62
     7
100
AcDbPolyline
 90
        9
 70
   128
 43
0.0
 10
-11.29302455417487
 20
24.19164858364744
 10
-11.32094923608648
 20
24.22473640737417
 10
-11.39773591649615
 20
24.25408419320977
 10
-11.49042562636749
 20
24.24810643696697
 10
-11.58865906268656
 20
24.20726748905366
 10
-11.68106510231467
 20
24.13569865884692
 10
-11.75645494721117
 20
24.04169674378851
 10
-11.80664796545971
 20
23.93441934281687
 10
-11.82295407218041
 20
23.85959230618428
  0
LWPOLYLINE
  5
F48
330
A
100
AcDbEntity
  8
0
  6
Continuous
 62
     7
100
AcDbPolyline
 90
        5
 70
   128
 43
0.0
 10
-11.8799547506128
 20
23.9096417677219
 10
-11.87556699500688
 20
23.81091878960842
 10
-11.83958618289401
 20
23.72963432677739
 10
-11.77305924256725
 20
23.67263276047566
 10
-11.75450410897734
 20
23.66770135601409
  0
LWPOLYLINE
  5
F4F
330
A
100
AcDbEntity
  8
0
  6
Continuous
 62
     7
100
AcDbPolyline
 90
       10
 70
   128
 43
0.0
 10
-11.34899962934911
 20
24.24288563511935
 10
-11.35591027303373
 20
24.25590689196941
 10
-11.40522398526318
 20
24.2902526253608
 10
-11.46654629050352
 20
24.30542175712794
 10
-11.53635218135363
 20
24.30064793010717
 10
-11.61038238545368
 20
24.27582154614619
 10
-11.70570771482441
 20
24.21505323263371
 10
-11.78882018172606
 20
24.12757637747183
 10
-11.84879276283362
 20
24.02432465361041
 10
-11.8799547506128
 20
23.9096417677219
  0
LWPOLYLINE
  5
F5B
330
A
100
AcDbEntity
  8
0
  6
Continuous
 62
     7
100
AcDbPolyline
 90
        5
 70
   128
 43
0.0
 10
-11.93695542904518
 20
23.95969122925952
 10
-11.9347422384676
 20
23.87172503805158
 10
-11.90740199724758
 20
23.79617811981513
 10
-11.85744495525675
 20
23.73988933888392
 10
-11.83918546050003
 20
23.73055779357264
  0
LWPOLYLINE
  5
F62
330
A
100
AcDbEntity
  8
0
  6
Continuous
 62
     7
100
AcDbPolyline
 90
       10
 70
   128
 43
0.0
 10
-11.40882073781336
 20
24.2966419909108
 10
-11.45387373472509
 20
24.33629754016457
 10
-11.53566399413048
 20
24.35610748116061
 10
-11.63144853045723
 20
24.34029887815027
 10
-11.72877711458635
 20
24.2907521651192
 10
-11.79709639193019
 20
24.23378150730857
 10
-11.85547925388638
 20
24.16433359250019
 10
-11.90033135063671
 20
24.08667424433876
 10
-11.92901552942482
 20
24.00451433400438
 10
-11.93695542904518
 20
23.95969122925952
  0
LWPOLYLINE
  5
F6E
330
A
100
AcDbEntity
  8
0
  6
Continuous
 62
     7
100
AcDbPolyline
 90
        6
 70
   128
 43
0.0
 10
-11.99395610747757
 20
24.00974069079714
 10
-11.99580043967428
 20
23.98677267118682
 10
-11.98964496295765
 20
23.91135988892769
 10
-11.96451088740358
 20
23.84641200531164
 10
-11.92227745537109
 20
23.79616992063514
 10
-11.89925039128153
 20
23.78286120743871
  0
LWPOLYLINE
  5
F76
330
A
100
AcDbEntity
  8
0
  6
Continuous
 62
     7
100
AcDbPolyline
 90
        9
 70
   128
 43
0.0
 10
-11.45825428187206
 20
24.34244521295124
 10
-11.50282028315276
 20
24.38190602094481
 10
-11.56112837854552
 20
24.40303364359368
 10
-11.65265499010419
 20
24.40026547962729
 10
-11.75105690951357
 20
24.36233237298902
 10
-11.84427252444067
 20
24.29338358221822
 10
-11.9168120467409
 20
24.2081254285069
 10
-11.96848066846041
 20
24.11048109384374
 10
-11.99395610747757
 20
24.00974069079714
  0
LWPOLYLINE
  5
F81
330
A
100
AcDbEntity
  8
0
  6
Continuous
 62
     7
100
AcDbPolyline
 90
        5
 70
   128
 43
0.0
 10
-12.05095678590996
 20
24.05979015233477
 10
-12.04882711039344
 20
23.97228992937596
 10
-12.01508814659542
 20
23.8862172444414
 10
-11.9511170944088
 20
23.8266173025541
 10
-11.94723822224956
 20
23.82542738236403
  0
LWPOLYLINE
  5
F88
330
A
100
AcDbEntity
  8
0
  6
Continuous
 62
     7
100
AcDbPolyline
 90
       10
 70
   128
 43
0.0
 10
-11.51462026885188
 20
24.3864011145781
 10
-11.52206089957853
 20
24.40080600027336
 10
-11.58852906588583
 20
24.44531376903424
 10
-11.67481523229737
 20
24.45547919333018
 10
-11.74778942771225
 20
24.43959356415796
 10
-11.82118374646251
 20
24.40477296125513
 10
-11.89123995230202
 20
24.35267555004318
 10
-11.95323808109086
 20
24.28631088316169
 10
-12.01897065963249
 20
24.17639124350217
 10
-12.05095678590996
 20
24.05979015233477
  0
LWPOLYLINE
  5
F94
330
A
100
AcDbEntity
  8
0
  6
Continuous
 62
     7
100
AcDbPolyline
 90
        5
 70
   128
 43
0.0
 10
-12.10795746434235
 20
24.10983961387239
 10
-12.10751699694168
 20
24.03308193678326
 10
-12.08796539774618
 20
23.9646334235033
 10
-12.03467546331071
 20
23.89493732367134
 10
-12.01087859997851
 20
23.8832441066175
  0
LWPOLYLINE
  5
F9B
330
A
100
AcDbEntity
  8
0
  6
Continuous
 62
     7
100
AcDbPolyline
 90
       11
 70
   128
 43
0.0
 10
-11.5540129642188
 20
24.40688064943635
 10
-11.56190644042449
 20
24.42745296806649
 10
-11.61847536619431
 20
24.48296637496386
 10
-11.6986918604183
 20
24.50591321646381
 10
-11.79357552431237
 20
24.49332580929892
 10
-11.89125798998974
 20
24.44660738118065
 10
-11.98162034429279
 20
24.36990559994366
 10
-12.05276684517476
 20
24.27298798642723
 10
-12.08926408222938
 20
24.19192805163488
 10
-12.1078699826191
 20
24.11059657926667
 10
-12.10795746434235
 20
24.10983961387239
  0
LWPOLYLINE
  5
FA8
330
A
100
AcDbEntity
  8
0
  6
Continuous
 62
     7
100
AcDbPolyline
 90
        4
 70
   128
 43
0.0
 10
-12.16495814277473
 20
24.15988907541001
 10
-12.15846237843157
 20
24.05250712031641
 10
-12.11454579885967
 20
23.96726024517257
 10
-12.07202060432863
 20
23.93276994822184
  0
LWPOLYLINE
  5
FAE
330
A
100
AcDbEntity
  8
0
  6
Continuous
 62
     7
100
AcDbPolyline
 90
       10
 70
   128
 43
0.0
 10
-11.63231212460069
 20
24.49117280628944
 10
-11.65161525363727
 20
24.51621666501301
 10
-11.7043840642763
 20
24.54605935528726
 10
-11.76792268426369
 20
24.55637163832485
 10
-11.83939492445471
 20
24.54661069085532
 10
-11.91338574673019
 20
24.51717116309806
 10
-12.00734917423474
 20
24.45087419586645
 10
-12.08670047996338
 20
24.35990102064063
 10
-12.14184323896144
 20
24.25442425406159
 10
-12.16495814277473
 20
24.15988907541001
  0
LWPOLYLINE
  5
FBA
330
A
100
AcDbEntity
  8
0
  6
Continuous
 62
     7
100
AcDbPolyline
 90
        5
 70
   128
 43
0.0
 10
-12.22195882120711
 20
24.20993853694762
 10
-12.21860834912381
 20
24.1160536398152
 10
-12.18666114045323
 20
24.03722263595244
 10
-12.12898489865036
 20
23.98087357593256
 10
-12.12185900021175
 20
23.97838419648637
  0
LWPOLYLINE
  5
FC1
330
A
100
AcDbEntity
  8
0
  6
Continuous
 62
     7
100
AcDbPolyline
 90
       11
 70
   128
 43
0.0
 10
-11.68812575242292
 20
24.54073123506996
 10
-11.70191606001746
 20
24.56019230511581
 10
-11.75259334564085
 20
24.59282874884987
 10
-11.8374586798059
 20
24.60616290067259
 10
-11.93469049287876
 20
24.58377736155995
 10
-12.03111795291216
 20
24.52849603337823
 10
-12.09756869768098
 20
24.46789613718034
 10
-12.15274092934603
 20
24.39633264393223
 10
-12.19401708441982
 20
24.31688695834024
 10
-12.21823837228449
 20
24.23480883041668
 10
-12.22195882120711
 20
24.20993853694762
  0
LWPOLYLINE
  5
FCE
330
A
100
AcDbEntity
  8
0
  6
Continuous
 62
     7
100
AcDbPolyline
 90
        6
 70
   128
 43
0.0
 10
-12.2789594996395
 20
24.25998799848525
 10
-12.28109996227398
 20
24.21793542924474
 10
-12.27016824106513
 20
24.14444872699107
 10
-12.24075253643487
 20
24.08300297979752
 10
-12.19437314581403
 20
24.03649256978006
 10
-12.18375913452554
 20
24.03148903350547
  0
LWPOLYLINE
  5
FD6
330
A
100
AcDbEntity
  8
0
  6
Continuous
 62
     7
100
AcDbPolyline
 90
       11
 70
   128
 43
0.0
 10
-11.74480462903208
 20
24.59139417597393
 10
-11.75258936669667
 20
24.60379667535633
 10
-11.80106726697321
 20
24.63915055870756
 10
-11.86186476296856
 20
24.65543836709784
 10
-11.93123297891954
 20
24.65180828545574
 10
-12.00521131432361
 20
24.62807205486585
 10
-12.07748164028609
 20
24.58636087280306
 10
-12.14512945137546
 20
24.52795560702769
 10
-12.20989658028229
 20
24.44614013357961
 10
-12.25604037850945
 20
24.35399588519121
 10
-12.2789594996395
 20
24.25998799848525
  0
LWPOLYLINE
  5
FE3
330
A
100
AcDbEntity
  8
0
  6
Continuous
 62
     7
100
AcDbPolyline
 90
        5
 70
   128
 43
0.0
 10
-12.33596017807189
 20
24.31003746002286
 10
-12.33006102798106
 20
24.20497314193668
 10
-12.29057244731726
 20
24.12345133655739
 10
-12.2214364135872
 20
24.06928611208464
 10
-12.22139117741515
 20
24.06927597312031
  0
LWPOLYLINE
  5
FEA
330
A
100
AcDbEntity
  8
0
  6
Continuous
 62
     7
100
AcDbPolyline
 90
       10
 70
   128
 43
0.0
 10
-11.80256356567144
 20
24.63843036937889
 10
-11.81728384543183
 20
24.66158870239483
 10
-11.88825488084235
 20
24.70008123038328
 10
-11.97730054046574
 20
24.70371103486175
 10
-12.05102826152991
 20
24.68292662133698
 10
-12.12375466894746
 20
24.6438307200816
 10
-12.19244710804587
 20
24.58774072845372
 10
-12.25154248355638
 20
24.51882109258466
 10
-12.30817808152214
 20
24.41659190858603
 10
-12.33596017807189
 20
24.31003746002286
  0
LWPOLYLINE
  5
FF6
330
A
100
AcDbEntity
  8
0
  6
Continuous
 62
     7
100
AcDbPolyline
 90
        6
 70
   128
 43
0.0
 10
-12.39296085650427
 20
24.36008692156048
 10
-12.39457349754397
 20
24.34154711699112
 10
-12.38951853660286
 20
24.26575443229114
 10
-12.3654003348286
 20
24.20004356661551
 10
-12.30665305861974
 20
24.13539593261022
 10
-12.29242929453247
 20
24.12979658150217
  0
LWPOLYLINE
  5
FFE
330
A
100
AcDbEntity
  8
0
  6
Continuous
 62
     7
100
AcDbPolyline
 90
       10
 70
   128
 43
0.0
 10
-11.85762166786544
 20
24.69230415456765
 10
-11.89888843939034
 20
24.73047835904879
 10
-11.95656980950183
 20
24.75271380135558
 10
-12.02349886115853
 20
24.75514655698408
 10
-12.09681339462214
 20
24.73736392428314
 10
-12.1937088971169
 20
24.6848626115327
 10
-12.28149241238314
 20
24.60343693989941
 10
-12.3482220740149
 20
24.5038002838743
 10
-12.37767926843704
 20
24.43165813713893
 10
-12.39296085650427
 20
24.36008692156048
  0
LWPOLYLINE
  5
100A
330
A
100
AcDbEntity
  8
0
  6
Continuous
 62
     7
100
AcDbPolyline
 90
        4
 70
   128
 43
0.0
 10
-12.44996153493667
 20
24.41013638309811
 10
-12.44107124137731
 20
24.29426845237636
 10
-12.38845345817859
 20
24.205758122256
 10
-12.35225282826356
 20
24.18121257453041
  0
LWPOLYLINE
  5
1010
330
A
100
AcDbEntity
  8
0
  6
Continuous
 62
     7
100
AcDbPolyline
 90
       10
 70
   128
 43
0.0
 10
-11.91732337877634
 20
24.74122153649228
 10
-11.94827231985947
 20
24.77550273536772
 10
-12.02515391516501
 20
24.80468453037538
 10
-12.11790446498972
 20
24.79853465135509
 10
-12.21612654863817
 20
24.75754112591892
 10
-12.28643748169102
 20
24.70639963602609
 10
-12.34905823918236
 20
24.64068260647315
 10
-12.39889826142811
 20
24.56585752848262
 10
-12.43382351402714
 20
24.4844353880808
 10
-12.44996153493667
 20
24.41013638309811
  0
LWPOLYLINE
  5
101C
330
A
100
AcDbEntity
  8
0
  6
Continuous
 62
     7
100
AcDbPolyline
 90
        5
 70
   128
 43
0.0
 10
-12.50696221336904
 20
24.46018584463573
 10
-12.50234485492282
 20
24.36045045746215
 10
-12.46548422873761
 20
24.27867327927144
 10
-12.3996835450098
 20
24.22297909532161
 10
-12.38166544466723
 20
24.21822923929438
  0
LWPOLYLINE
  5
1023
330
A
100
AcDbEntity
  8
0
  6
Continuous
 62
     7
100
AcDbPolyline
 90
       11
 70
   128
 43
0.0
 10
-11.97292052478257
 20
24.79088213702559
 10
-11.99799382341211
 20
24.82011617190056
 10
-12.0520117841726
 20
24.84817814489119
 10
-12.13974037029529
 20
24.85499508450614
 10
-12.23786203124996
 20
24.82614652038037
 10
-12.3331547972838
 20
24.76523260296433
 10
-12.39734729284291
 20
24.70134830424804
 10
-12.44923879666632
 20
24.62774854489916
 10
-12.48666079125211
 20
24.54693848091318
 10
-12.50632463828714
 20
24.46541390870127
 10
-12.50696221336904
 20
24.46018584463573
  0
LWPOLYLINE
  5
1030
330
A
100
AcDbEntity
  8
0
  6
Continuous
 62
     7
100
AcDbPolyline
 90
        5
 70
   128
 43
0.0
 10
-12.56396289180144
 20
24.51023530617335
 10
-12.56523025500969
 20
24.44939890000675
 10
-12.54956277783505
 20
24.37827484015006
 10
-12.51595965455952
 20
24.3204408172392
 10
-12.47249149120159
 20
24.283737943348
  0
LWPOLYLINE
  5
1037
330
A
100
AcDbEntity
  8
0
  6
Continuous
 62
     7
100
AcDbPolyline
 90
        9
 70
   128
 43
0.0
 10
-12.03690704733612
 20
24.84753972355019
 10
-12.08122940764607
 20
24.88702034148582
 10
-12.16310256682876
 20
24.90666191706598
 10
-12.2342252839497
 20
24.89805191373116
 10
-12.30826314260571
 20
24.86965693864512
 10
-12.37971788241544
 20
24.82370988171729
 10
-12.44534452880094
 20
24.76180318330139
 10
-12.52537994404557
 20
24.64141142476549
 10
-12.56396289180144
 20
24.51023530617335
  0
LWPOLYLINE
  5
1042
330
A
100
AcDbEntity
  8
0
  6
Continuous
 62
     7
100
AcDbPolyline
 90
        4
 70
   128
 43
0.0
 10
-12.62096357023382
 20
24.56028476771097
 10
-12.61014560506076
 20
24.43833459942554
 10
-12.56498746231063
 20
24.36151351107606
 10
-12.52944703879226
 20
24.33826234203286
  0
LWPOLYLINE
  5
1048
330
A
100
AcDbEntity
  8
0
  6
Continuous
 62
     7
100
AcDbPolyline
 90
       10
 70
   128
 43
0.0
 10
-12.09003042728896
 20
24.89104037050399
 10
-12.11348414435188
 20
24.92138165245151
 10
-12.18854081121093
 20
24.95364912214934
 10
-12.28013104696713
 20
24.95070918364444
 10
-12.37852698220579
 20
24.91261883202972
 10
-12.47170096800685
 20
24.84352874925747
 10
-12.54898683712912
 20
24.75093670308445
 10
-12.59111168417252
 20
24.67186842694963
 10
-12.6163717022269
 20
24.58972927683182
 10
-12.62096357023382
 20
24.56028476771097
  0
LWPOLYLINE
  5
1054
330
A
100
AcDbEntity
  8
0
  6
Continuous
 62
     7
100
AcDbPolyline
 90
        6
 70
   128
 43
0.0
 10
-12.67796424866621
 20
24.6103342292486
 10
-12.68013946727807
 20
24.57265693383587
 10
-12.67030678403701
 20
24.49868690270597
 10
-12.64186097543015
 20
24.43641191303154
 10
-12.59643377893145
 20
24.38903162846416
 10
-12.58282830718709
 20
24.38229750440907
  0
LWPOLYLINE
  5
105C
330
A
100
AcDbEntity
  8
0
  6
Continuous
 62
     7
100
AcDbPolyline
 90
       10
 70
   128
 43
0.0
 10
-12.14522576697528
 20
24.94331843797424
 10
-12.14932216005752
 20
24.95163686197518
 10
-12.19695051415434
 20
24.98798655357904
 10
-12.25720822520684
 20
25.00539260597854
 10
-12.32612880861271
 20
25.00290333414659
 10
-12.40003237788352
 20
24.98026605980111
 10
-12.4959068254823
 20
24.92208195207825
 10
-12.58060330688894
 20
24.83639766539159
 10
-12.64274618258447
 20
24.7342401751046
 10
-12.67796424866621
 20
24.6103342292486
  0
LWPOLYLINE
  5
1068
330
A
100
AcDbEntity
  8
0
  6
Continuous
 62
     7
100
AcDbPolyline
 90
        5
 70
   128
 43
0.0
 10
-12.73496492709859
 20
24.66038369078622
 10
-12.73323204975152
 20
24.57516714468677
 10
-12.70791684726347
 20
24.50125851348285
 10
-12.66135490342878
 20
24.44521265367367
 10
-12.63845969708223
 20
24.43237438152507
  0
LWPOLYLINE
  5
106F
330
A
100
AcDbEntity
  8
0
  6
Continuous
 62
     7
100
AcDbPolyline
 90
       10
 70
   128
 43
0.0
 10
-12.20529715625785
 20
24.99533929503485
 10
-12.24582084163236
 20
25.03370371677232
 10
-12.32612290975068
 20
25.05648280049115
 10
-12.42105801694799
 20
25.04372274462034
 10
-12.51872294038991
 20
24.99685221728709
 10
-12.5877666309752
 20
24.94165830633604
 10
-12.64755872304015
 20
24.87328988558701
 10
-12.69400352866962
 20
24.79651354043707
 10
-12.72469807061866
 20
24.71447661352156
 10
-12.73496492709859
 20
24.66038369078622
  0
LWPOLYLINE
  5
107B
330
A
100
AcDbEntity
  8
0
  6
Continuous
 62
     7
100
AcDbPolyline
 90
        6
 70
   128
 43
0.0
 10
-12.79196560553097
 20
24.71043315232384
 10
-12.7932861018576
 20
24.69632999709765
 10
-12.78933019659971
 20
24.62018171764113
 10
-12.76623800882435
 20
24.55372606297976
 10
-12.72591708631355
 20
24.50178444986742
 10
-12.69769460730631
 20
24.48396922108257
  0
LWPOLYLINE
  5
1083
330
A
100
AcDbEntity
  8
0
  6
Continuous
 62
     7
100
AcDbPolyline
 90
        9
 70
   128
 43
0.0
 10
-12.25695221696152
 20
25.04222705319558
 10
-12.2950017027553
 20
25.07899133938489
 10
-12.35203710459489
 20
25.10233035003513
 10
-12.44241527577492
 20
25.10259352988246
 10
-12.54085957236176
 20
25.06746974753943
 10
-12.63478434559021
 20
25.00103003386079
 10
-12.71098422239028
 20
24.91437052185619
 10
-12.76527237382234
 20
24.81427195844393
 10
-12.79196560553097
 20
24.71043315232384
  0
LWPOLYLINE
  5
108E
330
A
100
AcDbEntity
  8
0
  6
Continuous
 62
     7
100
AcDbPolyline
 90
        5
 70
   128
 43
0.0
 10
-12.84896628396336
 20
24.76048261386146
 10
-12.84818016698847
 20
24.68127741952696
 10
-12.81714022470058
 20
24.59319534664146
 10
-12.75562953040544
 20
24.53119078843761
 10
-12.7467405398927
 20
24.52810613402782
  0
LWPOLYLINE
  5
1095
330
A
100
AcDbEntity
  8
0
  6
Continuous
 62
     7
100
AcDbPolyline
 90
       10
 70
   128
 43
0.0
 10
-12.3110888258565
 20
25.0864447935237
 10
-12.31570178478073
 20
25.09633078501594
 10
-12.37996836165598
 20
25.14352103368767
 10
-12.46491108632845
 20
25.1566856760985
 10
-12.53739574461846
 20
25.14308654112997
 10
-12.61106685245975
 20
25.11024982236206
 10
-12.68161007813899
 20
25.06007634905167
 10
-12.74483520388145
 20
24.99502832408711
 10
-12.81495658849711
 20
24.88169645975082
 10
-12.84896628396336
 20
24.76048261386146
  0
LWPOLYLINE
  5
10A1
330
A
100
AcDbEntity
  8
0
  6
Continuous
 62
     7
100
AcDbPolyline
 90
        5
 70
   128
 43
0.0
 10
-12.90596696239574
 20
24.81053207539907
 10
-12.90606777613627
 20
24.73798025604065
 10
-12.88911680956513
 20
24.6724684503811
 10
-12.838372357194
 20
24.60049216947403
 10
-12.81056736427894
 20
24.58548028347953
  0
LWPOLYLINE
  5
10A8
330
A
100
AcDbEntity
  8
0
  6
Continuous
 62
     7
100
AcDbPolyline
 90
       10
 70
   128
 43
0.0
 10
-12.37712603690686
 20
25.14428566069611
 10
-12.41060685259084
 20
25.18011794628604
 10
-12.48928794801156
 20
25.20602287663805
 10
-12.5832044450676
 20
25.19648449026261
 10
-12.68117031045931
 20
25.15246393292214
 10
-12.77254227196479
 20
25.07808063908385
 10
-12.84566620170724
 20
24.98248238929158
 10
-12.88399981101887
 20
24.90194663782208
 10
-12.9047194324985
 20
24.82025328925054
 10
-12.90596696239574
 20
24.81053207539907
  0
LINE
  5
127A
330
A
100
AcDbEntity
  8
0
  6
Continuous
 62
     7
100
AcDbLine
 10
-19.92597287036329
 20
31.62619976924432
 30
0.0
 11
-20.23916341120058
 21
31.90119681065982
 31
0.0
  0
LWPOLYLINE
  5
127B
330
A
100
AcDbEntity
  8
0
  6
Continuous
 62
     7
100
AcDbPolyline
 90
        5
 70
   128
 43
0.0
 10
-19.92597287036329
 20
31.62619976924432
 10
-20.00720723500351
 20
31.4549590300857
 10
-20.10872245977276
 20
31.29065279720204
 10
-20.20976147722205
 20
31.16396121323089
 10
-20.3223959296497
 20
31.04812963452648
  0
LINE
  5
1282
330
A
100
AcDbEntity
  8
0
  6
Continuous
 62
     7
100
AcDbLine
 10
-20.3223959296497
 20
31.04812963452648
 30
0.0
 11
-20.63558647048699
 21
31.32312667594197
 31
0.0
  0
LWPOLYLINE
  5
1283
330
A
100
AcDbEntity
  8
0
  6
Continuous
 62
     7
100
AcDbPolyline
 90
        5
 70
   128
 43
0.0
 10
-20.63558647048699
 20
31.32312667594197
 10
-20.55435210584677
 20
31.49436741510059
 10
-20.45283688107752
 20
31.65867364798425
 10
-20.35179786362823
 20
31.7853652319554
 10
-20.23916341120058
 20
31.90119681065982
  0
LWPOLYLINE
  5
128A
330
A
100
AcDbEntity
  8
0
  6
Continuous
 62
     7
100
AcDbPolyline
 90
        5
 70
   128
 43
0.0
 10
-19.16268787628828
 20
31.23504031311933
 10
-19.17351838838444
 20
31.28629586452163
 10
-19.2043565532329
 20
31.39426164556887
 10
-19.25247285859041
 20
31.52038224488906
 10
-19.34611884368259
 20
31.71965510854075
  0
LWPOLYLINE
  5
1291
330
A
100
AcDbEntity
  8
0
  6
Continuous
 62
     7
100
AcDbPolyline
 90
        5
 70
   128
 43
0.0
 10
-19.55911093557468
 20
30.65697017840147
 10
-19.43269030822559
 20
30.78853510703164
 10
-19.3172424305594
 20
30.94060777016737
 10
-19.23387695937488
 20
31.08281761634764
 10
-19.16268787628828
 20
31.23504031311933
  0
LWPOLYLINE
  5
1298
330
A
100
AcDbEntity
  8
0
  6
Continuous
 62
     7
100
AcDbPolyline
 90
        5
 70
   128
 43
0.0
 10
-20.13896496225539
 20
30.56351483910506
 10
-19.96450177636617
 20
30.56815390015036
 10
-19.79885783815769
 20
30.58761125870465
 10
-19.67282898886034
 20
30.61710674400121
 10
-19.55911093557468
 20
30.65697017840147
  0
LWPOLYLINE
  5
129F
330
A
100
AcDbEntity
  8
0
  6
Continuous
 62
     7
100
AcDbPolyline
 90
        5
 70
   128
 43
0.0
 10
-20.3223959296497
 20
31.04812963452648
 10
-20.22874994455753
 20
30.84885677087477
 10
-20.18163214216692
 20
30.72571691657041
 10
-20.14979547435156
 20
30.61477039050735
 10
-20.13896496225539
 20
30.56351483910506
  0
LWPOLYLINE
  5
12A6
330
A
100
AcDbEntity
  8
0
  6
Continuous
 62
     7
100
AcDbPolyline
 90
        5
 70
   128
 43
0.0
 10
-19.34611884368259
 20
31.71965510854075
 10
-19.47539576686294
 20
31.67534023696699
 10
-19.62710705217449
 20
31.64364930866476
 10
-19.77080944773657
 20
31.62967208557731
 10
-19.92597287036329
 20
31.62619976924432
  0
LWPOLYLINE
  5
12AD
330
A
100
AcDbEntity
  8
0
  6
Continuous
 62
     7
100
AcDbPolyline
 90
       39
 70
   128
 43
0.0
 10
-19.23920757139874
 20
31.42649715450818
 10
-19.27040224672522
 20
31.48783130043491
 10
-19.31340778340688
 20
31.53878309886522
 10
-19.36705110251014
 20
31.57796271755938
 10
-19.42986895412755
 20
31.60430143865301
 10
-19.5001478310209
 20
31.61708081049463
 10
-19.57597070863191
 20
31.61595224513372
 10
-19.65526933651483
 20
31.60094652689139
 10
-19.73588065481711
 20
31.5724729726443
 10
-19.8156057969135
 20
31.53130826672728
 10
-19.89227006875553
 20
31.47857527500939
 10
-19.9637822688562
 20
31.41571241604001
 10
-20.02819173081515
 20
31.34443442474061
 10
-20.08374153241308
 20
31.26668557890597
 10
-20.12891641986993
 20
31.18458666437437
 10
-20.162484140018
 20
31.1003771255183
 10
-20.18352905295618
 20
31.01635397903988
 10
-20.19147710831952
 20
30.93480915734304
 10
-20.18611150387672
 20
30.85796699059221
 10
-20.1675785993299
 20
30.78792353278374
 10
-20.13638392400344
 20
30.72658938685702
 10
-20.09337838732176
 20
30.67563758842669
 10
-20.0397350682185
 20
30.63645796973254
 10
-19.97691721660109
 20
30.6101192486389
 10
-19.90663833970774
 20
30.5973398767973
 10
-19.83081546209674
 20
30.59846844215819
 10
-19.75151683421382
 20
30.61347416040052
 10
-19.67090551591153
 20
30.64194771464762
 10
-19.59118037381515
 20
30.68311242056465
 10
-19.51451610197311
 20
30.73584541228255
 10
-19.44300390187244
 20
30.79870827125191
 10
-19.3785944399135
 20
30.86998626255131
 10
-19.32304463831556
 20
30.94773510838594
 10
-19.27786975085872
 20
31.02983402291756
 10
-19.24430203071065
 20
31.11404356177363
 10
-19.22325711777247
 20
31.19806670825205
 10
-19.21530906240914
 20
31.27961152994888
 10
-19.22067466685193
 20
31.35645369669972
 10
-19.23920757139874
 20
31.42649715450818
  0
LWPOLYLINE
  5
12D6
330
A
100
AcDbEntity
  8
0
  6
Continuous
 62
     7
100
AcDbPolyline
 90
       12
 70
   128
 43
0.0
 10
-19.46966354127953
 20
31.08952488454953
 10
-19.45156824601577
 20
31.15149885686515
 10
-19.44689894965107
 20
31.21111159455729
 10
-19.45590459493476
 20
31.26518485455552
 10
-19.47810504740519
 20
31.31083573010969
 10
-19.51231669367779
 20
31.3456303524779
 10
-19.55671554559323
 20
31.36771365222848
 10
-19.60893448583903
 20
31.37590826195434
 10
-19.66618947041038
 20
31.36977728741808
 10
-19.72542795944739
 20
31.34964760049451
 10
-19.78349166288365
 20
31.31659241205188
 10
-19.83728492414918
 20
31.27237405389503
  0
LWPOLYLINE
  5
12E4
330
A
100
AcDbEntity
  8
0
  6
Continuous
 62
     7
100
AcDbPolyline
 90
        7
 70
   128
 43
0.0
 10
-19.83728492414903
 20
31.27237405389517
 10
-19.90755660281249
 20
31.19707595189348
 10
-19.957602148901
 20
31.10963055585261
 10
-19.98366475795938
 20
31.01504364714853
 10
-19.98034683945195
 20
30.92664577130867
 10
-19.94621359411461
 20
30.85128332954877
 10
-19.90340647347357
 20
30.81174896887012
  0
LWPOLYLINE
  5
12ED
330
A
100
AcDbEntity
  8
0
  6
Continuous
 62
     7
100
AcDbPolyline
 90
        7
 70
   128
 43
0.0
 10
-19.90340647347359
 20
30.81174896887012
 10
-19.81420648498125
 20
30.79979527567957
 10
-19.71470182020626
 20
30.82365269741953
 10
-19.62066826543271
 20
30.87868217919649
 10
-19.54023232589948
 20
30.95842082799736
 10
-19.48512771613773
 20
31.04876412845503
 10
-19.46966354127952
 20
31.08952488454953
  0
LINE
  5
12F6
330
A
100
AcDbEntity
  8
0
  6
Continuous
 62
     7
100
AcDbLine
 10
-19.34611884368258
 20
31.71965510854075
 30
0.0
 11
-19.65930938451987
 21
31.99465214995626
 31
0.0
  0
LWPOLYLINE
  5
12F7
330
A
100
AcDbEntity
  8
0
  6
Continuous
 62
     7
100
AcDbPolyline
 90
        5
 70
   128
 43
0.0
 10
-20.23916341120058
 20
31.90119681065982
 10
-20.10988648802022
 20
31.94551168223359
 10
-19.95817520270868
 20
31.97720261053581
 10
-19.81447280714658
 20
31.99117983362326
 10
-19.65930938451987
 20
31.99465214995626
  0
LINE
  5
12FE
330
A
100
AcDbEntity
  8
0
  6
Continuous
 62
     7
100
AcDbLine
 10
-20.13896496225539
 20
30.56351483910505
 30
0.0
 11
-20.45215550309267
 21
30.83851188052055
 31
0.0
  0
LWPOLYLINE
  5
12FF
330
A
100
AcDbEntity
  8
0
  6
Continuous
 62
     7
100
AcDbPolyline
 90
        5
 70
   128
 43
0.0
 10
-20.45215550309268
 20
30.83851188052055
 10
-20.48865863524464
 20
30.91230928309708
 10
-20.5495359835176
 20
31.04665097749788
 10
-20.5965183180477
 20
31.17177589341791
 10
-20.63558647048699
 20
31.32312667594197
  0
LWPOLYLINE
  5
1306
330
A
100
AcDbEntity
  8
0
  6
Continuous
 62
     7
100
AcDbPolyline
 90
       13
 70
   128
 43
0.0
 10
-19.8372849241492
 20
31.27237405389502
 10
-19.89600317390243
 20
31.20848833383916
 10
-19.95458258938607
 20
31.0985747430716
 10
-19.96848594589505
 20
30.99130917744125
 10
-19.9356032107358
 20
30.90645686348472
 10
-19.86286772240711
 20
30.86112615120597
 10
-19.76449132165777
 20
30.86368617512497
 10
-19.6584062668362
 20
30.91467873002935
 10
-19.56565181433967
 20
31.00510011261183
 10
-19.50380543409769
 20
31.11861777950603
 10
-19.48454395975628
 20
31.23608853942905
 10
-19.51252678444448
 20
31.33598675943801
 10
-19.53301381635384
 20
31.35471675565194
  0
LWPOLYLINE
  5
1315
330
A
100
AcDbEntity
  8
0
  6
Continuous
 62
     7
100
AcDbPolyline
 90
        8
 70
   128
 43
0.0
 10
-19.94268546401612
 20
30.92473227688785
 10
-19.87849890389149
 20
30.90621511589207
 10
-19.77434081369898
 20
30.93059827056479
 10
-19.6721515635712
 20
31.00010823685706
 10
-19.59073604483497
 20
31.10349672558399
 10
-19.54655203101596
 20
31.22152267526562
 10
-19.54800592077748
 20
31.33312685972749
 10
-19.5651752014201
 20
31.36415358419836
  0
LWPOLYLINE
  5
1328
330
A
100
AcDbEntity
  8
0
  6
Continuous
 62
     7
100
AcDbPolyline
 90
        6
 70
   128
 43
0.0
 10
-19.96559355764906
 20
31.01362419619437
 10
-19.90125872880351
 20
31.02516501700347
 10
-19.79768519699611
 20
31.08978605718283
 10
-19.71272210828375
 20
31.19014117005103
 10
-19.66355731830531
 20
31.30724478032719
 10
-19.66137064567864
 20
31.36580193098426
  0
LWPOLYLINE
  5
1330
330
A
100
AcDbEntity
  8
0
  6
Continuous
 62
     7
100
AcDbPolyline
 90
        5
 70
   128
 43
0.0
 10
-19.95678702106697
 20
31.08156736711946
 10
-19.91123050850329
 20
31.09868262225742
 10
-19.81384642961795
 20
31.18055890021649
 10
-19.74315563875392
 20
31.29033799422243
 10
-19.72948204075992
 20
31.34405544487482
  0
LINE
  5
136C
330
A
100
AcDbEntity
  8
0
  6
Continuous
 62
     7
100
AcDbLine
 10
-19.72082896803969
 20
17.4492818188662
 30
0.0
 11
-20.03401950887698
 21
17.7242788602817
 31
0.0
  0
LWPOLYLINE
  5
136D
330
A
100
AcDbEntity
  8
0
  6
Continuous
 62
     7
100
AcDbPolyline
 90
        5
 70
   128
 43
0.0
 10
-19.72082896803969
 20
17.4492818188662
 10
-19.83744000411339
 20
17.31073532764387
 10
-19.97591765542734
 20
17.18058885849184
 10
-20.10837232507337
 20
17.08293084609148
 10
-20.25232345693806
 20
16.99604137077237
  0
LINE
  5
1374
330
A
100
AcDbEntity
  8
0
  6
Continuous
 62
     7
100
AcDbLine
 10
-20.25232345693806
 20
16.99604137077236
 30
0.0
 11
-20.56551399777534
 21
17.27103841218786
 31
0.0
  0
LWPOLYLINE
  5
1375
330
A
100
AcDbEntity
  8
0
  6
Continuous
 62
     7
100
AcDbPolyline
 90
        5
 70
   128
 43
0.0
 10
-20.56551399777535
 20
17.27103841218786
 10
-20.44890296170165
 20
17.4095849034102
 10
-20.31042531038769
 20
17.53973137256223
 10
-20.17797064074166
 20
17.63738938496258
 10
-20.03401950887698
 20
17.72427886028171
  0
LWPOLYLINE
  5
137C
330
A
100
AcDbEntity
  8
0
  6
Continuous
 62
     7
100
AcDbPolyline
 90
        5
 70
   128
 43
0.0
 10
-19.26629785491973
 20
16.71496563988794
 10
-19.24849652030932
 20
16.78030580089764
 10
-19.22385650353833
 20
16.91556247022903
 10
-19.21444819352939
 20
17.06998064177901
 10
-19.22781616703053
 20
17.30874395342399
  0
LWPOLYLINE
  5
1383
330
A
100
AcDbEntity
  8
0
  6
Continuous
 62
     7
100
AcDbPolyline
 90
        5
 70
   128
 43
0.0
 10
-19.79779234381809
 20
16.2617251917941
 10
-19.63599504503553
 20
16.36059587248799
 10
-19.48358474082464
 20
16.47850877189208
 10
-19.36880361744336
 20
16.59168504650154
 10
-19.26629785491973
 20
16.71496563988794
  0
LWPOLYLINE
  5
138A
330
A
100
AcDbEntity
  8
0
  6
Continuous
 62
     7
100
AcDbPolyline
 90
        5
 70
   128
 43
0.0
 10
-20.29080514482725
 20
16.40226305723631
 10
-20.13908661719987
 20
16.34561676174483
 10
-19.99720686386867
 20
16.30104165490684
 10
-19.89137602202467
 20
16.27611372025744
 10
-19.79779234381809
 20
16.2617251917941
  0
LWPOLYLINE
  5
1391
330
A
100
AcDbEntity
  8
0
  6
Continuous
 62
     7
100
AcDbPolyline
 90
        5
 70
   128
 43
0.0
 10
-20.25232345693806
 20
16.99604137077237
 10
-20.23895548343691
 20
16.75727805912738
 10
-20.24791923760848
 20
16.60655050367164
 10
-20.27300381021685
 20
16.46760321824602
 10
-20.29080514482725
 20
16.40226305723631
  0
LWPOLYLINE
  5
1398
330
A
100
AcDbEntity
  8
0
  6
Continuous
 62
     7
100
AcDbPolyline
 90
        5
 70
   128
 43
0.0
 10
-19.22781616703053
 20
17.30874395342399
 10
-19.33434843194905
 20
17.32571443838702
 10
-19.46229553238331
 20
17.35805597547708
 10
-19.58579992049206
 20
17.39850217233559
 10
-19.72082896803969
 20
17.4492818188662
  0
LWPOLYLINE
  5
139F
330
A
100
AcDbEntity
  8
0
  6
Continuous
 62
     7
100
AcDbPolyline
 90
       39
 70
   128
 43
0.0
 10
-19.23304455393554
 20
16.96980798596397
 10
-19.23447206424813
 20
17.04826594816813
 10
-19.24914792549877
 20
17.12052820312261
 10
-19.27667181844966
 20
17.18462362488588
 10
-19.31629296305053
 20
17.23880385743654
 10
-19.36693059776127
 20
17.28159100526792
 10
-19.42720345990946
 20
17.31181794652496
 10
-19.49546746293531
 20
17.32866016904592
 10
-19.56986054278725
 20
17.33165826090484
 10
-19.64835345017519
 20
17.32073044197122
 10
-19.72880510320135
 20
17.2961747946589
 10
-19.80902099049297
 20
17.25866113301475
 10
-19.88681303175195
 20
17.20921273193762
 10
-19.96005926288145
 20
17.14917841490651
 10
-20.02676171763495
 20
17.08019576159226
 10
-20.08510092692709
 20
17.00414643895292
 10
-20.13348554920735
 20
16.92310487426431
 10
-20.17059577810921
 20
16.83928167015153
 10
-20.19541934332738
 20
16.75496330511201
 10
-20.20727912271293
 20
16.67244976434245
 10
-20.20585161240033
 20
16.59399180213829
 10
-20.19117575114969
 20
16.52172954718382
 10
-20.1636518581988
 20
16.45763412542054
 10
-20.12403071359793
 20
16.40345389286989
 10
-20.07339307888718
 20
16.3606667450385
 10
-20.013120216739
 20
16.33043980378146
 10
-19.94485621371315
 20
16.31359758126049
 10
-19.87046313386122
 20
16.31059948940159
 10
-19.79197022647326
 20
16.3215273083352
 10
-19.71151857344711
 20
16.34608295564752
 10
-19.63130268615549
 20
16.38359661729166
 10
-19.55351064489652
 20
16.43304501836881
 10
-19.48026441376701
 20
16.49307933539991
 10
-19.41356195901351
 20
16.56206198871417
 10
-19.35522274972138
 20
16.6381113113535
 10
-19.30683812744112
 20
16.71915287604211
 10
-19.26972789853925
 20
16.80297608015489
 10
-19.24490433332108
 20
16.88729444519441
 10
-19.23304455393554
 20
16.96980798596397
  0
LWPOLYLINE
  5
13C8
330
A
100
AcDbEntity
  8
0
  6
Continuous
 62
     7
100
AcDbPolyline
 90
       12
 70
   128
 43
0.0
 10
-19.54236984114345
 20
16.70534128063954
 10
-19.50465141463584
 20
16.76404946880342
 10
-19.47842289007223
 20
16.82580083590387
 10
-19.46508263682248
 20
16.88730311820374
 10
-19.46534188824191
 20
16.94527733188002
 10
-19.47918682238475
 20
16.99663259149423
 10
-19.50587929891888
 20
17.038630900029
 10
-19.54399621295324
 20
17.06903312473787
 10
-19.59150536763552
 20
17.08621837613065
 10
-19.64587382038502
 20
17.08927042542358
 10
-19.70420292629982
 20
17.07802655312261
 10
-19.7633828789215
 20
17.05308622438585
  0
LWPOLYLINE
  5
13D6
330
A
100
AcDbEntity
  8
0
  6
Continuous
 62
     7
100
AcDbPolyline
 90
        7
 70
   128
 43
0.0
 10
-19.76338287892134
 20
17.05308622438593
 10
-19.847322139117
 20
17.00177315590538
 10
-19.9198907672756
 20
16.92909775813437
 10
-19.9762305805779
 20
16.83885054199953
 10
-20.00704025735442
 20
16.74303555474199
 10
-20.00859829821376
 20
16.64837232184603
 10
-19.98976143524091
 20
16.58839009690408
  0
LWPOLYLINE
  5
13DF
330
A
100
AcDbEntity
  8
0
  6
Continuous
 62
     7
100
AcDbPolyline
 90
        7
 70
   128
 43
0.0
 10
-19.98976143524093
 20
16.58839009690408
 10
-19.92387735688202
 20
16.53864124655168
 10
-19.83631761901083
 20
16.52287922416771
 10
-19.74128816116364
 20
16.5426878207152
 10
-19.64764713856881
 20
16.59453130040364
 10
-19.56998958312529
 20
16.66820541069058
 10
-19.54236984114344
 20
16.70534128063954
  0
LINE
  5
13E8
330
A
100
AcDbEntity
  8
0
  6
Continuous
 62
     7
100
AcDbLine
 10
-20.29080514482725
 20
16.40226305723631
 30
0.0
 11
-20.60399568566454
 21
16.67726009865181
 31
0.0
  0
LWPOLYLINE
  5
13E9
330
A
100
AcDbEntity
  8
0
  6
Continuous
 62
     7
100
AcDbPolyline
 90
        5
 70
   128
 43
0.0
 10
-20.60399568566454
 20
16.67726009865181
 10
-20.61186697110993
 20
16.76514211083573
 10
-20.61726613776345
 20
16.92677469352068
 10
-20.60672385692708
 20
17.08019718167053
 10
-20.56551399777535
 20
17.27103841218786
  0
LINE
  5
13F0
330
A
100
AcDbEntity
  8
0
  6
Continuous
 62
     7
100
AcDbLine
 10
-19.22781616703053
 20
17.30874395342399
 30
0.0
 11
-19.54100670786782
 21
17.58374099483949
 31
0.0
  0
LWPOLYLINE
  5
13F1
330
A
100
AcDbEntity
  8
0
  6
Continuous
 62
     7
100
AcDbPolyline
 90
        5
 70
   128
 43
0.0
 10
-20.03401950887698
 20
17.72427886028171
 10
-19.92748724395847
 20
17.70730837531867
 10
-19.7995401435242
 20
17.67496683822861
 10
-19.67603575541545
 20
17.63452064137009
 10
-19.54100670786782
 20
17.58374099483949
  0
LWPOLYLINE
  5
13F8
330
A
100
AcDbEntity
  8
0
  6
Continuous
 62
     7
100
AcDbPolyline
 90
       14
 70
   128
 43
0.0
 10
-19.76338287892153
 20
17.05308622438584
 10
-19.83530481198691
 20
17.00793673509197
 10
-19.92521691759858
 20
16.9129492799916
 10
-19.97886334784825
 20
16.80227198579297
 10
-19.98714866419366
 20
16.69610742475461
 10
-19.9489998842056
 20
16.61567366897792
 10
-19.87248957966242
 20
16.57578575572906
 10
-19.77162076637147
 20
16.58440901277485
 10
-19.66634440799812
 20
16.64069864124388
 10
-19.57670518858841
 20
16.73449726939046
 10
-19.51921587357728
 20
16.85014399441212
 10
-19.50566325905798
 20
16.96660059433606
 10
-19.53894284010229
 20
17.06254904964439
 10
-19.54681952755638
 20
17.06879468448754
  0
LWPOLYLINE
  5
1408
330
A
100
AcDbEntity
  8
0
  6
Continuous
 62
     7
100
AcDbPolyline
 90
        8
 70
   128
 43
0.0
 10
-19.9600780330508
 20
16.63903109007897
 10
-19.88685146782461
 20
16.62346966080897
 10
-19.78201457983483
 20
16.65352631708543
 10
-19.68080445845922
 20
16.72835225081882
 10
-19.60342344571888
 20
16.83426972902631
 10
-19.56447016548968
 20
16.95226527223247
 10
-19.57166637924705
 20
17.06238886481421
 10
-19.58177638453503
 20
17.07801434205388
  0
LWPOLYLINE
  5
1412
330
A
100
AcDbEntity
  8
0
  6
Continuous
 62
     7
100
AcDbPolyline
 90
        7
 70
   128
 43
0.0
 10
-19.97889446785732
 20
16.67870408938038
 10
-19.8982451798832
 20
16.68088537962523
 10
-19.79262960591961
 20
16.73170673927834
 10
-19.7001072497176
 20
16.82175776089095
 10
-19.63788912428035
 20
16.93612504423258
 10
-19.61877644331075
 20
17.05333752931242
 10
-19.62884834343972
 20
17.08940118978064
  0
LWPOLYLINE
  5
141B
330
A
100
AcDbEntity
  8
0
  6
Continuous
 62
     7
100
AcDbPolyline
 90
        6
 70
   128
 43
0.0
 10
-19.9845152191985
 20
16.72985128199232
 10
-19.90880442740806
 20
16.74749528167597
 10
-19.80594648277598
 20
16.81760537507062
 10
-19.72497166302222
 20
16.92048258510005
 10
-19.6808100011181
 20
17.03814661765771
 10
-19.68136843499708
 20
17.07899948231741
  0
LWPOLYLINE
  5
1423
330
A
100
AcDbEntity
  8
0
  6
Continuous
 62
     7
100
AcDbPolyline
 90
        5
 70
   128
 43
0.0
 10
-19.97923117077225
 20
16.79755885745368
 10
-19.91911763938748
 20
16.82329365859514
 10
-19.82392182034274
 20
16.90942261183478
 10
-19.75720445612592
 20
17.02205100811397
 10
-19.74934786712004
 20
17.05962257976642
  0
LWPOLYLINE
  5
142A
330
A
100
AcDbEntity
  8
0
  6
Continuous
 62
     7
100
AcDbPolyline
 90
        4
 70
   128
 43
0.0
 10
-19.78762031744915
 20
17.0378710052632
 10
-19.81316879672911
 20
16.97713928980529
 10
-19.89755385756963
 20
16.877504895271
 10
-19.96190898104242
 20
16.83725033261282
  0
LINE
  5
1460
330
A
100
AcDbEntity
  8
0
  6
Continuous
 62
     7
100
AcDbLine
 10
-26.77984709592459
 20
15.9410028002586
 30
0.0
 11
-26.4666565550873
 21
15.6660057588431
 31
0.0
  0
LWPOLYLINE
  5
1461
330
A
100
AcDbEntity
  8
0
  6
Continuous
 62
     7
100
AcDbPolyline
 90
        5
 70
   128
 43
0.0
 10
-26.7798470959246
 20
15.9410028002586
 10
-26.65791565729869
 20
16.0697196876212
 10
-26.51387911701763
 20
16.18959594208352
 10
-26.37669975425168
 20
16.27852494173122
 10
-26.22803881407401
 20
16.35671290442651
  0
LINE
  5
1468
330
A
100
AcDbEntity
  8
0
  6
Continuous
 62
     7
100
AcDbLine
 10
-26.22803881407401
 20
16.35671290442651
 30
0.0
 11
-25.91484827323672
 21
16.08171586301101
 31
0.0
  0
LWPOLYLINE
  5
1469
330
A
100
AcDbEntity
  8
0
  6
Continuous
 62
     7
100
AcDbPolyline
 90
        5
 70
   128
 43
0.0
 10
-25.91484827323672
 20
16.081715863011
 10
-26.03677971186262
 20
15.95299897564839
 10
-26.18081625214368
 20
15.83312272118607
 10
-26.31799561490963
 20
15.74419372153836
 10
-26.4666565550873
 20
15.6660057588431
  0
LWPOLYLINE
  5
1470
330
A
100
AcDbEntity
  8
0
  6
Continuous
 62
     7
100
AcDbPolyline
 90
        5
 70
   128
 43
0.0
 10
-25.45147375583465
 20
15.89049188471619
 10
-25.55024343303175
 20
15.92073761201418
 10
-25.67007998866845
 20
15.96694945260611
 10
-25.78669094259808
 20
16.01918450294131
 10
-25.91484827323672
 20
16.081715863011
  0
LWPOLYLINE
  5
1477
330
A
100
AcDbEntity
  8
0
  6
Continuous
 62
     7
100
AcDbPolyline
 90
        5
 70
   128
 43
0.0
 10
-25.53990752028318
 20
15.28355780225346
 10
-25.51566121660647
 20
15.35059536064113
 10
-25.47853317668922
 20
15.48914097325936
 10
-25.45617619555939
 20
15.64696940794368
 10
-25.45147375583465
 20
15.89049188471619
  0
LWPOLYLINE
  5
147E
330
A
100
AcDbEntity
  8
0
  6
Continuous
 62
     7
100
AcDbPolyline
 90
        5
 70
   128
 43
0.0
 10
-26.09171580213376
 20
14.86784769808555
 10
-25.92459810079898
 20
14.95688877491972
 10
-25.76662890762098
 20
15.0645314596341
 10
-25.6471230911198
 20
15.16897872149091
 10
-25.53990752028318
 20
15.28355780225346
  0
LWPOLYLINE
  5
1485
330
A
100
AcDbEntity
  8
0
  6
Continuous
 62
     7
100
AcDbPolyline
 90
        5
 70
   128
 43
0.0
 10
-26.55509031953583
 20
15.05907167638037
 10
-26.41113437962986
 20
14.98915013855392
 10
-26.27736517109621
 20
14.93070472821406
 10
-26.17842776343135
 20
14.89398794008797
 10
-26.09171580213376
 20
14.86784769808555
  0
LWPOLYLINE
  5
148C
330
A
100
AcDbEntity
  8
0
  6
Continuous
 62
     7
100
AcDbPolyline
 90
        5
 70
   128
 43
0.0
 10
-26.4666565550873
 20
15.6660057588431
 10
-26.47135899481205
 20
15.42248328207057
 10
-26.49294659057291
 20
15.26843101312232
 10
-26.53084401585913
 20
15.12610923476804
 10
-26.55509031953583
 20
15.05907167638037
  0
LWPOLYLINE
  5
1493
330
A
100
AcDbEntity
  8
0
  6
Continuous
 62
     7
100
AcDbPolyline
 90
       39
 70
   128
 43
0.0
 10
-26.44681703619545
 20
15.33367187079307
 10
-26.42824679518272
 20
15.417396596936
 10
-26.397016745695
 20
15.50174899099262
 10
-26.35397876207166
 20
15.58442813954332
 10
-26.30030680831427
 20
15.66317877094412
 10
-26.23746491540902
 20
15.73585277325795
 10
-26.16716724637775
 20
15.8004677891487
 10
-26.0913313383793
 20
15.85526128942165
 10
-26.01202579729441
 20
15.89873865022532
 10
-25.93141387154976
 20
15.92971392249404
 10
-25.85169444434005
 20
15.94734218154679
 10
-25.77504205382653
 20
15.95114257443008
 10
-25.70354757740454
 20
15.94101143633293
 10
-25.63916119801869
 20
15.91722511829273
 10
-25.58363920825584
 20
15.88043244905931
 10
-25.53849610326171
 20
15.83163703673802
 10
-25.50496326926124
 20
15.77216989297685
 10
-25.4839553945524
 20
15.70365312643832
 10
-25.47604551919379
 20
15.62795569590373
 10
-25.48144940396571
 20
15.54714242994959
 10
-25.50001964497843
 20
15.46341770380666
 10
-25.53124969446615
 20
15.37906530975005
 10
-25.5742876780895
 20
15.29638616119935
 10
-25.62795963184689
 20
15.21763552979855
 10
-25.69080152475214
 20
15.14496152748471
 10
-25.76109919378341
 20
15.08034651159396
 10
-25.83693510178186
 20
15.02555301132102
 10
-25.91624064286675
 20
14.98207565051734
 10
-25.9968525686114
 20
14.95110037824864
 10
-26.0765719958211
 20
14.93347211919588
 10
-26.15322438633462
 20
14.9296717263126
 10
-26.22471886275661
 20
14.93980286440974
 10
-26.28910524214247
 20
14.96358918244994
 10
-26.34462723190532
 20
15.00038185168336
 10
-26.38977033689945
 20
15.04917726400465
 10
-26.42330317089991
 20
15.10864440776583
 10
-26.44431104560875
 20
15.17716117430435
 10
-26.45222092096736
 20
15.25285860483893
 10
-26.44681703619545
 20
15.33367187079307
  0
LWPOLYLINE
  5
14BC
330
A
100
AcDbEntity
  8
0
  6
Continuous
 62
     7
100
AcDbPolyline
 90
       12
 70
   128
 43
0.0
 10
-26.00242616336293
 20
15.17759698345368
 10
-26.05964369383304
 20
15.17173169217312
 10
-26.11176381418186
 20
15.18020565549103
 10
-26.15600486478037
 20
15.20256661655345
 10
-26.19000569328328
 20
15.2376211670904
 10
-26.21195166972876
 20
15.28349843981707
 10
-26.22067153364599
 20
15.33774995693676
 10
-26.21569990442442
 20
15.39748030581464
 10
-26.19730211875561
 20
15.45950166763929
 10
-26.16646006956911
 20
15.52050395185121
 10
-26.12481980224099
 20
15.57723145623526
 10
-26.07460366487394
 20
15.62665662429803
  0
LWPOLYLINE
  5
14CA
330
A
100
AcDbEntity
  8
0
  6
Continuous
 62
     7
100
AcDbPolyline
 90
        7
 70
   128
 43
0.0
 10
-25.66545158328525
 20
15.59410992476951
 10
-25.67520915192371
 20
15.49426922325904
 10
-25.71697746509868
 20
15.39122249526937
 10
-25.78616564438026
 20
15.29787432091205
 10
-25.87084576766941
 20
15.22767509508232
 10
-25.96225928537476
 20
15.185928083821
 10
-26.00242616336293
 20
15.17759698345368
  0
LWPOLYLINE
  5
14D3
330
A
100
AcDbEntity
  8
0
  6
Continuous
 62
     7
100
AcDbPolyline
 90
        7
 70
   128
 43
0.0
 10
-26.074603664874
 20
15.62665662429798
 10
-25.99241263078658
 20
15.68805734909647
 10
-25.90436767898782
 20
15.72325865652612
 10
-25.81910428843376
 20
15.72937072311571
 10
-25.74342979068673
 20
15.703959823206
 10
-25.68841091821331
 20
15.64889361002375
 10
-25.66545158328525
 20
15.5941099247695
  0
LINE
  5
14DC
330
A
100
AcDbEntity
  8
0
  6
Continuous
 62
     7
100
AcDbLine
 10
-26.86828086037311
 20
15.33406871779587
 30
0.0
 11
-26.55509031953583
 21
15.05907167638037
 31
0.0
  0
LWPOLYLINE
  5
14DD
330
A
100
AcDbEntity
  8
0
  6
Continuous
 62
     7
100
AcDbPolyline
 90
        5
 70
   128
 43
0.0
 10
-26.86828086037311
 20
15.33406871779586
 10
-26.86970717675219
 20
15.42364812735775
 10
-26.86261832025947
 20
15.58856965332951
 10
-26.83912736830221
 20
15.74540240461371
 10
-26.7798470959246
 20
15.9410028002586
  0
LWPOLYLINE
  5
14E4
330
A
100
AcDbEntity
  8
0
  6
Continuous
 62
     7
100
AcDbPolyline
 90
        5
 70
   128
 43
0.0
 10
-26.22803881407401
 20
16.35671290442651
 10
-26.12926913687691
 20
16.32646717712853
 10
-26.0094325812402
 20
16.28025533653659
 10
-25.89282162731057
 20
16.22802028620138
 10
-25.76466429667194
 20
16.1654889261317
  0
LINE
  5
14EB
330
A
100
AcDbEntity
  8
0
  6
Continuous
 62
     7
100
AcDbLine
 10
-25.76466429667194
 20
16.1654889261317
 30
0.0
 11
-25.45147375583465
 21
15.89049188471619
 31
0.0
  0
LWPOLYLINE
  5
14EC
330
A
100
AcDbEntity
  8
0
  6
Continuous
 62
     7
100
AcDbPolyline
 90
        8
 70
   128
 43
0.0
 10
-26.00242616336293
 20
15.17759698345368
 10
-25.89649245352298
 20
15.22875661046419
 10
-25.80411481596291
 20
15.3189112933878
 10
-25.74218287098103
 20
15.432899086695
 10
-25.72315655713085
 20
15.55053413165203
 10
-25.75112882138712
 20
15.64979103892133
 10
-25.82167051050071
 20
15.71411016685221
 10
-25.88218516867265
 20
15.72484879948537
  0
LWPOLYLINE
  5
14F6
330
A
100
AcDbEntity
  8
0
  6
Continuous
 62
     7
100
AcDbPolyline
 90
        8
 70
   128
 43
0.0
 10
-26.18522505391592
 20
15.23946994862834
 10
-26.11673949116415
 20
15.21993644291778
 10
-26.01275942695985
 20
15.24436276735093
 10
-25.91012745990261
 20
15.31442461863864
 10
-25.82901600021815
 20
15.4177389140309
 10
-25.7850726038986
 20
15.53534731033083
 10
-25.78670235747117
 20
15.64735740629241
 10
-25.82415486943526
 20
15.71455102892982
  0
LWPOLYLINE
  5
1500
330
A
100
AcDbEntity
  8
0
  6
Continuous
 62
     7
100
AcDbPolyline
 90
        7
 70
   128
 43
0.0
 10
-26.20589413109261
 20
15.27727156006906
 10
-26.1288968730312
 20
15.27477412214725
 10
-26.02294881481485
 20
15.32033863805374
 10
-25.92797229743095
 20
15.40647789958209
 10
-25.86145709672676
 20
15.51894114199592
 10
-25.83694165602759
 20
15.63704863352984
 10
-25.85507255932387
 20
15.72003752961592
  0
LINE
  5
156E
330
A
100
AcDbEntity
  8
0
  6
Continuous
 62
     7
100
AcDbLine
 10
-25.89807952027681
 20
30.36779733150374
 30
0.0
 11
-26.2112700611141
 21
30.64279437291923
 31
0.0
  0
LWPOLYLINE
  5
156F
330
A
100
AcDbEntity
  8
0
  6
Continuous
 62
     7
100
AcDbPolyline
 90
        5
 70
   128
 43
0.0
 10
-25.89807952027681
 20
30.36779733150374
 10
-26.02001095890272
 20
30.23908044414113
 10
-26.16404749918378
 20
30.11920418967881
 10
-26.30122686194972
 20
30.03027519003109
 10
-26.4498878021274
 20
29.95208722733583
  0
LINE
  5
1576
330
A
100
AcDbEntity
  8
0
  6
Continuous
 62
     7
100
AcDbLine
 10
-26.4498878021274
 20
29.95208722733583
 30
0.0
 11
-26.76307834296469
 21
30.22708426875132
 31
0.0
  0
LWPOLYLINE
  5
1577
330
A
100
AcDbEntity
  8
0
  6
Continuous
 62
     7
100
AcDbPolyline
 90
        5
 70
   128
 43
0.0
 10
-26.76307834296469
 20
30.22708426875132
 10
-26.64114690433879
 20
30.35580115611393
 10
-26.49711036405772
 20
30.47567741057627
 10
-26.35993100129178
 20
30.56460641022397
 10
-26.2112700611141
 20
30.64279437291923
  0
LWPOLYLINE
  5
157E
330
A
100
AcDbEntity
  8
0
  6
Continuous
 62
     7
100
AcDbPolyline
 90
        5
 70
   128
 43
0.0
 10
-25.52313876732327
 20
29.5696392707462
 10
-25.49889246364656
 20
29.63667682913386
 10
-25.46176442372933
 20
29.77522244175209
 10
-25.43940744259949
 20
29.93305087643643
 10
-25.43470500287475
 20
30.17657335320893
  0
LWPOLYLINE
  5
1585
330
A
100
AcDbEntity
  8
0
  6
Continuous
 62
     7
100
AcDbPolyline
 90
        5
 70
   128
 43
0.0
 10
-26.07494704917385
 20
29.15392916657827
 10
-25.90782934783908
 20
29.24297024341245
 10
-25.74986015466108
 20
29.35061292812683
 10
-25.63035433815989
 20
29.45506018998365
 10
-25.52313876732327
 20
29.5696392707462
  0
LWPOLYLINE
  5
158C
330
A
100
AcDbEntity
  8
0
  6
Continuous
 62
     7
100
AcDbPolyline
 90
        5
 70
   128
 43
0.0
 10
-26.53832156657592
 20
29.34515314487309
 10
-26.39436562666996
 20
29.27523160704666
 10
-26.26059641813631
 20
29.21678619670679
 10
-26.16165901047144
 20
29.1800694085807
 10
-26.07494704917385
 20
29.15392916657827
  0
LWPOLYLINE
  5
1593
330
A
100
AcDbEntity
  8
0
  6
Continuous
 62
     7
100
AcDbPolyline
 90
        5
 70
   128
 43
0.0
 10
-26.4498878021274
 20
29.95208722733583
 10
-26.45459024185214
 20
29.70856475056331
 10
-26.476177837613
 20
29.55451248161504
 10
-26.51407526289922
 20
29.41219070326076
 10
-26.53832156657592
 20
29.34515314487309
  0
LWPOLYLINE
  5
159A
330
A
100
AcDbEntity
  8
0
  6
Continuous
 62
     7
100
AcDbPolyline
 90
        5
 70
   128
 43
0.0
 10
-25.43470500287475
 20
30.17657335320893
 10
-25.53347468007184
 20
30.20681908050691
 10
-25.65331123570855
 20
30.25303092109884
 10
-25.76992218963818
 20
30.30526597143405
 10
-25.89807952027681
 20
30.36779733150374
  0
LWPOLYLINE
  5
15A1
330
A
100
AcDbEntity
  8
0
  6
Continuous
 62
     7
100
AcDbPolyline
 90
       39
 70
   128
 43
0.0
 10
-25.4646806510058
 20
29.83322389844234
 10
-25.4592767662339
 20
29.91403716439648
 10
-25.4671866415925
 20
29.98973459493106
 10
-25.48819451630134
 20
30.05825136146959
 10
-25.5217273503018
 20
30.11771850523076
 10
-25.56687045529594
 20
30.16651391755204
 10
-25.62239244505878
 20
30.20330658678547
 10
-25.68677882444464
 20
30.22709290482567
 10
-25.75827330086663
 20
30.23722404292281
 10
-25.83492569138015
 20
30.23342365003952
 10
-25.91464511858986
 20
30.21579539098676
 10
-25.99525704433451
 20
30.18482011871805
 10
-26.0745625854194
 20
30.14134275791438
 10
-26.15039849341785
 20
30.08654925764144
 10
-26.22069616244911
 20
30.02193424175068
 10
-26.28353805535437
 20
29.94926023943686
 10
-26.33721000911175
 20
29.87050960803605
 10
-26.3802479927351
 20
29.78783045948535
 10
-26.41147804222282
 20
29.70347806542874
 10
-26.43004828323554
 20
29.61975333928581
 10
-26.43545216800745
 20
29.53894007333167
 10
-26.42754229264885
 20
29.46324264279708
 10
-26.40653441794001
 20
29.39472587625855
 10
-26.37300158393954
 20
29.33525873249739
 10
-26.32785847894541
 20
29.2864633201761
 10
-26.27233648918256
 20
29.24967065094268
 10
-26.2079501097967
 20
29.22588433290247
 10
-26.13645563337471
 20
29.21575319480533
 10
-26.05980324286119
 20
29.21955358768862
 10
-25.98008381565148
 20
29.23718184674138
 10
-25.89947188990683
 20
29.26815711901009
 10
-25.82016634882195
 20
29.31163447981376
 10
-25.7443304408235
 20
29.36642798008671
 10
-25.67403277179224
 20
29.43104299597746
 10
-25.61119087888697
 20
29.5037169982913
 10
-25.55751892512959
 20
29.58246762969209
 10
-25.51448094150625
 20
29.6651467782428
 10
-25.48325089201853
 20
29.74949917229941
 10
-25.4646806510058
 20
29.83322389844234
  0
LWPOLYLINE
  5
15CA
330
A
100
AcDbEntity
  8
0
  6
Continuous
 62
     7
100
AcDbPolyline
 90
       12
 70
   128
 43
0.0
 10
-25.78588756078613
 20
29.59058016342738
 10
-25.7444335293599
 20
29.64737601568947
 10
-25.713798726704
 20
29.70838974306616
 10
-25.69561644216271
 20
29.77036840895792
 10
-25.69085606117417
 20
29.83000763123078
 10
-25.6997713826491
 20
29.88412775479334
 10
-25.72188708772451
 20
29.92984337437247
 10
-25.75602408130891
 20
29.96471716940943
 10
-25.80036235533848
 20
29.98688984939506
 10
-25.85253802220052
 20
29.99517928163012
 10
-25.90976934500338
 20
29.98914351643105
 10
-25.9690050454104
 20
29.96910434960294
  0
LWPOLYLINE
  5
15D8
330
A
100
AcDbEntity
  8
0
  6
Continuous
 62
     7
100
AcDbPolyline
 90
        7
 70
   128
 43
0.0
 10
-25.96900504541023
 20
29.96910434960301
 10
-26.0544008542254
 20
29.92429196350169
 10
-26.13067570900836
 20
29.85643549068604
 10
-26.19281620124362
 20
29.76897242085726
 10
-26.23081357102791
 20
29.67336523578993
 10
-26.24049762262231
 20
29.57617101216307
 10
-26.22751307507348
 20
29.51270686394214
  0
LWPOLYLINE
  5
15E1
330
A
100
AcDbEntity
  8
0
  6
Continuous
 62
     7
100
AcDbPolyline
 90
        7
 70
   128
 43
0.0
 10
-26.22751307507349
 20
29.51270686394214
 10
-26.16826614228464
 20
29.4553082683983
 10
-26.0851752909921
 20
29.43080458322865
 10
-25.99180554951197
 20
29.44217032565069
 10
-25.89700635934163
 20
29.48660895900608
 10
-25.81573682025967
 20
29.55501026461128
 10
-25.78588756078612
 20
29.5905801634274
  0
LINE
  5
15EA
330
A
100
AcDbEntity
  8
0
  6
Continuous
 62
     7
100
AcDbLine
 10
-26.53832156657592
 20
29.34515314487309
 30
0.0
 11
-26.85151210741321
 21
29.62015018628859
 31
0.0
  0
LWPOLYLINE
  5
15EB
330
A
100
AcDbEntity
  8
0
  6
Continuous
 62
     7
100
AcDbPolyline
 90
        5
 70
   128
 43
0.0
 10
-26.85151210741321
 20
29.62015018628859
 10
-26.85293842379229
 20
29.70972959585047
 10
-26.84584956729957
 20
29.87465112182226
 10
-26.82235861534231
 20
30.03148387310644
 10
-26.76307834296469
 20
30.22708426875132
  0
LINE
  5
15F2
330
A
100
AcDbEntity
  8
0
  6
Continuous
 62
     7
100
AcDbLine
 10
-25.43470500287475
 20
30.17657335320893
 30
0.0
 11
-25.74789554371203
 21
30.45157039462443
 31
0.0
  0
LWPOLYLINE
  5
15F3
330
A
100
AcDbEntity
  8
0
  6
Continuous
 62
     7
100
AcDbPolyline
 90
        5
 70
   128
 43
0.0
 10
-26.2112700611141
 20
30.64279437291923
 10
-26.11250038391701
 20
30.61254864562125
 10
-25.9926638282803
 20
30.56633680502932
 10
-25.87605287435067
 20
30.51410175469412
 10
-25.74789554371203
 20
30.45157039462444
  0
LWPOLYLINE
  5
15FA
330
A
100
AcDbEntity
  8
0
  6
Continuous
 62
     7
100
AcDbPolyline
 90
       14
 70
   128
 43
0.0
 10
-25.96900504541042
 20
29.96910434960293
 10
-26.04256803921358
 20
29.92917909907511
 10
-26.13793254194667
 20
29.83955721207229
 10
-26.19967367060298
 20
29.73036605705387
 10
-26.21728179192662
 20
29.62150835329934
 10
-26.18787268349754
 20
29.53471758511589
 10
-26.11795625177743
 20
29.48598836526065
 10
-26.02036139344204
 20
29.48482615618884
 10
-25.91439192588887
 20
29.53226566390846
 10
-25.82025810568902
 20
29.61976236103876
 10
-25.75525205465653
 20
29.73276406322174
 10
-25.73255425715971
 20
29.85076077603073
 10
-25.75679227618075
 20
29.95211376524565
 10
-25.77611523119176
 20
29.97148058110209
  0
LWPOLYLINE
  5
160A
330
A
100
AcDbEntity
  8
0
  6
Continuous
 62
     7
100
AcDbPolyline
 90
        8
 70
   128
 43
0.0
 10
-26.19276692528669
 20
29.54916123972652
 10
-26.13423113693302
 20
29.52935545039507
 10
-26.0309483051428
 20
29.54986609043486
 10
-25.92730294022397
 20
29.61674720897999
 10
-25.84394961532753
 20
29.71786212301686
 10
-25.7966121960593
 20
29.83504250101443
 10
-25.79447438264325
 20
29.94849280978888
 10
-25.81321297047588
 20
29.98589657077124
  0
LWPOLYLINE
  5
1614
330
A
100
AcDbEntity
  8
0
  6
Continuous
 62
     7
100
AcDbPolyline
 90
        7
 70
   128
 43
0.0
 10
-26.20553013453106
 20
29.58682741847099
 10
-26.14679995657034
 20
29.58245079285127
 10
-26.04097347629224
 20
29.62423777089497
 10
-25.94438336170797
 20
29.70760695341117
 10
-25.87492941476146
 20
29.81884224218524
 10
-25.84680051232405
 20
29.93709265666689
 10
-25.85649350680219
 20
29.99143861990287
  0
LWPOLYLINE
  5
161D
330
A
100
AcDbEntity
  8
0
  6
Continuous
 62
     7
100
AcDbPolyline
 90
        6
 70
   128
 43
0.0
 10
-26.21481505418357
 20
29.63675832810003
 10
-26.15776194842219
 20
29.64492932340835
 10
-26.05293584615493
 20
29.70680391131179
 10
-25.96637665456018
 20
29.80445453855725
 10
-25.91404506929729
 20
29.92079974215073
 10
-25.90966854222618
 20
29.98553881287524
  0
LWPOLYLINE
  5
1625
330
A
100
AcDbEntity
  8
0
  6
Continuous
 62
     7
100
AcDbPolyline
 90
        5
 70
   128
 43
0.0
 10
-26.20386442710546
 20
29.70445777748959
 10
-26.16770050947109
 20
29.71682443582251
 10
-26.06887222937809
 20
29.79590569379574
 10
-25.99522978119779
 20
29.904925741287
 10
-25.97851973855433
 20
29.96394038756405
  0
LWPOLYLINE
  5
165B
330
A
100
AcDbEntity
  8
0
  6
Continuous
 62
     7
100
AcDbPolyline
 90
        9
 70
   128
 43
0.0
 10
-21.26020402175293
 20
10.71320442854064
 10
-21.2541707181721
 20
10.78955102665848
 10
-21.25739607369819
 20
10.87088965438743
 10
-21.26975613972714
 20
10.9540945138791
 10
-21.29077592585304
 20
11.03596808904502
 10
-21.31964765348312
 20
11.11336402430683
 10
-21.35526179831602
 20
11.18330803727653
 10
-21.39624972873843
 20
11.24311221876077
 10
-21.44103630157051
 20
11.29047832760367
  0
LWPOLYLINE
  5
1666
330
A
100
AcDbEntity
  8
0
  6
Continuous
 62
     7
100
AcDbPolyline
 90
        9
 70
   128
 43
0.0
 10
-20.10338367196701
 20
11.58627181110706
 10
-20.05859709913492
 20
11.53890570226416
 10
-20.0176091687125
 20
11.47910152077993
 10
-19.98199502387962
 20
11.40915750781021
 10
-19.95312329624954
 20
11.33176157254841
 10
-19.93210351012363
 20
11.24988799738249
 10
-19.91974344409469
 20
11.16668313789083
 10
-19.9165180885686
 20
11.08534451016187
 10
-19.92255139214942
 20
11.00899791204403
  0
LWPOLYLINE
  5
1671
330
A
100
AcDbEntity
  8
0
  6
Continuous
 62
     7
100
AcDbPolyline
 90
        9
 70
   128
 43
0.0
 10
-23.5128152342198
 20
12.83060835147014
 10
-23.52843659834128
 20
12.84164427920413
 10
-23.54415014871091
 20
12.84750332721066
 10
-23.55935202240026
 20
12.84796033556065
 10
-23.57345801992873
 20
12.8429977416795
 10
-23.58592605572207
 20
12.832806255267
 10
-23.59627699015688
 20
12.81777752943053
 10
-23.60411304262769
 20
12.7984891096758
 10
-23.60913307803258
 20
12.77568223915688
  0
LINE
  5
167C
330
A
100
AcDbEntity
  8
0
  6
Continuous
 62
     7
100
AcDbLine
 10
-23.78933516406719
 20
11.53892851248554
 30
0.0
 11
-23.60913307803258
 21
12.77568223915689
 31
0.0
  0
LWPOLYLINE
  5
167D
330
A
100
AcDbEntity
  8
0
  6
Continuous
 62
     7
100
AcDbPolyline
 90
        9
 70
   128
 43
0.0
 10
-23.78933516406719
 20
11.53892851248554
 10
-23.79134626526079
 20
11.51347964644625
 10
-23.7902711467521
 20
11.4863667705366
 10
-23.78615112474245
 20
11.45863181737272
 10
-23.77914452936715
 20
11.43134062565074
 10
-23.76952062015712
 20
11.40554198056348
 10
-23.75764923854616
 20
11.38222730957357
 10
-23.74398659507202
 20
11.36229258241216
 10
-23.72905773746133
 20
11.34650387946453
  0
LINE
  5
1688
330
A
100
AcDbEntity
  8
0
  6
Continuous
 62
     7
100
AcDbLine
 10
-21.69331922201896
 20
9.559023110263781
 30
0.0
 11
-23.72905773746133
 21
11.34650387946452
 31
0.0
  0
LWPOLYLINE
  5
1689
330
A
100
AcDbEntity
  8
0
  6
Continuous
 62
     7
100
AcDbPolyline
 90
        9
 70
   128
 43
0.0
 10
-21.69331922201896
 20
9.55902311026378
 10
-21.67769785789748
 20
9.547987182529794
 10
-21.66198430752785
 20
9.542128134523252
 10
-21.6467824338385
 20
9.54167112617327
 10
-21.63267643631002
 20
9.546633720054423
 10
-21.62020840051669
 20
9.556825206466925
 10
-21.60985746608188
 20
9.57185393230339
 10
-21.60202141361106
 20
9.591142352058128
 10
-21.59700137820618
 20
9.613949222577048
  0
LINE
  5
1694
330
A
100
AcDbEntity
  8
0
  6
Continuous
 62
     7
100
AcDbLine
 10
-21.59700137820618
 20
9.613949222577044
 30
0.0
 11
-21.41679929217158
 21
10.85070294924839
 31
0.0
  0
LWPOLYLINE
  5
1695
330
A
100
AcDbEntity
  8
0
  6
Continuous
 62
     7
100
AcDbPolyline
 90
        9
 70
   128
 43
0.0
 10
-21.41679929217158
 20
10.85070294924839
 10
-21.41478819097796
 20
10.87615181528767
 10
-21.41586330948666
 20
10.90326469119732
 10
-21.41998333149631
 20
10.9309996443612
 10
-21.42698992687161
 20
10.95829083608318
 10
-21.43661383608164
 20
10.98408948117046
 10
-21.4484852176926
 20
11.00740415216035
 10
-21.46214786116674
 20
11.02733887932177
 10
-21.47707671877744
 20
11.0431275822694
  0
LINE
  5
16A0
330
A
100
AcDbEntity
  8
0
  6
Continuous
 62
     7
100
AcDbLine
 10
-21.47707671877743
 20
11.0431275822694
 30
0.0
 11
-23.5128152342198
 21
12.83060835147014
 31
0.0
  0
LINE
  5
16A1
330
A
100
AcDbEntity
  8
0
  6
Continuous
 62
     7
100
AcDbLine
 10
-21.44040610778754
 20
9.476450701869294
 30
0.0
 11
-21.26020402175293
 21
10.71320442854064
 31
0.0
  0
LWPOLYLINE
  5
16A2
330
A
100
AcDbEntity
  8
0
  6
Continuous
 62
     7
100
AcDbPolyline
 90
        9
 70
   128
 43
0.0
 10
-21.72935963922588
 20
9.311672364929513
 10
-21.68249554686145
 20
9.278564581727557
 10
-21.63535489575254
 20
9.260987437707953
 10
-21.58974927468451
 20
9.25961641265799
 10
-21.54743128209907
 20
9.274504194301449
 10
-21.51002717471906
 20
9.305078653538942
 10
-21.47897437141464
 20
9.350164831048338
 10
-21.45546621400219
 20
9.408030090312557
 10
-21.44040610778754
 20
9.476450701869296
  0
LINE
  5
16AD
330
A
100
AcDbEntity
  8
0
  6
Continuous
 62
     7
100
AcDbLine
 10
-21.72935963922588
 20
9.311672364929512
 30
0.0
 11
-23.76509815466825
 21
11.09915313413025
 31
0.0
  0
LWPOLYLINE
  5
16AE
330
A
100
AcDbEntity
  8
0
  6
Continuous
 62
     7
100
AcDbPolyline
 90
        9
 70
   128
 43
0.0
 10
-23.94593043448583
 20
11.67642703319327
 10
-23.95196373806665
 20
11.60008043507544
 10
-23.94873838254057
 20
11.51874180734649
 10
-23.93637831651163
 20
11.43553694785483
 10
-23.91535853038572
 20
11.3536633726889
 10
-23.88648680275563
 20
11.27626743742709
 10
-23.85087265792274
 20
11.20632342445739
 10
-23.80988472750033
 20
11.14651924297315
 10
-23.76509815466825
 20
11.09915313413025
  0
LINE
  5
16B9
330
A
100
AcDbEntity
  8
0
  6
Continuous
 62
     7
100
AcDbLine
 10
-23.94593043448583
 20
11.67642703319328
 30
0.0
 11
-23.76572834845122
 21
12.91318075986463
 31
0.0
  0
LWPOLYLINE
  5
16BA
330
A
100
AcDbEntity
  8
0
  6
Continuous
 62
     7
100
AcDbPolyline
 90
        9
 70
   128
 43
0.0
 10
-23.47677481701288
 20
13.07795909680442
 10
-23.52363890937731
 20
13.11106688000636
 10
-23.57077956048621
 20
13.12864402402597
 10
-23.61638518155425
 20
13.13001504907594
 10
-23.65870317413969
 20
13.11512726743248
 10
-23.6961072815197
 20
13.08455280819498
 10
-23.72716008482412
 20
13.03946663068558
 10
-23.75066824223656
 20
12.98160137142137
 10
-23.76572834845122
 20
12.91318075986463
  0
LINE
  5
16C5
330
A
100
AcDbEntity
  8
0
  6
Continuous
 62
     7
100
AcDbLine
 10
-21.44103630157051
 20
11.29047832760367
 30
0.0
 11
-23.47677481701287
 21
13.07795909680441
 31
0.0
  0
LINE
  5
16C6
330
A
100
AcDbEntity
  8
0
  6
Continuous
 62
     7
100
AcDbLine
 10
-19.92255139214942
 20
11.00899791204403
 30
0.0
 11
-19.96534938758264
 21
10.71526890195958
 31
0.0
  0
LINE
  5
16C7
330
A
100
AcDbEntity
  8
0
  6
Continuous
 62
     7
100
AcDbLine
 10
-19.96534938758264
 20
10.71526890195958
 30
0.0
 11
-20.12538997005306
 21
10.67987932446899
 31
0.0
  0
LWPOLYLINE
  5
16C8
330
A
100
AcDbEntity
  8
0
  6
Continuous
 62
     7
100
AcDbPolyline
 90
       16
 70
   128
 43
0.0
 10
-20.12538997005306
 20
10.679879324469
 10
-20.19160653481062
 20
10.65837117981319
 10
-20.25699648811057
 20
10.62361437526607
 10
-20.3187019752179
 20
10.57712794996797
 10
-20.37402617025023
 20
10.52094358377105
 10
-20.42055114040973
 20
10.45751680308061
 10
-20.45624352124882
 20
10.38961966256828
 10
-20.47954338445381
 20
10.32021959308109
 10
-20.4894324141975
 20
10.25234971067411
 10
-20.48547841242724
 20
10.18897625488434
 10
-20.46785418799381
 20
10.13286894982938
 10
-20.43733000407536
 20
10.08647995397285
 10
-20.3952399139804
 20
10.05183668903279
 10
-20.34342345661675
 20
10.0304532319239
 10
-20.28414525981416
 20
10.02326414233106
 10
-20.21999606522124
 20
10.03058361796654
  0
LINE
  5
16DA
330
A
100
AcDbEntity
  8
0
  6
Continuous
 62
     7
100
AcDbLine
 10
-20.21999606522124
 20
10.03058361796654
 30
0.0
 11
-20.05995548275082
 21
10.06597319545712
 31
0.0
  0
LINE
  5
16DB
330
A
100
AcDbEntity
  8
0
  6
Continuous
 62
     7
100
AcDbLine
 10
-20.05995548275082
 20
10.06597319545712
 30
0.0
 11
-20.10275347818403
 21
9.772244185372677
 31
0.0
  0
LINE
  5
16DC
330
A
100
AcDbEntity
  8
0
  6
Continuous
 62
     7
100
AcDbLine
 10
-14.74922371868763
 20
13.11177867121462
 30
0.0
 11
-14.32042919852829
 21
13.01996304954473
 31
0.0
  0
LWPOLYLINE
  5
16DD
330
A
100
AcDbEntity
  8
0
  6
Continuous
 62
     7
100
AcDbPolyline
 90
       38
 70
   128
 43
0.0
 10
-14.74922371868763
 20
13.11177867121462
 10
-14.93325478215747
 20
13.20349078408559
 10
-15.12661225194289
 20
13.28968021215782
 10
-15.32838225855334
 20
13.36993959651825
 10
-15.5376111721479
 20
13.44388960554457
 10
-15.75331010969614
 20
13.5111807277483
 10
-15.97445960875687
 20
13.57149492367828
 10
-16.20001444578494
 20
13.62454712907726
 10
-16.42890857619345
 20
13.67008660218712
 10
-16.66006017282266
 20
13.70789810883489
 10
-16.89237673900261
 20
13.73780293969866
 10
-17.12476027204313
 20
13.75965975494512
 10
-17.35611245274722
 20
13.77336525224704
 10
-17.58533983642016
 20
13.77885465502326
 10
-17.81135902084028
 20
13.77610201859356
 10
-18.03310176676577
 20
13.76512035280161
 10
-18.24952004677633
 20
13.74596156052622
 10
-18.45959099858729
 20
13.71871619237169
 10
-18.66232175942525
 20
13.68351301869661
 10
-18.85675415861629
 20
13.64051842100372
 10
-19.04196924620831
 20
13.58993560556757
 10
-19.21709163622358
 20
13.53200364301639
 10
-19.38129364401392
 20
13.46699633840752
 10
-19.53379919816417
 20
13.39522093713682
 10
-19.67388750845489
 20
13.31701667279825
 10
-19.80089647254837
 20
13.23275316385698
 10
-19.91422580529688
 20
13.14282866671384
 10
-20.01333987588306
 20
13.04766819341766
 10
-20.09777023938313
 20
12.9477215029219
 10
-20.16711785078807
 20
12.84346097537939
 10
-20.22105495101837
 20
12.73537937952201
 10
-20.25932661601882
 20
12.62398754367752
 10
-20.28175196161132
 20
12.50981194143077
 10
-20.28822499841168
 20
12.3933922033405
 10
-20.27871513276945
 20
12.27527856647209
 10
-20.25326731136334
 20
12.15602927380043
 10
-20.21200180876876
 20
12.03620793577442
 10
-20.15511365900162
 20
11.91638086651299
  0
LINE
  5
1705
330
A
100
AcDbEntity
  8
0
  6
Continuous
 62
     7
100
AcDbLine
 10
-20.24431941534379
 20
11.71002047974402
 30
0.0
 11
-20.15511365900162
 21
11.91638086651299
 31
0.0
  0
LINE
  5
1706
330
A
100
AcDbEntity
  8
0
  6
Continuous
 62
     7
100
AcDbLine
 10
-20.10338367196701
 20
11.58627181110706
 30
0.0
 11
-20.24431941534379
 21
11.71002047974402
 31
0.0
  0
LINE
  5
1707
330
A
100
AcDbEntity
  8
0
  6
Continuous
 62
     7
100
AcDbLine
 10
-14.87757934099036
 20
14.97948863361189
 30
0.0
 11
-12.841840825548
 21
13.19200786441115
 31
0.0
  0
LINE
  5
1708
330
A
100
AcDbEntity
  8
0
  6
Continuous
 62
     7
100
AcDbLine
 10
-14.32042919852829
 20
13.01996304954473
 30
0.0
 11
-14.17949345515151
 21
12.89621438090776
 31
0.0
  0
LWPOLYLINE
  5
1709
330
A
100
AcDbEntity
  8
0
  6
Continuous
 62
     7
100
AcDbPolyline
 90
        6
 70
   128
 43
0.0
 10
-20.10275347818403
 20
9.772244185372677
 10
-20.11781358439869
 20
9.703823573815945
 10
-20.14132174181114
 20
9.645958314551727
 10
-20.17237454511555
 20
9.600872137042337
 10
-20.20977865249556
 20
9.570297677804838
 10
-20.2444089971243
 20
9.556849021488446
  0
LWPOLYLINE
  5
1711
330
A
100
AcDbEntity
  8
0
  6
Continuous
 62
     7
100
AcDbPolyline
 90
        3
 70
   128
 43
0.0
 10
-20.37659133563988
 20
10.16808213867428
 10
-20.4407405302328
 20
10.1607626630388
 10
-20.47951655401877
 20
10.16371556575358
  0
LINE
  5
1716
330
A
100
AcDbEntity
  8
0
  6
Continuous
 62
     7
100
AcDbLine
 10
-14.57271211897673
 20
11.28850783220484
 30
0.0
 11
-15.00150663913608
 21
11.38032345387473
 31
0.0
  0
LWPOLYLINE
  5
1717
330
A
100
AcDbEntity
  8
0
  6
Continuous
 62
     7
100
AcDbPolyline
 90
       26
 70
   128
 43
0.0
 10
-15.00150663913608
 20
11.38032345387473
 10
-15.18553770260592
 20
11.4720355667457
 10
-15.37889517239134
 20
11.55822499481792
 10
-15.58066517900179
 20
11.63848437917835
 10
-15.78989409259635
 20
11.71243438820468
 10
-16.00559303014459
 20
11.77972551040842
 10
-16.22674252920531
 20
11.8400397063384
 10
-16.45229736623339
 20
11.89309191173738
 10
-16.6811914966419
 20
11.93863138484722
 10
-16.91234309327111
 20
11.976442891495
 10
-17.14465965945105
 20
12.00634772235877
 10
-17.37704319249158
 20
12.02820453760522
 10
-17.60839537319567
 20
12.04191003490715
 10
-17.8376227568686
 20
12.04739943768337
 10
-18.06364194128873
 20
12.04464680125367
 10
-18.28538468721422
 20
12.03366513546171
 10
-18.50180296722477
 20
12.01450634318632
 10
-18.71187391903574
 20
11.98726097503181
 10
-18.9146046798737
 20
11.95205780135671
 10
-19.10903707906474
 20
11.90906320366383
 10
-19.29425216665676
 20
11.85848038822767
 10
-19.46937455667202
 20
11.80054842567649
 10
-19.63357656446236
 20
11.73554112106762
 10
-19.78608211861262
 20
11.66376571979693
 10
-19.92617042890334
 20
11.58556145545837
 10
-20.03849121853435
 20
11.51182874823251
  0
LWPOLYLINE
  5
1733
330
A
100
AcDbEntity
  8
0
  6
Continuous
 62
     7
100
AcDbPolyline
 90
        3
 70
   128
 43
0.0
 10
-20.47588721123679
 20
10.33423398236102
 10
-20.46428472921721
 20
10.30475271843453
 10
-20.40739657945007
 20
10.1849256491731
  0
LINE
  5
1738
330
A
100
AcDbEntity
  8
0
  6
Continuous
 62
     7
100
AcDbLine
 10
-20.40739657945007
 20
10.1849256491731
 30
0.0
 11
-20.41739961547656
 21
10.16178554624775
 31
0.0
  0
LINE
  5
173A
330
A
100
AcDbEntity
  8
0
  6
Continuous
 62
     7
100
AcDbLine
 10
-13.77717168400975
 20
12.06030307885777
 30
0.0
 11
-13.77717168400975
 21
12.06030307885777
 31
0.0
  0
LINE
  5
173B
330
A
100
AcDbEntity
  8
0
  6
Continuous
 62
     7
100
AcDbLine
 10
-14.43177637559996
 20
11.16475916356787
 30
0.0
 11
-14.57271211897673
 21
11.28850783220484
 31
0.0
  0
LINE
  5
173C
330
A
100
AcDbEntity
  8
0
  6
Continuous
 62
     7
100
AcDbLine
 10
-20.15511365900162
 20
11.91638086651299
 30
0.0
 11
-20.19115407620854
 21
11.66903012117873
 31
0.0
  0
LINE
  5
173D
330
A
100
AcDbEntity
  8
0
  6
Continuous
 62
     7
100
AcDbLine
 10
-20.19115407620854
 20
11.66903012117873
 30
0.0
 11
-20.19293748057794
 21
11.66490455764422
 31
0.0
  0
LINE
  5
173E
330
A
100
AcDbEntity
  8
0
  6
Continuous
 62
     7
100
AcDbLine
 10
-20.05995548275082
 20
10.06597319545712
 30
0.0
 11
-20.21655075316946
 21
10.20347171616487
 31
0.0
  0
LINE
  5
173F
330
A
100
AcDbEntity
  8
0
  6
Continuous
 62
     7
100
AcDbLine
 10
-20.37659133563988
 20
10.16808213867428
 30
0.0
 11
-20.21655075316946
 21
10.20347171616487
 31
0.0
  0
LINE
  5
1740
330
A
100
AcDbEntity
  8
0
  6
Continuous
 62
     7
100
AcDbLine
 10
-14.74922371868763
 20
13.11177867121462
 30
0.0
 11
-14.78526413589455
 21
12.86442792588035
 31
0.0
  0
LWPOLYLINE
  5
1741
330
A
100
AcDbEntity
  8
0
  6
Continuous
 62
     7
100
AcDbPolyline
 90
       32
 70
   128
 43
0.0
 10
-14.78526413589455
 20
12.86442792588035
 10
-14.96929519936438
 20
12.95614003875132
 10
-15.16265266914981
 20
13.04232946682355
 10
-15.36442267576027
 20
13.12258885118398
 10
-15.57365158935483
 20
13.1965388602103
 10
-15.78935052690307
 20
13.26382998241404
 10
-16.01050002596379
 20
13.32414417834401
 10
-16.23605486299187
 20
13.377196383743
 10
-16.46494899340037
 20
13.42273585685284
 10
-16.69610059002958
 20
13.46054736350062
 10
-16.92841715620952
 20
13.49045219436439
 10
-17.16080068925005
 20
13.51230900961084
 10
-17.39215286995414
 20
13.52601450691276
 10
-17.62138025362708
 20
13.53150390968898
 10
-17.84739943804719
 20
13.52875127325928
 10
-18.06914218397269
 20
13.51776960746734
 10
-18.28556046398325
 20
13.49861081519195
 10
-18.49563141579422
 20
13.47136544703743
 10
-18.69836217663217
 20
13.43616227336234
 10
-18.89279457582321
 20
13.39316767566945
 10
-19.07800966341523
 20
13.3425848602333
 10
-19.2531320534305
 20
13.28465289768212
 10
-19.41733406122084
 20
13.21964559307325
 10
-19.56983961537109
 20
13.14787019180255
 10
-19.70992792566181
 20
13.06966592746398
 10
-19.83693688975529
 20
12.98540241852271
 10
-19.9502662225038
 20
12.89547792137957
 10
-20.04938029308998
 20
12.8003174480834
 10
-20.13381065659005
 20
12.70037075758763
 10
-20.20315826799499
 20
12.59611023004511
 10
-20.25709536822529
 20
12.48802863418774
 10
-20.28829160307406
 20
12.40143400581504
  0
LINE
  5
1763
330
A
100
AcDbEntity
  8
0
  6
Continuous
 62
     7
100
AcDbLine
 10
-20.40739657945007
 20
10.1849256491731
 30
0.0
 11
-20.41067300137864
 21
10.16243907801579
 31
0.0
  0
LINE
  5
1764
330
A
100
AcDbEntity
  8
0
  6
Continuous
 62
     7
100
AcDbLine
 10
-15.00150663913608
 20
11.38032345387473
 30
0.0
 11
-15.037547056343
 21
11.13297270854047
 31
0.0
  0
LWPOLYLINE
  5
1765
330
A
100
AcDbEntity
  8
0
  6
Continuous
 62
     7
100
AcDbPolyline
 90
       25
 70
   128
 43
0.0
 10
-15.037547056343
 20
11.13297270854047
 10
-15.22157811981284
 20
11.22468482141143
 10
-15.41493558959826
 20
11.31087424948366
 10
-15.61670559620871
 20
11.39113363384409
 10
-15.82593450980327
 20
11.46508364287041
 10
-16.04163344735151
 20
11.53237476507414
 10
-16.26278294641223
 20
11.59268896100413
 10
-16.48833778344031
 20
11.6457411664031
 10
-16.71723191384882
 20
11.69128063951295
 10
-16.94838351047803
 20
11.72909214616074
 10
-17.18070007665797
 20
11.7589969770245
 10
-17.4130836096985
 20
11.78085379227095
 10
-17.64443579040259
 20
11.79455928957288
 10
-17.87366317407553
 20
11.8000486923491
 10
-18.09968235849565
 20
11.7972960559194
 10
-18.32142510442114
 20
11.78631439012744
 10
-18.53784338443169
 20
11.76715559785206
 10
-18.74791433624267
 20
11.73991022969753
 10
-18.95064509708062
 20
11.70470705602245
 10
-19.14507749627166
 20
11.66171245832956
 10
-19.33029258386368
 20
11.61112964289341
 10
-19.50541497387894
 20
11.55319768034223
 10
-19.66961698166928
 20
11.48819037573336
 10
-19.82212253581954
 20
11.41641497446266
 10
-19.95633233130331
 20
11.3417729422064
  0
LWPOLYLINE
  5
1780
330
A
100
AcDbEntity
  8
0
  6
Continuous
 62
     7
100
AcDbPolyline
 90
        5
 70
   128
 43
0.0
 10
-15.02487735348845
 20
15.03010546055634
 10
-15.01718970553173
 20
15.03154458588342
 10
-14.9715840844637
 20
15.03017356083346
 10
-14.9244434333548
 20
15.01259641681384
 10
-14.87757934099036
 20
14.97948863361189
  0
LWPOLYLINE
  5
1787
330
A
100
AcDbEntity
  8
0
  6
Continuous
 62
     7
100
AcDbPolyline
 90
        6
 70
   128
 43
0.0
 10
-22.82844561029842
 20
12.22619337636982
 10
-22.82726972631043
 20
12.22233010540174
 10
-22.80306291468761
 20
12.17079966580618
 10
-22.76655578782012
 20
12.13006036123482
 10
-22.7193438823327
 20
12.10189269478631
 10
-22.66705404247434
 20
12.08798750202731
  0
LWPOLYLINE
  5
178F
330
A
100
AcDbEntity
  8
0
  6
Continuous
 62
     7
100
AcDbPolyline
 90
        9
 70
   128
 43
0.0
 10
-12.841840825548
 20
13.19200786441114
 10
-12.79705425271592
 20
13.14464175556826
 10
-12.7560663222935
 20
13.08483757408401
 10
-12.72045217746062
 20
13.01489356111431
 10
-12.69158044983054
 20
12.93749762585251
 10
-12.67056066370463
 20
12.85562405068658
 10
-12.65820059767569
 20
12.77241919119491
 10
-12.65497524214959
 20
12.69108056346597
 10
-12.66100854573042
 20
12.61473396534813
  0
LWPOLYLINE
  5
179A
330
A
100
AcDbEntity
  8
0
  6
Continuous
 62
     7
100
AcDbPolyline
 90
        9
 70
   128
 43
0.0
 10
-13.99866117533393
 20
12.31894048184473
 10
-13.9926278717531
 20
12.39528707996258
 10
-13.99585322727919
 20
12.47662570769152
 10
-14.00821329330814
 20
12.55983056718319
 10
-14.02923307943403
 20
12.64170414234913
 10
-14.05810480706412
 20
12.71910007761092
 10
-14.09371895189702
 20
12.78904409058063
 10
-14.13470688231942
 20
12.84884827206486
 10
-14.17949345515151
 20
12.89621438090776
  0
LWPOLYLINE
  5
17A5
330
A
100
AcDbEntity
  8
0
  6
Continuous
 62
     7
100
AcDbPolyline
 90
        9
 70
   128
 43
0.0
 10
-14.15525644575257
 20
12.45643900255248
 10
-14.15324534455897
 20
12.48188786859177
 10
-14.15432046306766
 20
12.50900074450141
 10
-14.15844048507731
 20
12.53673569766531
 10
-14.16544708045261
 20
12.56402688938728
 10
-14.17507098966264
 20
12.58982553447455
 10
-14.1869423712736
 20
12.61314020546445
 10
-14.20060501474774
 20
12.63307493262586
 10
-14.21553387235843
 20
12.6488636355735
  0
LINE
  5
17B0
330
A
100
AcDbEntity
  8
0
  6
Continuous
 62
     7
100
AcDbLine
 10
-14.32042919852829
 20
13.01996304954473
 30
0.0
 11
-14.35646961573521
 21
12.77261230421047
 31
0.0
  0
LINE
  5
17B1
330
A
100
AcDbEntity
  8
0
  6
Continuous
 62
     7
100
AcDbLine
 10
-13.99866117533393
 20
12.31894048184473
 30
0.0
 11
-14.04145917076715
 21
12.02521147176028
 31
0.0
  0
LINE
  5
17B2
330
A
100
AcDbEntity
  8
0
  6
Continuous
 62
     7
100
AcDbLine
 10
-14.04145917076715
 20
12.02521147176028
 30
0.0
 11
-14.19805444118579
 21
12.16270999246804
 31
0.0
  0
LINE
  5
17B3
330
A
100
AcDbEntity
  8
0
  6
Continuous
 62
     7
100
AcDbLine
 10
-14.15525644575257
 20
12.45643900255248
 30
0.0
 11
-14.19805444118579
 21
12.16270999246804
 31
0.0
  0
LINE
  5
17B4
330
A
100
AcDbEntity
  8
0
  6
Continuous
 62
     7
100
AcDbLine
 10
-14.21553387235843
 20
12.64886363557349
 30
0.0
 11
-14.35646961573521
 21
12.77261230421047
 31
0.0
  0
LINE
  5
17B5
330
A
100
AcDbEntity
  8
0
  6
Continuous
 62
     7
100
AcDbLine
 10
-12.84121063176503
 20
11.37798023867677
 30
0.0
 11
-12.66100854573042
 21
12.61473396534812
 31
0.0
  0
LINE
  5
17B6
330
A
100
AcDbEntity
  8
0
  6
Continuous
 62
     7
100
AcDbLine
 10
-14.13606526593531
 20
11.37591576525783
 30
0.0
 11
-14.17886326136853
 21
11.08218675517338
 31
0.0
  0
LINE
  5
17B7
330
A
100
AcDbEntity
  8
0
  6
Continuous
 62
     7
100
AcDbLine
 10
-14.13606526593531
 20
11.37591576525783
 30
0.0
 11
-13.97602468346489
 21
11.41130534274841
 31
0.0
  0
LWPOLYLINE
  5
17B8
330
A
100
AcDbEntity
  8
0
  6
Continuous
 62
     7
100
AcDbPolyline
 90
       16
 70
   128
 43
0.0
 10
-13.97602468346489
 20
11.41130534274841
 10
-13.90980811870734
 20
11.43281348740422
 10
-13.84441816540739
 20
11.46757029195134
 10
-13.78271267830007
 20
11.51405671724944
 10
-13.72738848326772
 20
11.57024108344637
 10
-13.68086351310823
 20
11.6336678641368
 10
-13.64517113226914
 20
11.70156500464912
 10
-13.62187126906414
 20
11.77096507413632
 10
-13.61198223932046
 20
11.83883495654331
 10
-13.61593624109072
 20
11.90220841233307
 10
-13.63356046552415
 20
11.95831571738803
 10
-13.6640846494426
 20
12.00470471324456
 10
-13.70617473953756
 20
12.03934797818462
 10
-13.75799119690121
 20
12.06073143529351
 10
-13.81726939370381
 20
12.06792052488635
 10
-13.88141858829672
 20
12.06060104925088
  0
LINE
  5
17CA
330
A
100
AcDbEntity
  8
0
  6
Continuous
 62
     7
100
AcDbLine
 10
-13.88141858829672
 20
12.06060104925087
 30
0.0
 11
-14.04145917076715
 21
12.02521147176028
 31
0.0
  0
LINE
  5
17CB
330
A
100
AcDbEntity
  8
0
  6
Continuous
 62
     7
100
AcDbLine
 10
-14.35646961573521
 20
12.77261230421047
 30
0.0
 11
-14.78526413589455
 21
12.86442792588035
 31
0.0
  0
LWPOLYLINE
  5
17CC
330
A
100
AcDbEntity
  8
0
  6
Continuous
 62
     7
100
AcDbPolyline
 90
       11
 70
   128
 43
0.0
 10
-13.77717168400975
 20
12.06030307885777
 10
-13.77253151150937
 20
12.03970693304082
 10
-13.76857750973911
 20
11.97633347725106
 10
-13.77846653948278
 20
11.90846359484407
 10
-13.80176640268778
 20
11.83906352535688
 10
-13.83745878352687
 20
11.77116638484455
 10
-13.88398375368637
 20
11.70773960415411
 10
-13.9393079487187
 20
11.65155523795718
 10
-14.00101343582604
 20
11.60506881265909
 10
-14.06640338912598
 20
11.57031200811196
 10
-14.13261995388354
 20
11.54880386345616
  0
LWPOLYLINE
  5
17D9
330
A
100
AcDbEntity
  8
0
  6
Continuous
 62
     7
100
AcDbPolyline
 90
        9
 70
   128
 43
0.0
 10
-14.46781679280688
 20
10.9174084182336
 10
-14.42095270044244
 20
10.88430063503166
 10
-14.37381204933354
 20
10.86672349101205
 10
-14.32820642826551
 20
10.86535246596208
 10
-14.28588843568006
 20
10.88024024760554
 10
-14.24848432830006
 20
10.91081470684305
 10
-14.21743152499564
 20
10.95590088435244
 10
-14.19392336758319
 20
11.01376614361665
 10
-14.17886326136853
 20
11.08218675517339
  0
LINE
  5
17E4
330
A
100
AcDbEntity
  8
0
  6
Continuous
 62
     7
100
AcDbLine
 10
-14.57271211897673
 20
11.28850783220484
 30
0.0
 11
-14.60875253618366
 21
11.04115708687058
 31
0.0
  0
LWPOLYLINE
  5
17E5
330
A
100
AcDbEntity
  8
0
  6
Continuous
 62
     7
100
AcDbPolyline
 90
        9
 70
   128
 43
0.0
 10
-14.43177637559996
 20
11.16475916356788
 10
-14.41615501147848
 20
11.15372323583389
 10
-14.40044146110884
 20
11.14786418782736
 10
-14.3852395874195
 20
11.14740717947737
 10
-14.37113358989102
 20
11.15236977335852
 10
-14.35866555409769
 20
11.16256125977102
 10
-14.34831461966288
 20
11.17758998560749
 10
-14.34047856719206
 20
11.19687840536222
 10
-14.33545853178718
 20
11.21968527588114
  0
LINE
  5
17F0
330
A
100
AcDbEntity
  8
0
  6
Continuous
 62
     7
100
AcDbLine
 10
-14.29266053635396
 20
11.51341428596558
 30
0.0
 11
-14.13606526593531
 21
11.37591576525783
 31
0.0
  0
LINE
  5
17F1
330
A
100
AcDbEntity
  8
0
  6
Continuous
 62
     7
100
AcDbLine
 10
-14.29266053635396
 20
11.51341428596558
 30
0.0
 11
-14.33545853178718
 21
11.21968527588114
 31
0.0
  0
LINE
  5
17F2
330
A
100
AcDbEntity
  8
0
  6
Continuous
 62
     7
100
AcDbLine
 10
-14.60875253618366
 20
11.04115708687058
 30
0.0
 11
-14.46781679280688
 21
10.9174084182336
 31
0.0
  0
LINE
  5
17F3
330
A
100
AcDbEntity
  8
0
  6
Continuous
 62
     7
100
AcDbLine
 10
-14.29266053635396
 20
11.51341428596558
 30
0.0
 11
-14.13261995388354
 21
11.54880386345616
 31
0.0
  0
LWPOLYLINE
  5
17F4
330
A
100
AcDbEntity
  8
0
  6
Continuous
 62
     7
100
AcDbPolyline
 90
        6
 70
   128
 43
0.0
 10
-12.84121063176503
 20
11.37798023867677
 10
-12.85627073797968
 20
11.30955962712004
 10
-12.87977889539214
 20
11.25169436785582
 10
-12.91083169869655
 20
11.20660819034643
 10
-12.94823580607656
 20
11.17603373110893
 10
-12.9828661507053
 20
11.16258507479254
  0
LINE
  5
17FC
330
A
100
AcDbEntity
  8
0
  6
Continuous
 62
     7
100
AcDbLine
 10
-15.037547056343
 20
11.13297270854047
 30
0.0
 11
-14.60875253618366
 21
11.04115708687058
 31
0.0
  0
LWPOLYLINE
  5
17FD
330
A
100
AcDbEntity
  8
0
  6
Continuous
 62
     7
100
AcDbPolyline
 90
        9
 70
   128
 43
0.0
 10
-21.24343526879304
 20
24.99928589703338
 10
-21.23740196521221
 20
25.07563249515122
 10
-21.2406273207383
 20
25.15697112288017
 10
-21.25298738676724
 20
25.24017598237184
 10
-21.27400717289315
 20
25.32204955753776
 10
-21.30287890052323
 20
25.39944549279957
 10
-21.33849304535611
 20
25.46938950576927
 10
-21.37948097577853
 20
25.5291936872535
 10
-21.42426754861062
 20
25.5765597960964
  0
LWPOLYLINE
  5
1808
330
A
100
AcDbEntity
  8
0
  6
Continuous
 62
     7
100
AcDbPolyline
 90
        9
 70
   128
 43
0.0
 10
-20.08661491900711
 20
25.87235327959979
 10
-20.04182834617502
 20
25.82498717075689
 10
-20.00084041575261
 20
25.76518298927265
 10
-19.96522627091972
 20
25.69523897630296
 10
-19.93635454328964
 20
25.61784304104115
 10
-19.91533475716373
 20
25.53596946587522
 10
-19.90297469113478
 20
25.45276460638355
 10
-19.8997493356087
 20
25.37142597865461
 10
-19.90578263918953
 20
25.29507938053676
  0
LWPOLYLINE
  5
1813
330
A
100
AcDbEntity
  8
0
  6
Continuous
 62
     7
100
AcDbPolyline
 90
        9
 70
   128
 43
0.0
 10
-23.4960464812599
 20
27.11668981996288
 10
-23.51166784538138
 20
27.12772574769687
 10
-23.52738139575101
 20
27.1335847957034
 10
-23.54258326944036
 20
27.13404180405339
 10
-23.55668926696884
 20
27.12907921017224
 10
-23.56915730276218
 20
27.11888772375973
 10
-23.57950823719698
 20
27.10385899792327
 10
-23.58734428966779
 20
27.08457057816853
 10
-23.59236432507268
 20
27.06176370764962
  0
LINE
  5
181E
330
A
100
AcDbEntity
  8
0
  6
Continuous
 62
     7
100
AcDbLine
 10
-23.77256641110729
 20
25.82500998097827
 30
0.0
 11
-23.59236432507268
 21
27.06176370764962
 31
0.0
  0
LWPOLYLINE
  5
181F
330
A
100
AcDbEntity
  8
0
  6
Continuous
 62
     7
100
AcDbPolyline
 90
        9
 70
   128
 43
0.0
 10
-23.77256641110729
 20
25.82500998097827
 10
-23.7745775123009
 20
25.79956111493899
 10
-23.7735023937922
 20
25.77244823902934
 10
-23.76938237178255
 20
25.74471328586545
 10
-23.76237577640725
 20
25.71742209414348
 10
-23.75275186719723
 20
25.6916234490562
 10
-23.74088048558626
 20
25.66830877806631
 10
-23.72721784211212
 20
25.6483740509049
 10
-23.71228898450143
 20
25.63258534795725
  0
LINE
  5
182A
330
A
100
AcDbEntity
  8
0
  6
Continuous
 62
     7
100
AcDbLine
 10
-21.67655046905907
 20
23.84510457875652
 30
0.0
 11
-23.71228898450143
 21
25.63258534795725
 31
0.0
  0
LWPOLYLINE
  5
182B
330
A
100
AcDbEntity
  8
0
  6
Continuous
 62
     7
100
AcDbPolyline
 90
        9
 70
   128
 43
0.0
 10
-21.67655046905907
 20
23.84510457875652
 10
-21.66092910493759
 20
23.83406865102253
 10
-21.64521555456795
 20
23.828209603016
 10
-21.63001368087861
 20
23.827752594666
 10
-21.61590768335012
 20
23.83271518854716
 10
-21.60343964755679
 20
23.84290667495966
 10
-21.59308871312198
 20
23.85793540079612
 10
-21.58525266065117
 20
23.87722382055087
 10
-21.58023262524628
 20
23.90003069106978
  0
LINE
  5
1836
330
A
100
AcDbEntity
  8
0
  6
Continuous
 62
     7
100
AcDbLine
 10
-21.58023262524628
 20
23.90003069106978
 30
0.0
 11
-21.40003053921168
 21
25.13678441774113
 31
0.0
  0
LWPOLYLINE
  5
1837
330
A
100
AcDbEntity
  8
0
  6
Continuous
 62
     7
100
AcDbPolyline
 90
        9
 70
   128
 43
0.0
 10
-21.40003053921168
 20
25.13678441774113
 10
-21.39801943801807
 20
25.16223328378041
 10
-21.39909455652676
 20
25.18934615969006
 10
-21.40321457853641
 20
25.21708111285394
 10
-21.41022117391171
 20
25.24437230457593
 10
-21.41984508312174
 20
25.27017094966319
 10
-21.4317164647327
 20
25.29348562065309
 10
-21.44537910820684
 20
25.3134203478145
 10
-21.46030796581754
 20
25.32920905076214
  0
LINE
  5
1842
330
A
100
AcDbEntity
  8
0
  6
Continuous
 62
     7
100
AcDbLine
 10
-21.46030796581754
 20
25.32920905076214
 30
0.0
 11
-23.4960464812599
 21
27.11668981996288
 31
0.0
  0
LINE
  5
1843
330
A
100
AcDbEntity
  8
0
  6
Continuous
 62
     7
100
AcDbLine
 10
-21.42363735482764
 20
23.76253217036203
 30
0.0
 11
-21.24343526879303
 21
24.99928589703338
 31
0.0
  0
LWPOLYLINE
  5
1844
330
A
100
AcDbEntity
  8
0
  6
Continuous
 62
     7
100
AcDbPolyline
 90
        9
 70
   128
 43
0.0
 10
-21.71259088626598
 20
23.59775383342225
 10
-21.66572679390155
 20
23.5646460502203
 10
-21.61858614279265
 20
23.54706890620069
 10
-21.57298052172462
 20
23.54569788115072
 10
-21.53066252913917
 20
23.56058566279418
 10
-21.49325842175916
 20
23.59116012203169
 10
-21.46220561845474
 20
23.63624629954107
 10
-21.43869746104229
 20
23.6941115588053
 10
-21.42363735482764
 20
23.76253217036203
  0
LINE
  5
184F
330
A
100
AcDbEntity
  8
0
  6
Continuous
 62
     7
100
AcDbLine
 10
-21.71259088626598
 20
23.59775383342225
 30
0.0
 11
-23.74832940170835
 21
25.38523460262299
 31
0.0
  0
LWPOLYLINE
  5
1850
330
A
100
AcDbEntity
  8
0
  6
Continuous
 62
     7
100
AcDbPolyline
 90
        9
 70
   128
 43
0.0
 10
-23.92916168152593
 20
25.96250850168602
 10
-23.93519498510676
 20
25.88616190356817
 10
-23.93196962958067
 20
25.80482327583922
 10
-23.91960956355173
 20
25.72161841634757
 10
-23.89858977742582
 20
25.63974484118164
 10
-23.86971804979574
 20
25.56234890591984
 10
-23.83410390496285
 20
25.49240489295012
 10
-23.79311597454044
 20
25.43260071146589
 10
-23.74832940170835
 20
25.38523460262299
  0
LINE
  5
185B
330
A
100
AcDbEntity
  8
0
  6
Continuous
 62
     7
100
AcDbLine
 10
-23.92916168152593
 20
25.96250850168602
 30
0.0
 11
-23.74895959549133
 21
27.19926222835737
 31
0.0
  0
LWPOLYLINE
  5
185C
330
A
100
AcDbEntity
  8
0
  6
Continuous
 62
     7
100
AcDbPolyline
 90
        9
 70
   128
 43
0.0
 10
-23.46000606405298
 20
27.36404056529714
 10
-23.50687015641741
 20
27.3971483484991
 10
-23.55401080752631
 20
27.41472549251871
 10
-23.59961642859435
 20
27.41609651756867
 10
-23.64193442117979
 20
27.40120873592521
 10
-23.6793385285598
 20
27.37063427668771
 10
-23.71039133186422
 20
27.32554809917832
 10
-23.73389948927667
 20
27.2676828399141
 10
-23.74895959549133
 20
27.19926222835737
  0
LINE
  5
1867
330
A
100
AcDbEntity
  8
0
  6
Continuous
 62
     7
100
AcDbLine
 10
-21.42426754861062
 20
25.5765597960964
 30
0.0
 11
-23.46000606405298
 21
27.36404056529714
 31
0.0
  0
LINE
  5
1868
330
A
100
AcDbEntity
  8
0
  6
Continuous
 62
     7
100
AcDbLine
 10
-19.90578263918953
 20
25.29507938053676
 30
0.0
 11
-19.94858063462275
 21
25.00135037045231
 31
0.0
  0
LINE
  5
1869
330
A
100
AcDbEntity
  8
0
  6
Continuous
 62
     7
100
AcDbLine
 10
-19.94858063462275
 20
25.00135037045231
 30
0.0
 11
-20.10862121709317
 21
24.96596079296173
 31
0.0
  0
LWPOLYLINE
  5
186A
330
A
100
AcDbEntity
  8
0
  6
Continuous
 62
     7
100
AcDbPolyline
 90
       16
 70
   128
 43
0.0
 10
-20.10862121709317
 20
24.96596079296173
 10
-20.17483778185073
 20
24.94445264830594
 10
-20.24022773515067
 20
24.90969584375881
 10
-20.301933222258
 20
24.86320941846071
 10
-20.35725741729033
 20
24.80702505226379
 10
-20.40378238744982
 20
24.74359827157335
 10
-20.43947476828892
 20
24.67570113106102
 10
-20.46277463149392
 20
24.60630106157382
 10
-20.47266366123761
 20
24.53843117916684
 10
-20.46870965946734
 20
24.47505772337708
 10
-20.45108543503391
 20
24.41895041832212
 10
-20.42056125111546
 20
24.37256142246559
 10
-20.3784711610205
 20
24.33791815752553
 10
-20.32665470365686
 20
24.31653470041664
 10
-20.26737650685426
 20
24.30934561082379
 10
-20.20322731226134
 20
24.31666508645927
  0
LINE
  5
187C
330
A
100
AcDbEntity
  8
0
  6
Continuous
 62
     7
100
AcDbLine
 10
-20.20322731226134
 20
24.31666508645927
 30
0.0
 11
-20.04318672979092
 21
24.35205466394986
 31
0.0
  0
LINE
  5
187D
330
A
100
AcDbEntity
  8
0
  6
Continuous
 62
     7
100
AcDbLine
 10
-20.04318672979092
 20
24.35205466394986
 30
0.0
 11
-20.08598472522414
 21
24.05832565386542
 31
0.0
  0
LINE
  5
187E
330
A
100
AcDbEntity
  8
0
  6
Continuous
 62
     7
100
AcDbLine
 10
-14.73245496572773
 20
27.39786013970736
 30
0.0
 11
-14.30366044556839
 21
27.30604451803748
 31
0.0
  0
LWPOLYLINE
  5
187F
330
A
100
AcDbEntity
  8
0
  6
Continuous
 62
     7
100
AcDbPolyline
 90
       38
 70
   128
 43
0.0
 10
-14.73245496572773
 20
27.39786013970736
 10
-14.91648602919756
 20
27.48957225257833
 10
-15.10984349898299
 20
27.57576168065055
 10
-15.31161350559345
 20
27.65602106501098
 10
-15.52084241918801
 20
27.7299710740373
 10
-15.73654135673624
 20
27.79726219624104
 10
-15.95769085579697
 20
27.85757639217102
 10
-16.18324569282505
 20
27.91062859757
 10
-16.41213982323355
 20
27.95616807067985
 10
-16.64329141986276
 20
27.99397957732763
 10
-16.8756079860427
 20
28.0238844081914
 10
-17.10799151908323
 20
28.04574122343785
 10
-17.33934369978733
 20
28.05944672073977
 10
-17.56857108346025
 20
28.06493612351598
 10
-17.79459026788038
 20
28.06218348708629
 10
-18.01633301380587
 20
28.05120182129434
 10
-18.23275129381643
 20
28.03204302901895
 10
-18.4428222456274
 20
28.00479766086443
 10
-18.64555300646535
 20
27.96959448718934
 10
-18.83998540565639
 20
27.92659988949646
 10
-19.02520049324841
 20
27.87601707406031
 10
-19.20032288326368
 20
27.81808511150912
 10
-19.36452489105402
 20
27.75307780690026
 10
-19.51703044520428
 20
27.68130240562955
 10
-19.657118755495
 20
27.603098141291
 10
-19.78412771958847
 20
27.51883463234972
 10
-19.89745705233698
 20
27.42891013520658
 10
-19.99657112292316
 20
27.3337496619104
 10
-20.08100148642324
 20
27.23380297141464
 10
-20.15034909782817
 20
27.12954244387211
 10
-20.20428619805848
 20
27.02146084801475
 10
-20.24255786305892
 20
26.91006901217026
 10
-20.26498320865142
 20
26.7958934099235
 10
-20.27145624545179
 20
26.67947367183324
 10
-20.26194637980955
 20
26.56136003496482
 10
-20.23649855840344
 20
26.44211074229316
 10
-20.19523305580886
 20
26.32228940426716
 10
-20.13834490604172
 20
26.20246233500573
  0
LINE
  5
18A7
330
A
100
AcDbEntity
  8
0
  6
Continuous
 62
     7
100
AcDbLine
 10
-20.2275506623839
 20
25.99610194823677
 30
0.0
 11
-20.13834490604172
 21
26.20246233500573
 31
0.0
  0
LINE
  5
18A8
330
A
100
AcDbEntity
  8
0
  6
Continuous
 62
     7
100
AcDbLine
 10
-20.08661491900711
 20
25.87235327959979
 30
0.0
 11
-20.2275506623839
 21
25.99610194823677
 31
0.0
  0
LINE
  5
18A9
330
A
100
AcDbEntity
  8
0
  6
Continuous
 62
     7
100
AcDbLine
 10
-14.86081058803047
 20
29.26557010210464
 30
0.0
 11
-12.82507207258811
 21
27.47808933290389
 31
0.0
  0
LINE
  5
18AA
330
A
100
AcDbEntity
  8
0
  6
Continuous
 62
     7
100
AcDbLine
 10
-14.30366044556839
 20
27.30604451803748
 30
0.0
 11
-14.16272470219162
 21
27.18229584940049
 31
0.0
  0
LWPOLYLINE
  5
18AB
330
A
100
AcDbEntity
  8
0
  6
Continuous
 62
     7
100
AcDbPolyline
 90
        6
 70
   128
 43
0.0
 10
-20.08598472522414
 20
24.05832565386542
 10
-20.10104483143878
 20
23.98990504230868
 10
-20.12455298885124
 20
23.93203978304446
 10
-20.15560579215565
 20
23.88695360553507
 10
-20.19300989953566
 20
23.85637914629758
 10
-20.2276402441644
 20
23.84293048998118
  0
LWPOLYLINE
  5
18B3
330
A
100
AcDbEntity
  8
0
  6
Continuous
 62
     7
100
AcDbPolyline
 90
        3
 70
   128
 43
0.0
 10
-20.35982258267998
 20
24.45416360716702
 10
-20.4239717772729
 20
24.44684413153154
 10
-20.46274780104706
 20
24.44979703424445
  0
LINE
  5
18B8
330
A
100
AcDbEntity
  8
0
  6
Continuous
 62
     7
100
AcDbLine
 10
-14.55594336601684
 20
25.57458930069758
 30
0.0
 11
-14.98473788617618
 21
25.66640492236748
 31
0.0
  0
LWPOLYLINE
  5
18B9
330
A
100
AcDbEntity
  8
0
  6
Continuous
 62
     7
100
AcDbPolyline
 90
       26
 70
   128
 43
0.0
 10
-14.98473788617618
 20
25.66640492236748
 10
-15.16876894964601
 20
25.75811703523843
 10
-15.36212641943144
 20
25.84430646331066
 10
-15.56389642604189
 20
25.92456584767109
 10
-15.77312533963645
 20
25.99851585669742
 10
-15.9888242771847
 20
26.06580697890115
 10
-16.20997377624542
 20
26.12612117483113
 10
-16.4355286132735
 20
26.17917338023011
 10
-16.66442274368201
 20
26.22471285333997
 10
-16.89557434031121
 20
26.26252435998774
 10
-17.12789090649115
 20
26.29242919085151
 10
-17.36027443953168
 20
26.31428600609796
 10
-17.59162662023577
 20
26.32799150339988
 10
-17.82085400390871
 20
26.33348090617609
 10
-18.04687318832883
 20
26.3307282697464
 10
-18.26861593425432
 20
26.31974660395445
 10
-18.48503421426488
 20
26.30058781167906
 10
-18.69510516607585
 20
26.27334244352454
 10
-18.89783592691381
 20
26.23813926984946
 10
-19.09226832610484
 20
26.19514467215657
 10
-19.27748341369686
 20
26.14456185672042
 10
-19.45260580371212
 20
26.08662989416924
 10
-19.61680781150247
 20
26.02162258956037
 10
-19.76931336565273
 20
25.94984718828968
 10
-19.90940167594345
 20
25.87164292395111
 10
-20.02172246557441
 20
25.79791021672529
  0
LWPOLYLINE
  5
18D5
330
A
100
AcDbEntity
  8
0
  6
Continuous
 62
     7
100
AcDbPolyline
 90
        3
 70
   128
 43
0.0
 10
-20.4591184582769
 20
24.62031545085378
 10
-20.44751597625731
 20
24.59083418692727
 10
-20.39062782649017
 20
24.47100711766585
  0
LINE
  5
18DA
330
A
100
AcDbEntity
  8
0
  6
Continuous
 62
     7
100
AcDbLine
 10
-20.39062782649017
 20
24.47100711766585
 30
0.0
 11
-20.40063086251667
 21
24.44786701474049
 31
0.0
  0
LINE
  5
18DC
330
A
100
AcDbEntity
  8
0
  6
Continuous
 62
     7
100
AcDbLine
 10
-13.76172461695793
 20
26.35104909066426
 30
0.0
 11
-13.76172461695793
 21
26.35104909066426
 31
0.0
  0
LINE
  5
18DD
330
A
100
AcDbEntity
  8
0
  6
Continuous
 62
     7
100
AcDbLine
 10
-14.41500762264006
 20
25.45084063206061
 30
0.0
 11
-14.55594336601684
 21
25.57458930069758
 31
0.0
  0
LINE
  5
18DE
330
A
100
AcDbEntity
  8
0
  6
Continuous
 62
     7
100
AcDbLine
 10
-20.13834490604172
 20
26.20246233500573
 30
0.0
 11
-20.17438532324864
 21
25.95511158967146
 31
0.0
  0
LINE
  5
18DF
330
A
100
AcDbEntity
  8
0
  6
Continuous
 62
     7
100
AcDbLine
 10
-20.17438532324864
 20
25.95511158967146
 30
0.0
 11
-20.17616872761804
 21
25.95098602613695
 31
0.0
  0
LINE
  5
18E0
330
A
100
AcDbEntity
  8
0
  6
Continuous
 62
     7
100
AcDbLine
 10
-20.04318672979092
 20
24.35205466394986
 30
0.0
 11
-20.19978200020956
 21
24.4895531846576
 31
0.0
  0
LINE
  5
18E1
330
A
100
AcDbEntity
  8
0
  6
Continuous
 62
     7
100
AcDbLine
 10
-20.35982258267998
 20
24.45416360716702
 30
0.0
 11
-20.19978200020956
 21
24.4895531846576
 31
0.0
  0
LINE
  5
18E2
330
A
100
AcDbEntity
  8
0
  6
Continuous
 62
     7
100
AcDbLine
 10
-14.73245496572773
 20
27.39786013970736
 30
0.0
 11
-14.76849538293466
 21
27.15050939437309
 31
0.0
  0
LWPOLYLINE
  5
18E3
330
A
100
AcDbEntity
  8
0
  6
Continuous
 62
     7
100
AcDbPolyline
 90
       32
 70
   128
 43
0.0
 10
-14.76849538293466
 20
27.15050939437309
 10
-14.95252644640449
 20
27.24222150724405
 10
-15.14588391618991
 20
27.32841093531628
 10
-15.34765392280037
 20
27.40867031967671
 10
-15.55688283639493
 20
27.48262032870304
 10
-15.77258177394316
 20
27.54991145090677
 10
-15.99373127300389
 20
27.61022564683675
 10
-16.21928611003197
 20
27.66327785223574
 10
-16.44818024044048
 20
27.70881732534558
 10
-16.67933183706969
 20
27.74662883199336
 10
-16.91164840324963
 20
27.77653366285713
 10
-17.14403193629015
 20
27.79839047810359
 10
-17.37538411699424
 20
27.81209597540551
 10
-17.60461150066718
 20
27.81758537818172
 10
-17.8306306850873
 20
27.81483274175203
 10
-18.05237343101279
 20
27.80385107596007
 10
-18.26879171102335
 20
27.78469228368468
 10
-18.47886266283432
 20
27.75744691553016
 10
-18.68159342367227
 20
27.72224374185507
 10
-18.87602582286332
 20
27.67924914416219
 10
-19.06124091045533
 20
27.62866632872604
 10
-19.2363633004706
 20
27.57073436617486
 10
-19.40056530826094
 20
27.50572706156599
 10
-19.55307086241119
 20
27.43395166029529
 10
-19.69315917270192
 20
27.35574739595671
 10
-19.82016813679539
 20
27.27148388701546
 10
-19.9334974695439
 20
27.1815593898723
 10
-20.03261154013008
 20
27.08639891657613
 10
-20.11704190363015
 20
26.98645222608038
 10
-20.18638951503509
 20
26.88219169853784
 10
-20.2403266152654
 20
26.77411010268047
 10
-20.27152285011425
 20
26.68751547430753
  0
LINE
  5
1905
330
A
100
AcDbEntity
  8
0
  6
Continuous
 62
     7
100
AcDbLine
 10
-20.39062782649017
 20
24.47100711766585
 30
0.0
 11
-20.39390424841875
 21
24.44852054650852
 31
0.0
  0
LINE
  5
1906
330
A
100
AcDbEntity
  8
0
  6
Continuous
 62
     7
100
AcDbLine
 10
-14.98473788617618
 20
25.66640492236748
 30
0.0
 11
-15.0207783033831
 21
25.41905417703321
 31
0.0
  0
LWPOLYLINE
  5
1907
330
A
100
AcDbEntity
  8
0
  6
Continuous
 62
     7
100
AcDbPolyline
 90
       25
 70
   128
 43
0.0
 10
-15.0207783033831
 20
25.41905417703321
 10
-15.20480936685293
 20
25.51076628990416
 10
-15.39816683663836
 20
25.59695571797639
 10
-15.59993684324882
 20
25.67721510233682
 10
-15.80916575684337
 20
25.75116511136315
 10
-16.02486469439162
 20
25.81845623356688
 10
-16.24601419345234
 20
25.87877042949685
 10
-16.47156903048041
 20
25.93182263489584
 10
-16.70046316088892
 20
25.97736210800569
 10
-16.93161475751813
 20
26.01517361465347
 10
-17.16393132369807
 20
26.04507844551724
 10
-17.3963148567386
 20
26.06693526076369
 10
-17.6276670374427
 20
26.08064075806562
 10
-17.85689442111562
 20
26.08613016084183
 10
-18.08291360553575
 20
26.08337752441214
 10
-18.30465635146124
 20
26.07239585862018
 10
-18.5210746314718
 20
26.05323706634479
 10
-18.73114558328277
 20
26.02599169819027
 10
-18.93387634412072
 20
25.99078852451519
 10
-19.12830874331176
 20
25.9477939268223
 10
-19.31352383090378
 20
25.89721111138615
 10
-19.48864622091904
 20
25.83927914883497
 10
-19.65284822870939
 20
25.77427184422609
 10
-19.80535378285965
 20
25.70249644295539
 10
-19.93956357834339
 20
25.62785441069915
  0
LWPOLYLINE
  5
1922
330
A
100
AcDbEntity
  8
0
  6
Continuous
 62
     7
100
AcDbPolyline
 90
        5
 70
   128
 43
0.0
 10
-15.00810860052856
 20
29.31618692904909
 10
-15.00042095257184
 20
29.31762605437616
 10
-14.9548153315038
 20
29.31625502932618
 10
-14.9076746803949
 20
29.29867788530658
 10
-14.86081058803047
 20
29.26557010210463
  0
LWPOLYLINE
  5
1929
330
A
100
AcDbEntity
  8
0
  6
Continuous
 62
     7
100
AcDbPolyline
 90
        6
 70
   128
 43
0.0
 10
-22.81167685732947
 20
26.51227484483187
 10
-22.81050097335053
 20
26.50841157389449
 10
-22.78629416172772
 20
26.45688113429891
 10
-22.74978703486023
 20
26.41614182972757
 10
-22.70257512937281
 20
26.38797416327905
 10
-22.65028528951445
 20
26.37406897052005
  0
LWPOLYLINE
  5
1931
330
A
100
AcDbEntity
  8
0
  6
Continuous
 62
     7
100
AcDbPolyline
 90
        9
 70
   128
 43
0.0
 10
-12.82507207258811
 20
27.47808933290389
 10
-12.78028549975603
 20
27.43072322406098
 10
-12.73929756933361
 20
27.37091904257676
 10
-12.70368342450072
 20
27.30097502960705
 10
-12.67481169687064
 20
27.22357909434523
 10
-12.65379191074474
 20
27.14170551917931
 10
-12.64143184471579
 20
27.05850065968766
 10
-12.6382064891897
 20
26.97716203195871
 10
-12.64423979277053
 20
26.90081543384086
  0
LWPOLYLINE
  5
193C
330
A
100
AcDbEntity
  8
0
  6
Continuous
 62
     7
100
AcDbPolyline
 90
        9
 70
   128
 43
0.0
 10
-13.98189242237403
 20
26.60502195033748
 10
-13.9758591187932
 20
26.68136854845532
 10
-13.9790844743193
 20
26.76270717618427
 10
-13.99144454034823
 20
26.84591203567593
 10
-14.01246432647414
 20
26.92778561084185
 10
-14.04133605410423
 20
27.00518154610366
 10
-14.07695019893711
 20
27.07512555907336
 10
-14.11793812935952
 20
27.1349297405576
 10
-14.16272470219162
 20
27.18229584940049
  0
LWPOLYLINE
  5
1947
330
A
100
AcDbEntity
  8
0
  6
Continuous
 62
     7
100
AcDbPolyline
 90
        9
 70
   128
 43
0.0
 10
-14.13848769279268
 20
26.74252047104521
 10
-14.13647659159907
 20
26.76796933708451
 10
-14.13755171010776
 20
26.79508221299416
 10
-14.14167173211741
 20
26.82281716615805
 10
-14.14867832749271
 20
26.85010835788002
 10
-14.15830223670274
 20
26.87590700296727
 10
-14.1701736183137
 20
26.89922167395719
 10
-14.18383626178784
 20
26.9191564011186
 10
-14.19876511939854
 20
26.93494510406623
  0
LINE
  5
1952
330
A
100
AcDbEntity
  8
0
  6
Continuous
 62
     7
100
AcDbLine
 10
-14.30366044556839
 20
27.30604451803748
 30
0.0
 11
-14.33970086277531
 21
27.0586937727032
 31
0.0
  0
LINE
  5
1953
330
A
100
AcDbEntity
  8
0
  6
Continuous
 62
     7
100
AcDbLine
 10
-13.98189242237403
 20
26.60502195033748
 30
0.0
 11
-14.02469041780725
 21
26.31129294025303
 31
0.0
  0
LINE
  5
1954
330
A
100
AcDbEntity
  8
0
  6
Continuous
 62
     7
100
AcDbLine
 10
-14.02469041780725
 20
26.31129294025303
 30
0.0
 11
-14.18128568822589
 21
26.44879146096077
 31
0.0
  0
LINE
  5
1955
330
A
100
AcDbEntity
  8
0
  6
Continuous
 62
     7
100
AcDbLine
 10
-14.13848769279267
 20
26.74252047104521
 30
0.0
 11
-14.18128568822589
 21
26.44879146096077
 31
0.0
  0
LINE
  5
1956
330
A
100
AcDbEntity
  8
0
  6
Continuous
 62
     7
100
AcDbLine
 10
-14.19876511939854
 20
26.93494510406623
 30
0.0
 11
-14.33970086277531
 21
27.0586937727032
 31
0.0
  0
LINE
  5
1957
330
A
100
AcDbEntity
  8
0
  6
Continuous
 62
     7
100
AcDbLine
 10
-12.82444187880513
 20
25.66406170716951
 30
0.0
 11
-12.64423979277053
 21
26.90081543384086
 31
0.0
  0
LINE
  5
1958
330
A
100
AcDbEntity
  8
0
  6
Continuous
 62
     7
100
AcDbLine
 10
-14.11929651297542
 20
25.66199723375057
 30
0.0
 11
-14.16209450840864
 21
25.36826822366613
 31
0.0
  0
LINE
  5
1959
330
A
100
AcDbEntity
  8
0
  6
Continuous
 62
     7
100
AcDbLine
 10
-14.11929651297542
 20
25.66199723375057
 30
0.0
 11
-13.95925593050499
 21
25.69738681124114
 31
0.0
  0
LWPOLYLINE
  5
195A
330
A
100
AcDbEntity
  8
0
  6
Continuous
 62
     7
100
AcDbPolyline
 90
       16
 70
   128
 43
0.0
 10
-13.95925593050499
 20
25.69738681124114
 10
-13.89303936574744
 20
25.71889495589696
 10
-13.8276494124475
 20
25.75365176044409
 10
-13.76594392534016
 20
25.80013818574217
 10
-13.71061973030783
 20
25.8563225519391
 10
-13.66409476014834
 20
25.91974933262954
 10
-13.62840237930924
 20
25.98764647314187
 10
-13.60510251610425
 20
26.05704654262904
 10
-13.59521348636057
 20
26.12491642503603
 10
-13.59916748813082
 20
26.18828988082582
 10
-13.61679171256426
 20
26.24439718588076
 10
-13.64731589648271
 20
26.2907861817373
 10
-13.68940598657767
 20
26.32542944667735
 10
-13.74122244394131
 20
26.34681290378625
 10
-13.8005006407439
 20
26.35400199337909
 10
-13.86464983533683
 20
26.34668251774361
  0
LINE
  5
196C
330
A
100
AcDbEntity
  8
0
  6
Continuous
 62
     7
100
AcDbLine
 10
-13.86464983533683
 20
26.34668251774361
 30
0.0
 11
-14.02469041780725
 21
26.31129294025303
 31
0.0
  0
LINE
  5
196D
330
A
100
AcDbEntity
  8
0
  6
Continuous
 62
     7
100
AcDbLine
 10
-14.33970086277531
 20
27.0586937727032
 30
0.0
 11
-14.76849538293466
 21
27.15050939437309
 31
0.0
  0
LWPOLYLINE
  5
196E
330
A
100
AcDbEntity
  8
0
  6
Continuous
 62
     7
100
AcDbPolyline
 90
       11
 70
   128
 43
0.0
 10
-13.76172461695793
 20
26.35104909066426
 10
-13.75576275854946
 20
26.32578840153356
 10
-13.7518087567792
 20
26.26241494574378
 10
-13.76169778652289
 20
26.1945450633368
 10
-13.78499764972788
 20
26.1251449938496
 10
-13.82069003056698
 20
26.05724785333728
 10
-13.86721500072647
 20
25.99382107264684
 10
-13.92253919575881
 20
25.93763670644992
 10
-13.98424468286614
 20
25.89115028115183
 10
-14.04963463616609
 20
25.8563934766047
 10
-14.11585120092363
 20
25.8348853319489
  0
LWPOLYLINE
  5
197B
330
A
100
AcDbEntity
  8
0
  6
Continuous
 62
     7
100
AcDbPolyline
 90
        9
 70
   128
 43
0.0
 10
-14.45104803984699
 20
25.20348988672635
 10
-14.40418394748254
 20
25.1703821035244
 10
-14.35704329637365
 20
25.15280495950478
 10
-14.31143767530561
 20
25.15143393445482
 10
-14.26911968272017
 20
25.16632171609828
 10
-14.23171557534016
 20
25.19689617533578
 10
-14.20066277203574
 20
25.24198235284517
 10
-14.17715461462329
 20
25.29984761210939
 10
-14.16209450840864
 20
25.36826822366613
  0
LINE
  5
1986
330
A
100
AcDbEntity
  8
0
  6
Continuous
 62
     7
100
AcDbLine
 10
-14.55594336601684
 20
25.57458930069758
 30
0.0
 11
-14.59198378322376
 21
25.32723855536331
 31
0.0
  0
LWPOLYLINE
  5
1987
330
A
100
AcDbEntity
  8
0
  6
Continuous
 62
     7
100
AcDbPolyline
 90
        9
 70
   128
 43
0.0
 10
-14.41500762264006
 20
25.45084063206061
 10
-14.39938625851858
 20
25.43980470432663
 10
-14.38367270814896
 20
25.4339456563201
 10
-14.3684708344596
 20
25.4334886479701
 10
-14.35436483693112
 20
25.43845124185126
 10
-14.34189680113778
 20
25.44864272826376
 10
-14.33154586670298
 20
25.46367145410022
 10
-14.32370981423216
 20
25.48295987385496
 10
-14.31868977882728
 20
25.50576674437387
  0
LINE
  5
1992
330
A
100
AcDbEntity
  8
0
  6
Continuous
 62
     7
100
AcDbLine
 10
-14.27589178339406
 20
25.79949575445831
 30
0.0
 11
-14.11929651297542
 21
25.66199723375057
 31
0.0
  0
LINE
  5
1993
330
A
100
AcDbEntity
  8
0
  6
Continuous
 62
     7
100
AcDbLine
 10
-14.27589178339406
 20
25.79949575445831
 30
0.0
 11
-14.31868977882728
 21
25.50576674437387
 31
0.0
  0
LINE
  5
1994
330
A
100
AcDbEntity
  8
0
  6
Continuous
 62
     7
100
AcDbLine
 10
-14.59198378322376
 20
25.32723855536331
 30
0.0
 11
-14.45104803984698
 21
25.20348988672634
 31
0.0
  0
LINE
  5
1995
330
A
100
AcDbEntity
  8
0
  6
Continuous
 62
     7
100
AcDbLine
 10
-14.27589178339406
 20
25.79949575445831
 30
0.0
 11
-14.11585120092363
 21
25.8348853319489
 31
0.0
  0
LWPOLYLINE
  5
1996
330
A
100
AcDbEntity
  8
0
  6
Continuous
 62
     7
100
AcDbPolyline
 90
        6
 70
   128
 43
0.0
 10
-12.82444187880513
 20
25.66406170716952
 10
-12.83950198501979
 20
25.59564109561277
 10
-12.86301014243224
 20
25.53777583634856
 10
-12.89406294573665
 20
25.49268965883917
 10
-12.93146705311666
 20
25.46211519960166
 10
-12.96609739774539
 20
25.44866654328528
  0
LINE
  5
199E
330
A
100
AcDbEntity
  8
0
  6
Continuous
 62
     7
100
AcDbLine
 10
-15.0207783033831
 20
25.41905417703321
 30
0.0
 11
-14.59198378322376
 21
25.32723855536331
 31
0.0
  0
LINE
  5
1ACD
330
A
100
AcDbEntity
  8
0
  6
PHANTOM
 62
     7
100
AcDbLine
 10
-19.92255139214942
 20
11.00899791204403
 30
0.0
 11
-21.26020402175293
 21
10.71320442854064
 31
0.0
  0
LINE
  5
1ACE
330
A
100
AcDbEntity
  8
0
  6
PHANTOM
 62
     7
100
AcDbLine
 10
-21.44103630157051
 20
11.29047832760367
 30
0.0
 11
-20.10338367196701
 21
11.58627181110706
 31
0.0
  0
LINE
  5
1ACF
330
A
100
AcDbEntity
  8
0
  6
PHANTOM
 62
     7
100
AcDbLine
 10
-21.44040610778754
 20
9.476450701869294
 30
0.0
 11
-20.10275347818403
 21
9.772244185372677
 31
0.0
  0
LINE
  5
1AD1
330
A
100
AcDbEntity
  8
0
  6
PHANTOM
 62
     7
100
AcDbLine
 10
-14.17949345515151
 20
12.89621438090776
 30
0.0
 11
-12.841840825548
 21
13.19200786441115
 31
0.0
  0
LINE
  5
1AD3
330
A
100
AcDbEntity
  8
0
  6
PHANTOM
 62
     7
100
AcDbLine
 10
-21.60681244106728
 20
9.578152248515426
 30
0.0
 11
-21.69331922201896
 21
9.559023110263781
 31
0.0
  0
LINE
  5
1AD4
330
A
100
AcDbEntity
  8
0
  6
PHANTOM
 62
     7
100
AcDbLine
 10
-23.72905773746133
 20
11.34650387946452
 30
0.0
 11
-22.20612454286089
 21
11.68326822680284
 31
0.0
  0
LINE
  5
1AD6
330
A
100
AcDbEntity
  8
0
  6
PHANTOM
 62
     7
100
AcDbLine
 10
-14.34526959464828
 20
11.18388830181952
 30
0.0
 11
-14.43177637559996
 21
11.16475916356787
 31
0.0
  0
LINE
  5
1AD7
330
A
100
AcDbEntity
  8
0
  6
PHANTOM
 62
     7
100
AcDbLine
 10
-23.60913307803258
 20
12.77568223915689
 30
0.0
 11
-23.48222197848254
 21
12.80374593476841
 31
0.0
  0
LINE
  5
1AD8
330
A
100
AcDbEntity
  8
0
  6
PHANTOM
 62
     7
100
AcDbLine
 10
-15.87664466485217
 20
13.28865204671932
 30
0.0
 11
-20.28359218689568
 21
12.31414915238549
 31
0.0
  0
LINE
  5
1AD9
330
A
100
AcDbEntity
  8
0
  6
PHANTOM
 62
     7
100
AcDbLine
 10
-22.39331306901679
 20
11.84762916421232
 30
0.0
 11
-23.78933516406719
 21
11.53892851248554
 31
0.0
  0
LINE
  5
1ADA
330
A
100
AcDbEntity
  8
0
  6
PHANTOM
 62
     7
100
AcDbLine
 10
-12.66100854573042
 20
12.61473396534812
 30
0.0
 11
-13.99866117533393
 21
12.31894048184473
 31
0.0
  0
LINE
  5
1ADB
330
A
100
AcDbEntity
  8
0
  6
PHANTOM
 62
     7
100
AcDbLine
 10
-14.17886326136853
 20
11.08218675517338
 30
0.0
 11
-12.84121063176503
 21
11.37798023867677
 31
0.0
  0
LINE
  5
1ADD
330
A
100
AcDbEntity
  8
0
  6
PHANTOM
 62
     7
100
AcDbLine
 10
-19.90578263918953
 20
25.29507938053676
 30
0.0
 11
-21.24343526879303
 21
24.99928589703338
 31
0.0
  0
LINE
  5
1ADE
330
A
100
AcDbEntity
  8
0
  6
PHANTOM
 62
     7
100
AcDbLine
 10
-21.42426754861062
 20
25.5765597960964
 30
0.0
 11
-20.08661491900711
 21
25.87235327959979
 31
0.0
  0
LINE
  5
1ADF
330
A
100
AcDbEntity
  8
0
  6
PHANTOM
 62
     7
100
AcDbLine
 10
-21.42363735482764
 20
23.76253217036203
 30
0.0
 11
-20.08598472522414
 21
24.05832565386542
 31
0.0
  0
LINE
  5
1AE1
330
A
100
AcDbEntity
  8
0
  6
PHANTOM
 62
     7
100
AcDbLine
 10
-14.16272470219162
 20
27.18229584940049
 30
0.0
 11
-12.82507207258811
 21
27.47808933290389
 31
0.0
  0
LINE
  5
1AE3
330
A
100
AcDbEntity
  8
0
  6
PHANTOM
 62
     7
100
AcDbLine
 10
-21.59004368810738
 20
23.86423371700816
 30
0.0
 11
-21.67655046905907
 21
23.84510457875652
 31
0.0
  0
LINE
  5
1AE6
330
A
100
AcDbEntity
  8
0
  6
PHANTOM
 62
     7
100
AcDbLine
 10
-14.32850084168838
 20
25.46996977031226
 30
0.0
 11
-14.41500762264006
 21
25.45084063206061
 31
0.0
  0
LINE
  5
1AE7
330
A
100
AcDbEntity
  8
0
  6
PHANTOM
 62
     7
100
AcDbLine
 10
-23.59236432507268
 20
27.06176370764962
 30
0.0
 11
-23.46545322552265
 21
27.08982740326114
 31
0.0
  0
LINE
  5
1AE8
330
A
100
AcDbEntity
  8
0
  6
PHANTOM
 62
     7
100
AcDbLine
 10
-15.85987591189227
 20
27.57473351521206
 30
0.0
 11
-20.26682343393578
 21
26.60023062087823
 31
0.0
  0
LINE
  5
1AE9
330
A
100
AcDbEntity
  8
0
  6
PHANTOM
 62
     7
100
AcDbLine
 10
-22.37654431605688
 20
26.13371063270506
 30
0.0
 11
-23.77256641110729
 21
25.82500998097827
 31
0.0
  0
LINE
  5
1AEA
330
A
100
AcDbEntity
  8
0
  6
PHANTOM
 62
     7
100
AcDbLine
 10
-12.64423979277053
 20
26.90081543384086
 30
0.0
 11
-13.98189242237403
 21
26.60502195033748
 31
0.0
  0
LINE
  5
1AEB
330
A
100
AcDbEntity
  8
0
  6
PHANTOM
 62
     7
100
AcDbLine
 10
-14.16209450840864
 20
25.36826822366613
 30
0.0
 11
-12.82444187880513
 21
25.66406170716951
 31
0.0
  0
INSERT
  5
1CD0
330
A
100
AcDbEntity
  8
0
  6
Continuous
100
AcDbBlockReference
 66
     1
  2
tft_aprlist
 10
-31.82486538171551
 20
16.64645989537507
 30
0.0
 41
4.0
 42
4.0
 43
4.0
  0
ATTRIB
  5
1CD1
330
1CD0
100
AcDbEntity
  8
DIM
100
AcDbText
 10
-25.8298653714475
 20
3.818679838501145
 30
0.0
 40
0.5200000000000001
  1
XGB-53
  7
SIMPLEX
100
AcDbAttribute
  2
PART_#
 70
     0
  0
ATTRIB
  5
1CD2
330
1CD0
100
AcDbEntity
  8
DIM
100
AcDbText
 10
-25.80613040134822
 20
2.521937457102588
 30
0.0
 40
0.5200000000000001
  1
BRACKET SET 4" SADDLE/SADDLE
  7
SIMPLEX
100
AcDbAttribute
  2
PART_DESCRIPTION
 70
     0
  0
ATTRIB
  5
1CD3
330
1CD0
100
AcDbEntity
  8
DIM
100
AcDbText
 10
-25.82486537585177
 20
1.268629683170907
 30
0.0
 40
0.5200000000000001
  1
EXTEND-A-GUN RC4
  7
SIMPLEX
100
AcDbAttribute
  2
EXTRA_DESCRIPTION
 70
     0
  0
ATTRIB
  5
1CD4
330
1CD0
100
AcDbEntity
  8
DIM
100
AcDbText
 10
-10.146222518709
 20
3.646459902281207
 30
0.0
 40
0.4
  1
1 OF 1
  7
SIMPLEX
 72
     4
 11
-9.203365375851859
 21
3.846459902281207
 31
0.0
100
AcDbAttribute
  2
SHEET
 70
     0
  0
ATTRIB
  5
1CD5
330
1CD0
100
AcDbEntity
  8
DIM
100
AcDbText
 10
1.658134624888518
 20
1.282183795893853
 30
0.0
 40
0.3199999999999999
  1
X/FIN&SUB/XGA4/XGB-53
  7
SIMPLEX
100
AcDbAttribute
  2
FILE_NAME
 70
     0
  0
ATTRIB
  5
1CD6
330
1CD0
100
AcDbEntity
  8
DIM
100
AcDbText
 10
2.550134624148235
 20
5.177484454993349
 30
0.0
 40
0.3199999999999999
  1
FULL
  7
SIMPLEX
100
AcDbAttribute
  2
SCALE
 70
     0
  0
ATTRIB
  5
1CD7
330
1CD0
100
AcDbEntity
  8
DIM
100
AcDbText
 10
0.6737600857858404
 20
3.80657865883831
 30
0.0
 40
0.3199999999999999
  1
9/13/04
  7
SIMPLEX
 72
     4
 11
1.702331514357268
 21
3.943721515981167
 31
0.0
100
AcDbAttribute
  2
DATE
 70
     0
  0
ATTRIB
  5
1CD8
330
1CD0
100
AcDbEntity
  8
DIM
100
AcDbText
 10
3.585853761582508
 20
3.783721515981167
 30
0.0
 40
0.3199999999999999
  1
CPD
  7
SIMPLEX
 72
     4
 11
4.012520428249175
 21
3.943721515981167
 31
0.0
100
AcDbAttribute
  2
WHO?
 70
     0
  0
ATTRIB
  5
1CD9
330
1CD0
100
AcDbEntity
  8
DIM
100
AcDbText
 10
0.6280458000715546
 20
2.509469796942511
 30
0.0
 40
0.3199999999999999
  1
9/13/04
  7
SCRIPT
 72
     4
 11
1.702331514357268
 21
2.646612654085368
 31
0.0
100
AcDbAttribute
  2
DATE
 70
     0
  0
ATTRIB
  5
1CDA
330
1CD0
100
AcDbEntity
  8
DIM
100
AcDbText
 10
3.547758523487362
 20
2.486612654085369
 30
0.0
 40
0.3199999999999999
  1
LRS
  7
SCRIPT
 72
     4
 11
4.012520428249267
 21
2.64661265408537
 31
0.0
100
AcDbAttribute
  2
WHO?
 70
     0
  0
ATTRIB
  5
1CDB
330
1CD0
100
AcDbEntity
  8
DIM
100
AcDbText
 10
5.285718040857453
 20
2.486612654085369
 30
0.0
 40
0.3199999999999999
  1
Larry Shepard
  7
SCRIPT
 11
5.285718040857453
 21
2.64661265408537
 31
0.0
100
AcDbAttribute
  2
WHO?
 70
     0
 74
     2
  0
SEQEND
  5
1CDC
330
1CD0
100
AcDbEntity
  8
0
  6
Continuous
  0
ENDSEC
  0
SECTION
  2
OBJECTS
  0
DICTIONARY
  5
19
330
0
100
AcDbDictionary
281
     1
  3
ACAD_COLOR
350
1B12
  3
ACAD_GROUP
350
1A
  3
ACAD_LAYOUT
350
1AF2
  3
ACAD_MATERIAL
350
1B11
  3
ACAD_MLINESTYLE
350
1B
  3
ACAD_PLOTSETTINGS
350
1AF3
  3
ACAD_PLOTSTYLENAME
350
1AF0
  3
ACAD_TABLESTYLE
350
1B13
  3
AcDbVariableDictionary
350
1AFD
  3
ASE_INDEX_DICTIONARY
350
1CF5
  0
DICTIONARY
  5
1B12
102
{ACAD_REACTORS
330
19
102
}
330
19
100
AcDbDictionary
281
     1
  0
DICTIONARY
  5
1A
102
{ACAD_REACTORS
330
19
102
}
330
19
100
AcDbDictionary
281
     1
  0
DICTIONARY
  5
1AF2
102
{ACAD_REACTORS
330
19
102
}
330
19
100
AcDbDictionary
281
     1
  3
Layout1
350
1AF5
  3
Model
350
1AF4
  0
DICTIONARY
  5
1B11
102
{ACAD_REACTORS
330
19
102
}
330
19
100
AcDbDictionary
281
     1
  0
DICTIONARY
  5
1B
102
{ACAD_REACTORS
330
19
102
}
330
19
100
AcDbDictionary
281
     1
  3
STANDARD
350
1C
  0
DICTIONARY
  5
1AF3
102
{ACAD_REACTORS
330
19
102
}
330
19
100
AcDbDictionary
281
     1
  0
ACDBDICTIONARYWDFLT
  5
1AF0
102
{ACAD_REACTORS
330
19
102
}
330
19
100
AcDbDictionary
281
     1
  3
Normal
350
1AF1
100
AcDbDictionaryWithDefault
340
1AF1
  0
DICTIONARY
  5
1B13
102
{ACAD_REACTORS
330
19
102
}
330
19
100
AcDbDictionary
281
     1
  3
Standard
350
1B14
  0
DICTIONARY
  5
1AFD
102
{ACAD_REACTORS
330
19
102
}
330
19
100
AcDbDictionary
281
     1
  3
CTABLESTYLE
350
1CEC
  3
DIMASSOC
350
1AFE
  3
PROJECTNAME
350
1D18
  0
DICTIONARY
  5
1CF5
102
{ACAD_REACTORS
330
19
102
}
330
19
100
AcDbDictionary
281
     1
  3
ASEBlockHierarchyIndexRecord
350
1CF6
1001
DCO15
1040
1522726409.238
  0
LAYOUT
  5
1AF5
102
{ACAD_REACTORS
330
1AF2
102
}
330
1AF2
100
AcDbPlotSettings
  1

  2
\\artemis\ENG_South_Color_LJ
  4

  6

 40
0.0
 41
0.0
 42
0.0
 43
0.0
 44
0.0
 45
0.0
 46
0.0
 47
0.0
 48
0.0
 49
0.0
140
0.0
141
0.0
142
1.0
143
1.0
 70
   688
 72
     0
 73
     0
 74
     5
  7
monochrome.ctb
 75
    16
147
1.0
 76
     0
 77
     2
 78
   300
148
0.0
149
0.0
100
AcDbLayout
  1
Layout1
 70
     1
 71
     1
 10
0.0
 20
0.0
 11
12.0
 21
9.0
 12
0.0
 22
0.0
 32
0.0
 14
1.000000000000000E+20
 24
1.000000000000000E+20
 34
1.000000000000000E+20
 15
-1.000000000000000E+20
 25
-1.000000000000000E+20
 35
-1.000000000000000E+20
146
0.0
 13
0.0
 23
0.0
 33
0.0
 16
1.0
 26
0.0
 36
0.0
 17
0.0
 27
1.0
 37
0.0
 76
     0
330
B
  0
LAYOUT
  5
1AF4
102
{ACAD_REACTORS
330
1AF2
102
}
330
1AF2
100
AcDbPlotSettings
  1

  2
Acrobat Distiller.pc3
  4
Letter
  6

 40
3.174999952316284
 41
3.174999952316284
 42
3.17498779296875
 43
3.175003051757812
 44
279.3999938964844
 45
215.8999938964844
 46
0.0
 47
1.564706039770963
 48
-31.82486538171551
 49
0.8464598953750694
140
9.975134618284492
141
32.44645989537506
142
1.0
143
3.888372005427023
 70
 11956
 72
     0
 73
     0
 74
     4
  7
monochrome.ctb
 75
     0
147
0.2571770392864403
 76
     0
 77
     2
 78
   300
148
808.3515806955738
149
-21.50008134252676
100
AcDbLayout
  1
Model
 70
     1
 71
     0
 10
0.0
 20
0.0
 11
12.0
 21
9.0
 12
0.0
 22
0.0
 32
0.0
 14
0.0
 24
0.0
 34
0.0
 15
0.0
 25
0.0
 35
0.0
146
0.0
 13
0.0
 23
0.0
 33
0.0
 16
1.0
 26
0.0
 36
0.0
 17
0.0
 27
1.0
 37
0.0
 76
     0
330
A
1001
ACAD_PSEXT
1000
Acrobat Distiller.pc3
1000
AdobePS Acrobat Distiller
1000
C:\Documents and Settings\All Users\Desktop\*.pdf
1000

1070
     0
  0
MLINESTYLE
  5
1C
102
{ACAD_REACTORS
330
1B
102
}
330
1B
100
AcDbMlineStyle
  2
STANDARD
 70
     0
  3

 62
     0
 51
90.0
 52
90.0
 71
     2
 49
0.5
 62
   256
  6
BYLAYER
 49
-0.5
 62
   256
  6
BYLAYER
  0
ACDBPLACEHOLDER
  5
1AF1
102
{ACAD_REACTORS
330
1AF0
102
}
330
1AF0
  0
TABLESTYLE
  5
1B14
102
{ACAD_REACTORS
330
1B13
102
}
330
1B13
100
AcDbTableStyle
  3
Standard
 70
     0
 71
     0
 40
0.06
 41
0.06
280
     0
281
     0
  7
STANDARD
140
0.18
170
     2
 62
     0
 63
     7
283
     0
274
    -2
284
     1
 64
     0
275
    -2
285
     1
 65
     0
276
    -2
286
     1
 66
     0
277
    -2
287
     1
 67
     0
278
    -2
288
     1
 68
     0
279
    -2
289
     1
 69
     0
  7
STANDARD
140
0.25
170
     5
 62
     0
 63
     7
283
     0
274
    -2
284
     1
 64
     0
275
    -2
285
     1
 65
     0
276
    -2
286
     1
 66
     0
277
    -2
287
     1
 67
     0
278
    -2
288
     1
 68
     0
279
    -2
289
     1
 69
     0
  7
STANDARD
140
0.18
170
     5
 62
     0
 63
     7
283
     0
274
    -2
284
     1
 64
     0
275
    -2
285
     1
 65
     0
276
    -2
286
     1
 66
     0
277
    -2
287
     1
 67
     0
278
    -2
288
     1
 68
     0
279
    -2
289
     1
 69
     0
  0
DICTIONARYVAR
  5
1CEC
102
{ACAD_REACTORS
330
1AFD
102
}
330
1AFD
100
DictionaryVariables
280
     0
  1
STANDARD
  0
DICTIONARYVAR
  5
1AFE
102
{ACAD_REACTORS
330
1AFD
102
}
330
1AFD
100
DictionaryVariables
280
     0
  1
1
  0
DICTIONARYVAR
  5
1D18
102
{ACAD_REACTORS
330
1AFD
102
}
330
1AFD
100
DictionaryVariables
280
     0
  1

  0
XRECORD
  5
1CF6
102
{ACAD_REACTORS
330
1CF5
102
}
330
1CF5
100
AcDbXrecord
280
     1
330
1CD0
330
1BA0
330
1C48
  0
ENDSEC
  0
EOF
