  0
SECTION
  2
HEADER
  9
$ACADVER
  1
AC1018
  9
$ACADMAINTVER
 70
    39
  9
$DWGCODEPAGE
  3
ANSI_1252
  9
$INSBASE
 10
0.0
 20
0.0
 30
0.0
  9
$EXTMIN
 10
11.526077425764
 20
8.912272680836926
 30
0.0
  9
$EXTMAX
 10
32.72724409243068
 20
24.71227268083693
 30
2.0
  9
$LIMMIN
 10
0.0
 20
0.0
  9
$LIMMAX
 10
12.0
 20
9.0
  9
$ORTHOMODE
 70
     0
  9
$REGENMODE
 70
     1
  9
$FILLMODE
 70
     1
  9
$QTEXTMODE
 70
     0
  9
$MIRRTEXT
 70
     0
  9
$LTSCALE
 40
1.0
  9
$ATTMODE
 70
     1
  9
$TEXTSIZE
 40
0.2
  9
$TRACEWID
 40
0.05
  9
$TEXTSTYLE
  7
simplex
  9
$CLAYER
  8
0
  9
$CELTYPE
  6
ByLayer
  9
$CECOLOR
 62
   256
  9
$CELTSCALE
 40
1.0
  9
$DISPSILH
 70
     0
  9
$DIMSCALE
 40
1.0
  9
$DIMASZ
 40
0.1
  9
$DIMEXO
 40
0.0625
  9
$DIMDLI
 40
0.38
  9
$DIMRND
 40
0.0
  9
$DIMDLE
 40
0.0
  9
$DIMEXE
 40
0.18
  9
$DIMTP
 40
0.0
  9
$DIMTM
 40
0.0
  9
$DIMTXT
 40
0.1
  9
$DIMCEN
 40
0.09
  9
$DIMTSZ
 40
0.0
  9
$DIMTOL
 70
     0
  9
$DIMLIM
 70
     0
  9
$DIMTIH
 70
     0
  9
$DIMTOH
 70
     0
  9
$DIMSE1
 70
     0
  9
$DIMSE2
 70
     0
  9
$DIMTAD
 70
     0
  9
$DIMZIN
 70
     0
  9
$DIMBLK
  1

  9
$DIMASO
 70
     1
  9
$DIMSHO
 70
     1
  9
$DIMPOST
  1

  9
$DIMAPOST
  1

  9
$DIMALT
 70
     0
  9
$DIMALTD
 70
     2
  9
$DIMALTF
 40
25.4
  9
$DIMLFAC
 40
1.0
  9
$DIMTOFL
 70
     0
  9
$DIMTVP
 40
0.0
  9
$DIMTIX
 70
     0
  9
$DIMSOXD
 70
     0
  9
$DIMSAH
 70
     0
  9
$DIMBLK1
  1

  9
$DIMBLK2
  1

  9
$DIMSTYLE
  2
Standard
  9
$DIMCLRD
 70
     0
  9
$DIMCLRE
 70
     0
  9
$DIMCLRT
 70
     0
  9
$DIMTFAC
 40
1.0
  9
$DIMGAP
 40
0.09
  9
$DIMJUST
 70
     0
  9
$DIMSD1
 70
     0
  9
$DIMSD2
 70
     0
  9
$DIMTOLJ
 70
     1
  9
$DIMTZIN
 70
     0
  9
$DIMALTZ
 70
     0
  9
$DIMALTTZ
 70
     0
  9
$DIMUPT
 70
     0
  9
$DIMDEC
 70
     3
  9
$DIMTDEC
 70
     3
  9
$DIMALTU
 70
     2
  9
$DIMALTTD
 70
     2
  9
$DIMTXSTY
  7
simplex
  9
$DIMAUNIT
 70
     0
  9
$DIMADEC
 70
     0
  9
$DIMALTRND
 40
0.0
  9
$DIMAZIN
 70
     0
  9
$DIMDSEP
 70
    46
  9
$DIMATFIT
 70
     3
  9
$DIMFRAC
 70
     0
  9
$DIMLDRBLK
  1

  9
$DIMLUNIT
 70
     2
  9
$DIMLWD
 70
    -2
  9
$DIMLWE
 70
    -2
  9
$DIMTMOVE
 70
     0
  9
$LUNITS
 70
     2
  9
$LUPREC
 70
     4
  9
$SKETCHINC
 40
0.1
  9
$FILLETRAD
 40
0.0
  9
$AUNITS
 70
     0
  9
$AUPREC
 70
     0
  9
$MENU
  1
.
  9
$ELEVATION
 40
0.0
  9
$PELEVATION
 40
0.0
  9
$THICKNESS
 40
0.0
  9
$LIMCHECK
 70
     0
  9
$CHAMFERA
 40
0.0
  9
$CHAMFERB
 40
0.0
  9
$CHAMFERC
 40
0.0
  9
$CHAMFERD
 40
0.0
  9
$SKPOLY
 70
     0
  9
$TDCREATE
 40
2453298.550024514
  9
$TDUCREATE
 40
2453298.800024514
  9
$TDUPDATE
 40
2454475.349848218
  9
$TDUUPDATE
 40
2454475.599848218
  9
$TDINDWG
 40
0.0008473958
  9
$TDUSRTIMER
 40
0.0008472106
  9
$USRTIMER
 70
     1
  9
$ANGBASE
 50
0.0
  9
$ANGDIR
 70
     0
  9
$PDMODE
 70
     0
  9
$PDSIZE
 40
0.0
  9
$PLINEWID
 40
0.0
  9
$SPLFRAME
 70
     0
  9
$SPLINETYPE
 70
     6
  9
$SPLINESEGS
 70
     8
  9
$HANDSEED
  5
1152
  9
$SURFTAB1
 70
     6
  9
$SURFTAB2
 70
     6
  9
$SURFTYPE
 70
     6
  9
$SURFU
 70
     6
  9
$SURFV
 70
     6
  9
$UCSBASE
  2

  9
$UCSNAME
  2

  9
$UCSORG
 10
0.0
 20
0.0
 30
0.0
  9
$UCSXDIR
 10
1.0
 20
0.0
 30
0.0
  9
$UCSYDIR
 10
0.0
 20
1.0
 30
0.0
  9
$UCSORTHOREF
  2

  9
$UCSORTHOVIEW
 70
     0
  9
$UCSORGTOP
 10
0.0
 20
0.0
 30
0.0
  9
$UCSORGBOTTOM
 10
0.0
 20
0.0
 30
0.0
  9
$UCSORGLEFT
 10
0.0
 20
0.0
 30
0.0
  9
$UCSORGRIGHT
 10
0.0
 20
0.0
 30
0.0
  9
$UCSORGFRONT
 10
0.0
 20
0.0
 30
0.0
  9
$UCSORGBACK
 10
0.0
 20
0.0
 30
0.0
  9
$PUCSBASE
  2

  9
$PUCSNAME
  2

  9
$PUCSORG
 10
0.0
 20
0.0
 30
0.0
  9
$PUCSXDIR
 10
1.0
 20
0.0
 30
0.0
  9
$PUCSYDIR
 10
0.0
 20
1.0
 30
0.0
  9
$PUCSORTHOREF
  2

  9
$PUCSORTHOVIEW
 70
     0
  9
$PUCSORGTOP
 10
0.0
 20
0.0
 30
0.0
  9
$PUCSORGBOTTOM
 10
0.0
 20
0.0
 30
0.0
  9
$PUCSORGLEFT
 10
0.0
 20
0.0
 30
0.0
  9
$PUCSORGRIGHT
 10
0.0
 20
0.0
 30
0.0
  9
$PUCSORGFRONT
 10
0.0
 20
0.0
 30
0.0
  9
$PUCSORGBACK
 10
0.0
 20
0.0
 30
0.0
  9
$USERI1
 70
     0
  9
$USERI2
 70
     0
  9
$USERI3
 70
     0
  9
$USERI4
 70
     0
  9
$USERI5
 70
     0
  9
$USERR1
 40
0.0
  9
$USERR2
 40
0.0
  9
$USERR3
 40
0.0
  9
$USERR4
 40
0.0
  9
$USERR5
 40
0.0
  9
$WORLDVIEW
 70
     1
  9
$SHADEDGE
 70
     3
  9
$SHADEDIF
 70
    70
  9
$TILEMODE
 70
     1
  9
$MAXACTVP
 70
    64
  9
$PINSBASE
 10
0.0
 20
0.0
 30
0.0
  9
$PLIMCHECK
 70
     0
  9
$PEXTMIN
 10
0.0
 20
0.0
 30
0.0
  9
$PEXTMAX
 10
0.0
 20
0.0
 30
0.0
  9
$PLIMMIN
 10
0.0
 20
0.0
  9
$PLIMMAX
 10
12.0
 20
9.0
  9
$UNITMODE
 70
     0
  9
$VISRETAIN
 70
     1
  9
$PLINEGEN
 70
     0
  9
$PSLTSCALE
 70
     1
  9
$TREEDEPTH
 70
  3020
  9
$CMLSTYLE
  2
Standard
  9
$CMLJUST
 70
     0
  9
$CMLSCALE
 40
1.0
  9
$PROXYGRAPHICS
 70
     1
  9
$MEASUREMENT
 70
     0
  9
$CELWEIGHT
370
    -1
  9
$ENDCAPS
280
     0
  9
$JOINSTYLE
280
     0
  9
$LWDISPLAY
290
     0
  9
$INSUNITS
 70
     1
  9
$HYPERLINKBASE
  1

  9
$STYLESHEET
  1

  9
$XEDIT
290
     1
  9
$CEPSNTYPE
380
     0
  9
$PSTYLEMODE
290
     1
  9
$FINGERPRINTGUID
  2
{04046404-B002-460D-893B-96646958F9DB}
  9
$VERSIONGUID
  2
{E080D986-9B9E-48DA-812B-7B8C991E9E75}
  9
$EXTNAMES
290
     1
  9
$PSVPSCALE
 40
0.0
  9
$OLESTARTUP
290
     0
  9
$SORTENTS
280
   127
  9
$INDEXCTL
280
     0
  9
$HIDETEXT
280
     1
  9
$XCLIPFRAME
290
     0
  9
$HALOGAP
280
     0
  9
$OBSCOLOR
 70
   257
  9
$OBSLTYPE
280
     0
  9
$INTERSECTIONDISPLAY
280
     0
  9
$INTERSECTIONCOLOR
 70
   257
  9
$DIMASSOC
280
     2
  9
$PROJECTNAME
  1

  0
ENDSEC
  0
SECTION
  2
CLASSES
  0
CLASS
  1
ACDBDICTIONARYWDFLT
  2
AcDbDictionaryWithDefault
  3
ObjectDBX Classes
 90
        0
 91
        1
280
     0
281
     0
  0
CLASS
  1
DICTIONARYVAR
  2
AcDbDictionaryVar
  3
ObjectDBX Classes
 90
        0
 91
        3
280
     0
281
     0
  0
CLASS
  1
TABLESTYLE
  2
AcDbTableStyle
  3
ObjectDBX Classes
 90
     2047
 91
        1
280
     0
281
     0
  0
CLASS
  1
ARCALIGNEDTEXT
  2
AcDbArcAlignedText
  3
ATEXT|AutoCAD Express Tool|expresstools@autodesk.com
 90
        0
 91
        2
280
     0
281
     1
  0
ENDSEC
  0
SECTION
  2
TABLES
  0
TABLE
  2
VPORT
  5
8
330
0
100
AcDbSymbolTable
 70
     2
  0
VPORT
  5
1151
330
8
100
AcDbSymbolTableRecord
100
AcDbViewportTableRecord
  2
*Active
 70
     0
 10
0.0
 20
0.0
 11
1.0
 21
1.0
 12
22.59594489956984
 22
17.94970979254258
 13
0.0
 23
0.0
 14
0.5
 24
0.5
 15
0.5
 25
0.5
 16
0.0
 26
0.0
 36
1.0
 17
0.0
 27
0.0
 37
0.0
 40
17.00466374999635
 41
1.452948557089084
 42
50.0
 43
0.0
 44
0.0
 50
0.0
 51
0.0
 71
     0
 72
  1000
 73
     1
 74
     3
 75
     0
 76
     0
 77
     0
 78
     0
281
     0
 65
     1
110
0.0
120
0.0
130
0.0
111
1.0
121
0.0
131
0.0
112
0.0
122
1.0
132
0.0
 79
     0
146
0.0
  0
ENDTAB
  0
TABLE
  2
LTYPE
  5
5
330
0
100
AcDbSymbolTable
 70
     4
  0
LTYPE
  5
14
330
5
100
AcDbSymbolTableRecord
100
AcDbLinetypeTableRecord
  2
ByBlock
 70
     0
  3

 72
    65
 73
     0
 40
0.0
  0
LTYPE
  5
15
330
5
100
AcDbSymbolTableRecord
100
AcDbLinetypeTableRecord
  2
ByLayer
 70
     0
  3

 72
    65
 73
     0
 40
0.0
  0
LTYPE
  5
16
330
5
100
AcDbSymbolTableRecord
100
AcDbLinetypeTableRecord
  2
Continuous
 70
     0
  3
Solid line
 72
    65
 73
     0
 40
0.0
  0
LTYPE
  5
12F
330
5
100
AcDbSymbolTableRecord
100
AcDbLinetypeTableRecord
  2
ACAD_ISO08W100
 70
     0
  3
ISO long-dash short-dash ____ __ ____ __ ____ _
 72
    65
 73
     4
 40
36.0
 49
24.0
 74
     0
 49
-3.0
 74
     0
 49
6.0
 74
     0
 49
-3.0
 74
     0
  0
LTYPE
  5
131
330
5
100
AcDbSymbolTableRecord
100
AcDbLinetypeTableRecord
  2
ACAD_ISO02W100
 70
     0
  3
ISO dash __ __ __ __ __ __ __ __ __ __ __ __ __
 72
    65
 73
     2
 40
15.0
 49
12.0
 74
     0
 49
-3.0
 74
     0
  0
LTYPE
  5
20B
330
5
100
AcDbSymbolTableRecord
100
AcDbLinetypeTableRecord
  2
CENTER
 70
     0
  3
____ _ ____ _ ____ _ ____ _ ____ _ ____ _ ____ 
 72
    65
 73
     4
 40
2.0
 49
1.25
 74
     0
 49
-0.25
 74
     0
 49
0.25
 74
     0
 49
-0.25
 74
     0
  0
ENDTAB
  0
TABLE
  2
LAYER
  5
2
102
{ACAD_XDICTIONARY
360
132
102
}
330
0
100
AcDbSymbolTable
 70
     9
  0
LAYER
  5
10
330
2
100
AcDbSymbolTableRecord
100
AcDbLayerTableRecord
  2
0
 70
     0
 62
     7
  6
Continuous
370
    -3
390
F
  0
LAYER
  5
129
330
2
100
AcDbSymbolTableRecord
100
AcDbLayerTableRecord
  2
PART
 70
     0
 62
     1
  6
Continuous
370
    -3
390
F
1001
AcAecLayerStandard
1000

1000

  0
LAYER
  5
12B
330
2
100
AcDbSymbolTableRecord
100
AcDbLayerTableRecord
  2
DIM
 70
     0
 62
     2
  6
Continuous
370
    -3
390
F
1001
AcAecLayerStandard
1000

1000

  0
LAYER
  5
12C
330
2
100
AcDbSymbolTableRecord
100
AcDbLayerTableRecord
  2
CENTER
 70
     0
 62
     5
  6
ACAD_ISO08W100
370
    -3
390
F
1001
AcAecLayerStandard
1000

1000

  0
LAYER
  5
130
330
2
100
AcDbSymbolTableRecord
100
AcDbLayerTableRecord
  2
HIDDEN
 70
     0
 62
     3
  6
ACAD_ISO02W100
370
    -3
390
F
1001
AcAecLayerStandard
1000

1000

  0
LAYER
  5
20C
330
2
100
AcDbSymbolTableRecord
100
AcDbLayerTableRecord
  2
TO
 70
     0
 62
     1
  6
Continuous
370
    -3
390
F
  0
LAYER
  5
20D
330
2
100
AcDbSymbolTableRecord
100
AcDbLayerTableRecord
  2
BUMPER
 70
     0
 62
     1
  6
Continuous
370
    -3
390
F
  0
LAYER
  5
20E
330
2
100
AcDbSymbolTableRecord
100
AcDbLayerTableRecord
  2
TRIM
 70
     0
 62
     1
  6
Continuous
370
    -3
390
F
  0
LAYER
  5
20F
330
2
100
AcDbSymbolTableRecord
100
AcDbLayerTableRecord
  2
SOLID
 70
     0
 62
     5
  6
Continuous
370
    -3
390
F
  0
ENDTAB
  0
TABLE
  2
STYLE
  5
3
330
0
100
AcDbSymbolTable
 70
     6
  0
STYLE
  5
11
330
3
100
AcDbSymbolTableRecord
100
AcDbTextStyleTableRecord
  2
Standard
 70
     0
 40
0.0
 41
1.0
 50
0.0
 71
     0
 42
0.2
  3
txt
  4

  0
STYLE
  5
CB
330
3
100
AcDbSymbolTableRecord
100
AcDbTextStyleTableRecord
  2
simplex
 70
     0
 40
0.0
 41
1.0
 50
0.0
 71
     0
 42
0.2
  3
simplex.shx
  4

  0
STYLE
  5
12E
330
3
100
AcDbSymbolTableRecord
100
AcDbTextStyleTableRecord
  2

 70
     1
 40
0.0
 41
1.0
 50
0.0
 71
     0
 42
0.2
  3
ltypeshp.shx
  4

  0
STYLE
  5
210
330
3
100
AcDbSymbolTableRecord
100
AcDbTextStyleTableRecord
  2
ROMAND
 70
     0
 40
0.0
 41
1.0
 50
0.0
 71
     0
 42
0.2
  3
C:\ACADR13\COMMON\FONTS\romand.shx
  4

  0
STYLE
  5
211
330
3
100
AcDbSymbolTableRecord
100
AcDbTextStyleTableRecord
  2
SCRIPT
 70
     0
 40
0.0
 41
0.95
 50
0.0
 71
     0
 42
0.09
  3
scripts.shx
  4

  0
STYLE
  5
212
330
3
100
AcDbSymbolTableRecord
100
AcDbTextStyleTableRecord
  2
COMPLEX
 70
     0
 40
0.0
 41
1.0
 50
0.0
 71
     0
 42
0.0814893995410913
  3
C:\ACADR13\COMMON\FONTS\simplex.shx
  4

  0
ENDTAB
  0
TABLE
  2
VIEW
  5
6
330
0
100
AcDbSymbolTable
 70
     0
  0
ENDTAB
  0
TABLE
  2
UCS
  5
7
330
0
100
AcDbSymbolTable
 70
     0
  0
ENDTAB
  0
TABLE
  2
APPID
  5
9
330
0
100
AcDbSymbolTable
 70
     5
  0
APPID
  5
12
330
9
100
AcDbSymbolTableRecord
100
AcDbRegAppTableRecord
  2
ACAD
 70
     0
  0
APPID
  5
8B
330
9
100
AcDbSymbolTableRecord
100
AcDbRegAppTableRecord
  2
ACAD_DSTYLE_DIMTEXT_FILL
 70
     0
  0
APPID
  5
123
330
9
100
AcDbSymbolTableRecord
100
AcDbRegAppTableRecord
  2
ACAD_PSEXT
 70
     0
  0
APPID
  5
12A
330
9
100
AcDbSymbolTableRecord
100
AcDbRegAppTableRecord
  2
AcAecLayerStandard
 70
     0
  0
APPID
  5
213
330
9
100
AcDbSymbolTableRecord
100
AcDbRegAppTableRecord
  2
DCO15
 70
     0
  0
ENDTAB
  0
TABLE
  2
DIMSTYLE
  5
A
330
0
100
AcDbSymbolTable
 70
     1
100
AcDbDimStyleTable
 71
     1
340
27
  0
DIMSTYLE
105
27
330
A
100
AcDbSymbolTableRecord
100
AcDbDimStyleTableRecord
  2
Standard
 70
     0
 41
0.1
 73
     0
 74
     0
140
0.1
271
     3
272
     3
340
CB
  0
ENDTAB
  0
TABLE
  2
BLOCK_RECORD
  5
1
330
0
100
AcDbSymbolTable
 70
     4
  0
BLOCK_RECORD
  5
1F
330
1
100
AcDbSymbolTableRecord
100
AcDbBlockTableRecord
  2
*Model_Space
340
22
  0
BLOCK_RECORD
  5
58
330
1
100
AcDbSymbolTableRecord
100
AcDbBlockTableRecord
  2
*Paper_Space
340
59
  0
BLOCK_RECORD
  5
5D
330
1
100
AcDbSymbolTableRecord
100
AcDbBlockTableRecord
  2
*Paper_Space0
340
5E
  0
BLOCK_RECORD
  5
17B
330
1
100
AcDbSymbolTableRecord
100
AcDbBlockTableRecord
  2
A$C4FB65283
340
0
102
{BLKREFS
331
181
102
}
  0
BLOCK_RECORD
  5
17F
330
1
100
AcDbSymbolTableRecord
100
AcDbBlockTableRecord
  2
tft_aprlist
340
0
  0
BLOCK_RECORD
  5
205
330
1
100
AcDbSymbolTableRecord
100
AcDbBlockTableRecord
  2
rvsn_blk
340
0
  0
ENDTAB
  0
ENDSEC
  0
SECTION
  2
BLOCKS
  0
BLOCK
  5
20
330
1F
100
AcDbEntity
  8
0
100
AcDbBlockBegin
  2
*Model_Space
 70
     0
 10
0.0
 20
0.0
 30
0.0
  3
*Model_Space
  1

  0
ENDBLK
  5
21
330
1F
100
AcDbEntity
  8
0
100
AcDbBlockEnd
  0
BLOCK
  5
5A
330
58
100
AcDbEntity
 67
     1
  8
0
100
AcDbBlockBegin
  2
*Paper_Space
 70
     0
 10
0.0
 20
0.0
 30
0.0
  3
*Paper_Space
  1

  0
ENDBLK
  5
5B
330
58
100
AcDbEntity
 67
     1
  8
0
100
AcDbBlockEnd
  0
BLOCK
  5
5F
330
5D
100
AcDbEntity
  8
0
100
AcDbBlockBegin
  2
*Paper_Space0
 70
     0
 10
0.0
 20
0.0
 30
0.0
  3
*Paper_Space0
  1

  0
ENDBLK
  5
60
330
5D
100
AcDbEntity
  8
0
100
AcDbBlockEnd
  0
BLOCK
  5
17C
330
17B
100
AcDbEntity
  8
0
100
AcDbBlockBegin
  2
A$C4FB65283
 70
     2
 10
0.0
 20
0.0
 30
0.0
  3
A$C4FB65283
  1

  0
ATTDEF
  5
17D
330
17B
100
AcDbEntity
  8
DIM
100
AcDbText
 10
0.0000000025669991
 20
0.0433333427455174
 30
0.0
 40
0.13
  1

  7
simplex
100
AcDbAttributeDefinition
  3
PART_#
  2
PART_#
 70
     0
  0
ENDBLK
  5
17E
330
17B
100
AcDbEntity
  8
0
100
AcDbBlockEnd
  0
BLOCK
  5
180
330
17F
100
AcDbEntity
  8
0
100
AcDbBlockBegin
  2
tft_aprlist
 70
     2
 10
0.0
 20
0.0
 30
0.0
  3
tft_aprlist
  1

  0
INSERT
  5
181
330
17F
100
AcDbEntity
  8
DIM
100
AcDbBlockReference
 66
     1
  2
A$C4FB65283
 10
0.9375
 20
-0.9375
 30
0.0
  0
ATTRIB
  5
182
330
181
100
AcDbEntity
  8
DIM
100
AcDbText
 10
0.937500002566999
 20
-0.8941666572544825
 30
0.0
 40
0.13
  1

  7
simplex
100
AcDbAttribute
  2
PART_#
 70
     0
  0
SEQEND
  5
183
330
181
100
AcDbEntity
  8
DIM
  0
LINE
  5
184
330
17F
100
AcDbEntity
  8
TRIM
100
AcDbLine
 10
10.42
 20
3.919999999999998
 30
0.0
 11
0.0299999999999994
 21
3.919999999999998
 31
0.0
  0
LINE
  5
185
330
17F
100
AcDbEntity
  8
TRIM
100
AcDbLine
 10
0.0000000000000004
 20
3.949999999999998
 30
0.0
 11
10.45
 21
3.949999999999998
 31
0.0
  0
LINE
  5
186
330
17F
100
AcDbEntity
  8
TRIM
100
AcDbLine
 10
0.0299999999999994
 20
3.919999999999998
 30
0.0
 11
0.0300000000000001
 21
-2.962292535445996
 31
0.0
  0
LINE
  5
187
330
17F
100
AcDbEntity
  8
TRIM
100
AcDbLine
 10
0.0
 20
3.949999999999998
 30
0.0
 11
0.0
 21
-3.95
 31
0.0
  0
LINE
  5
188
330
17F
100
AcDbEntity
  8
TRIM
100
AcDbLine
 10
10.42
 20
-1.5175
 30
0.0
 11
10.42
 21
3.919999999999996
 31
0.0
  0
LINE
  5
189
330
17F
100
AcDbEntity
  8
TRIM
100
AcDbLine
 10
10.45
 20
-3.950000000000001
 30
0.0
 11
10.45
 21
3.949999999999997
 31
0.0
  0
SOLID
  5
18A
330
17F
100
AcDbEntity
  8
SOLID
 62
     1
100
AcDbTrace
 10
8.850645716126262
 20
-2.583175278293517
 30
0.0
 11
8.953204584543676
 21
-2.390290100204915
 31
0.0
 12
8.844321505542426
 22
-2.575224655934988
 32
0.0
 13
8.947606643984824
 23
-2.380973562589404
 33
0.0
  0
SOLID
  5
18B
330
17F
100
AcDbEntity
  8
SOLID
 62
     1
100
AcDbTrace
 10
8.743633163041918
 20
-2.589343763358916
 30
0.0
 11
8.928899859358651
 21
-2.368551512435391
 31
0.0
 12
8.835889224763976
 22
-2.564623826123615
 32
0.0
 13
8.940142723239695
 23
-2.368551512435391
 33
0.0
  0
SOLID
  5
18C
330
17F
100
AcDbEntity
  8
SOLID
 62
     1
100
AcDbTrace
 10
8.775982482150034
 20
-2.368551512435391
 30
0.0
 11
9.123139627170401
 21
-2.27553103578049
 31
0.0
 12
9.073679762395343
 22
-2.368551512435391
 32
0.0
 13
9.073679762395343
 23
-2.368551512435391
 33
0.0
  0
SOLID
  5
18D
330
17F
100
AcDbEntity
  8
SOLID
 62
     1
100
AcDbTrace
 10
8.816585181828658
 20
-2.34481179920967
 30
0.0
 11
9.147519866606604
 21
-2.256138117675971
 31
0.0
 12
8.834870361405812
 22
-2.330267110631281
 32
0.0
 13
9.165805046183756
 23
-2.241593429097584
 33
0.0
  0
LINE
  5
18E
330
17F
100
AcDbEntity
  8
TRIM
100
AcDbLine
 10
10.42
 20
-1.5475
 30
0.0
 11
8.026999999999999
 21
-1.547499999999999
 31
0.0
  0
TEXT
  5
18F
330
17F
100
AcDbEntity
  8
TRIM
100
AcDbText
 10
8.09375
 20
-1.717123664042923
 30
0.0
 40
0.1
  1
TASK FORCE TIPS, INC.
 51
10.0
  7
ROMAND
100
AcDbText
  0
TEXT
  5
190
330
17F
100
AcDbEntity
  8
TRIM
100
AcDbText
 10
8.128853320039944
 20
-2.15479946193006
 30
0.0
 40
0.09
  1
219-462-6161
  7
simplex
100
AcDbText
  0
TEXT
  5
191
330
17F
100
AcDbEntity
  8
TRIM
 62
     2
100
AcDbText
 10
8.128853320039944
 20
-2.004135382055867
 30
0.0
 40
0.09
  1
VALPARAISO, IN 46383
  7
simplex
100
AcDbText
  0
TEXT
  5
192
330
17F
100
AcDbEntity
  8
TRIM
 62
     2
100
AcDbText
 10
8.128853320039944
 20
-1.859417196791166
 30
0.0
 40
0.09
  1
2800 E. EVANS AVE.
  7
simplex
100
AcDbText
  0
LINE
  5
193
330
17F
100
AcDbEntity
  8
TRIM
100
AcDbLine
 10
10.42
 20
-1.5175
 30
0.0
 11
7.997000000000002
 21
-1.5175
 31
0.0
  0
LINE
  5
194
330
17F
100
AcDbEntity
  8
TRIM
100
AcDbLine
 10
8.026999999999997
 20
-2.695684594848474
 30
0.0
 11
8.026999999999999
 21
-1.547499999999999
 31
0.0
  0
LINE
  5
195
330
17F
100
AcDbEntity
  8
TRIM
100
AcDbLine
 10
7.996999999999998
 20
-3.281528356963998
 30
0.0
 11
7.997000000000002
 21
-1.5175
 31
0.0
  0
SOLID
  5
196
330
17F
100
AcDbEntity
  8
SOLID
 62
     1
100
AcDbTrace
 10
8.043289410762174
 20
-2.390290100204915
 30
0.0
 11
8.307257976534963
 21
-2.390290100204915
 31
0.0
 12
8.114055539671543
 22
-2.380973562589404
 32
0.0
 13
8.327237355926614
 23
-2.380973562589404
 33
0.0
  0
SOLID
  5
197
330
17F
100
AcDbEntity
  8
SOLID
 62
     1
100
AcDbTrace
 10
8.043289410762174
 20
-2.390290100204915
 30
0.0
 11
8.598232942251092
 21
-2.241593429097584
 31
0.0
 12
8.114055539671543
 22
-2.380973562589404
 32
0.0
 13
8.579947762673942
 23
-2.256138117675971
 33
0.0
  0
SOLID
  5
198
330
17F
100
AcDbEntity
  8
SOLID
 62
     1
100
AcDbTrace
 10
8.168609832132082
 20
-2.589343763358916
 30
0.0
 11
8.353876528448813
 21
-2.368551512435391
 31
0.0
 12
8.260865893854138
 22
-2.564623826123615
 32
0.0
 13
8.365119392329857
 23
-2.368551512435391
 33
0.0
  0
SOLID
  5
199
330
17F
100
AcDbEntity
  8
SOLID
 62
     1
100
AcDbTrace
 10
8.107639478387344
 20
-2.628186162520601
 30
0.0
 11
8.307257976534963
 21
-2.390290100204915
 31
0.0
 12
8.133769629992231
 22
-2.611539420022736
 32
0.0
 13
8.327237355926614
 23
-2.380973562589404
 33
0.0
  0
SOLID
  5
19A
330
17F
100
AcDbEntity
  8
SOLID
 62
     1
100
AcDbTrace
 10
8.269298174632586
 20
-2.575224655934988
 30
0.0
 11
8.372583313074986
 21
-2.380973562589404
 31
0.0
 12
8.275622385216422
 22
-2.583175278293517
 32
0.0
 13
8.378181253633837
 23
-2.390290100204915
 33
0.0
  0
SOLID
  5
19B
330
17F
100
AcDbEntity
  8
SOLID
 62
     1
100
AcDbTrace
 10
8.519123824336961
 20
-2.473989674493337
 30
0.0
 11
8.389737608104452
 21
-2.628186162520601
 31
0.0
 12
8.534207787034423
 22
-2.470507267310368
 32
0.0
 13
8.415867759709337
 23
-2.611539420022736
 33
0.0
  0
SOLID
  5
19C
330
17F
100
AcDbEntity
  8
SOLID
 62
     1
100
AcDbTrace
 10
8.55772051493353
 20
-2.583175278293517
 30
0.0
 11
8.597274695487142
 21
-2.508784684111249
 31
0.0
 12
8.551396304349692
 22
-2.575224655934988
 32
0.0
 13
8.59312736164485
 23
-2.496739952053105
 33
0.0
  0
SOLID
  5
19D
330
17F
100
AcDbEntity
  8
SOLID
 62
     1
100
AcDbTrace
 10
8.902260686836454
 20
-2.380973562589404
 30
0.0
 11
8.708792960902071
 21
-2.611539420022735
 31
0.0
 12
8.882281307444802
 22
-2.390290100204915
 32
0.0
 13
8.682662809297184
 23
-2.628186162520601
 33
0.0
  0
SOLID
  5
19E
330
17F
100
AcDbEntity
  8
SOLID
 62
     1
100
AcDbTrace
 10
8.450707961849186
 20
-2.589343763358916
 30
0.0
 11
8.554319737297706
 21
-2.465864057733076
 31
0.0
 12
8.542964023571245
 22
-2.564623826123615
 32
0.0
 13
8.587597583188456
 23
-2.480680309308914
 33
0.0
  0
SOLID
  5
19F
330
17F
100
AcDbEntity
  8
SOLID
 62
     1
100
AcDbTrace
 10
8.389737608104452
 20
-2.628186162520601
 30
0.0
 11
8.55772051493353
 21
-2.583175278293517
 31
0.0
 12
8.415867759709337
 22
-2.611539420022736
 32
0.0
 13
8.551396304349692
 23
-2.575224655934988
 33
0.0
  0
SOLID
  5
1A0
330
17F
100
AcDbEntity
  8
SOLID
 62
     1
100
AcDbTrace
 10
8.107639478387344
 20
-2.628186162520601
 30
0.0
 11
8.275622385216422
 21
-2.583175278293517
 31
0.0
 12
8.133769629992231
 22
-2.611539420022736
 32
0.0
 13
8.269298174632586
 23
-2.575224655934988
 33
0.0
  0
SOLID
  5
1A1
330
17F
100
AcDbEntity
  8
SOLID
 62
     1
100
AcDbTrace
 10
8.682662809297184
 20
-2.628186162520601
 30
0.0
 11
8.850645716126262
 21
-2.583175278293517
 31
0.0
 12
8.708792960902071
 22
-2.611539420022735
 32
0.0
 13
8.844321505542426
 23
-2.575224655934988
 33
0.0
  0
SOLID
  5
1A2
330
17F
100
AcDbEntity
  8
SOLID
 62
     1
100
AcDbTrace
 10
8.20841037821737
 20
-2.368551512435391
 30
0.0
 11
8.555567523237739
 21
-2.27553103578049
 31
0.0
 12
8.50610765846268
 22
-2.368551512435391
 32
0.0
 13
8.50610765846268
 23
-2.368551512435391
 33
0.0
  0
SOLID
  5
1A3
330
17F
100
AcDbEntity
  8
SOLID
 62
     1
100
AcDbTrace
 10
8.372583313074986
 20
-2.380973562589404
 30
0.0
 11
8.609335485643718
 21
-2.380973562589404
 31
0.0
 12
8.378181253633837
 22
-2.390290100204915
 32
0.0
 13
8.58935610625207
 23
-2.390290100204915
 33
0.0
  0
SOLID
  5
1A4
330
17F
100
AcDbEntity
  8
SOLID
 62
     1
100
AcDbTrace
 10
8.572168428944467
 20
-2.410773576384598
 30
0.0
 11
8.457090831512811
 21
-2.446370806652485
 31
0.0
 12
8.577542132047717
 22
-2.418863405958059
 32
0.0
 13
8.483530453625318
 23
-2.44794426478169
 33
0.0
  0
SOLID
  5
1A5
330
17F
100
AcDbEntity
  8
SOLID
 62
     1
100
AcDbTrace
 10
8.457090831512811
 20
-2.446370806652485
 30
0.0
 11
8.519123824336961
 21
-2.473989674493337
 31
0.0
 12
8.483530453625318
 22
-2.44794426478169
 32
0.0
 13
8.534207787034423
 23
-2.470507267310368
 33
0.0
  0
SOLID
  5
1A6
330
17F
100
AcDbEntity
  8
SOLID
 62
     1
100
AcDbTrace
 10
8.492196430183701
 20
-2.368551512435391
 30
0.0
 11
8.839353575204068
 21
-2.27553103578049
 31
0.0
 12
8.789893710429009
 22
-2.368551512435391
 32
0.0
 13
8.789893710429009
 23
-2.368551512435391
 33
0.0
  0
SOLID
  5
1A7
330
17F
100
AcDbEntity
  8
SOLID
 62
     1
100
AcDbTrace
 10
8.710751963821957
 20
-2.380973562589404
 30
0.0
 11
8.902260686836454
 21
-2.380973562589404
 31
0.0
 12
8.716349904380804
 22
-2.390290100204915
 32
0.0
 13
8.882281307444802
 23
-2.390290100204915
 33
0.0
  0
SOLID
  5
1A8
330
17F
100
AcDbEntity
  8
SOLID
 62
     1
100
AcDbTrace
 10
8.551084309439481
 20
-2.330267110631281
 30
0.0
 11
8.882018994217425
 21
-2.241593429097584
 31
0.0
 12
8.532799129862327
 22
-2.344811799209669
 32
0.0
 13
8.863733814640273
 23
-2.256138117675971
 33
0.0
  0
SOLID
  5
1A9
330
17F
100
AcDbEntity
  8
SOLID
 62
     1
100
AcDbTrace
 10
8.532799129862327
 20
-2.344811799209669
 30
0.0
 11
8.579947762673942
 21
-2.256138117675971
 31
0.0
 12
8.551084309439481
 22
-2.330267110631281
 32
0.0
 13
8.598232942251092
 23
-2.241593429097584
 33
0.0
  0
SOLID
  5
1AA
330
17F
100
AcDbEntity
  8
SOLID
 62
     1
100
AcDbTrace
 10
8.59312736164485
 20
-2.496739952053105
 30
0.0
 11
8.638464999731692
 21
-2.516925569053504
 31
0.0
 12
8.597274695487142
 22
-2.508784684111249
 32
0.0
 13
8.642612333573987
 23
-2.528970301111649
 33
0.0
  0
SOLID
  5
1AB
330
17F
100
AcDbEntity
  8
SOLID
 62
     1
100
AcDbTrace
 10
8.518783283108662
 20
-2.45004220895396
 30
0.0
 11
8.687749359579141
 21
-2.397775525726124
 31
0.0
 12
8.6329352212753
 22
-2.500865926309312
 32
0.0
 13
8.6329352212753
 23
-2.500865926309312
 33
0.0
  0
SOLID
  5
1AC
330
17F
100
AcDbEntity
  8
SOLID
 62
     1
100
AcDbTrace
 10
8.584707069518715
 20
-2.429649845389338
 30
0.0
 11
8.635974658165919
 21
-2.368551512435391
 31
0.0
 12
8.620641232051863
 22
-2.41853424437989
 32
0.0
 13
8.647217522046963
 23
-2.368551512435391
 33
0.0
  0
SOLID
  5
1AD
330
17F
100
AcDbEntity
  8
SOLID
 62
     1
100
AcDbTrace
 10
8.58935610625207
 20
-2.390290100204915
 30
0.0
 11
8.572168428944467
 21
-2.410773576384598
 31
0.0
 12
8.609335485643718
 22
-2.380973562589404
 32
0.0
 13
8.577542132047717
 23
-2.418863405958059
 33
0.0
  0
SOLID
  5
1AE
330
17F
100
AcDbEntity
  8
SOLID
 62
     1
100
AcDbTrace
 10
8.638464999731692
 20
-2.516925569053504
 30
0.0
 11
8.710751963821957
 21
-2.380973562589404
 31
0.0
 12
8.642612333573987
 22
-2.528970301111649
 32
0.0
 13
8.716349904380804
 23
-2.390290100204915
 33
0.0
  0
SOLID
  5
1AF
330
17F
100
AcDbEntity
  8
SOLID
 62
     1
100
AcDbTrace
 10
8.645754239211187
 20
-2.397763190625548
 30
0.0
 11
8.700031216426285
 21
-2.380973562589404
 31
0.0
 12
8.654681442792094
 22
-2.380973562589404
 32
0.0
 13
8.654681442792094
 23
-2.380973562589404
 33
0.0
  0
SOLID
  5
1B0
330
17F
100
AcDbEntity
  8
SOLID
 62
     1
100
AcDbTrace
 10
8.816585181828658
 20
-2.34481179920967
 30
0.0
 11
8.863733814640273
 21
-2.256138117675971
 31
0.0
 12
8.834870361405812
 22
-2.330267110631281
 32
0.0
 13
8.882018994217425
 23
-2.241593429097584
 33
0.0
  0
LINE
  5
1B1
330
17F
100
AcDbEntity
  8
TRIM
100
AcDbLine
 10
10.42
 20
-2.169660401921236
 30
0.0
 11
10.42
 21
-1.5475
 31
0.0
  0
LINE
  5
1B2
330
17F
100
AcDbEntity
  8
TRIM
100
AcDbLine
 10
9.212094456945932
 20
-2.199660401921236
 30
0.0
 11
9.212094456945999
 21
-3.595684594848473
 31
0.0
  0
LINE
  5
1B3
330
17F
100
AcDbEntity
  8
TRIM
100
AcDbLine
 10
10.42
 20
-3.595684594848473
 30
0.0
 11
10.42
 21
-2.199660401921236
 31
0.0
  0
LINE
  5
1B4
330
17F
100
AcDbEntity
  8
TRIM
100
AcDbLine
 10
9.212094456945932
 20
-2.199660401921236
 30
0.0
 11
10.42
 21
-2.199660401921236
 31
0.0
  0
LINE
  5
1B5
330
17F
100
AcDbEntity
  8
TRIM
100
AcDbLine
 10
9.182094456945931
 20
-2.169660401921236
 30
0.0
 11
10.42
 21
-2.169660401921236
 31
0.0
  0
TEXT
  5
1B6
330
17F
100
AcDbEntity
  8
DIM
100
AcDbText
 10
9.565793951420111
 20
-2.334434594848473
 30
0.0
 40
0.09
  1
DATE
 41
0.9
 72
     1
 11
9.714293951420112
 21
-2.334434594848473
 31
0.0
100
AcDbText
  0
LINE
  5
1B7
330
17F
100
AcDbEntity
  8
TRIM
100
AcDbLine
 10
9.994468265884984
 20
-2.365684594848473
 30
0.0
 11
9.434119636955239
 21
-2.365684594848473
 31
0.0
  0
LINE
  5
1B8
330
17F
100
AcDbEntity
  8
TRIM
100
AcDbLine
 10
10.42
 20
-2.545684594848474
 30
0.0
 11
9.212094456945944
 21
-2.545684594848474
 31
0.0
  0
LINE
  5
1B9
330
17F
100
AcDbEntity
  8
TRIM
100
AcDbLine
 10
9.434119636955239
 20
-2.199660401921236
 30
0.0
 11
9.434119636955236
 21
-3.265684594848473
 31
0.0
  0
LINE
  5
1BA
330
17F
100
AcDbEntity
  8
TRIM
100
AcDbLine
 10
9.182094456945931
 20
-2.169660401921236
 30
0.0
 11
9.182094456945957
 21
-2.695684594848474
 31
0.0
  0
TEXT
  5
1BB
330
17F
100
AcDbEntity
  8
DIM
100
AcDbText
 10
9.21510704695059
 20
-2.334434594848473
 30
0.0
 40
0.09
  1
REV
 41
0.8
 72
     1
 11
9.323107046950591
 21
-2.334434594848473
 31
0.0
100
AcDbText
  0
LINE
  5
1BC
330
17F
100
AcDbEntity
  8
TRIM
100
AcDbLine
 10
9.434119636955239
 20
-2.365684594848473
 30
0.0
 11
9.212094456945939
 21
-2.365684594848473
 31
0.0
  0
SOLID
  5
1BD
330
17F
100
AcDbEntity
  8
SOLID
 62
     1
100
AcDbTrace
 10
9.086741623699323
 20
-2.390290100204915
 30
0.0
 11
9.165805046183756
 21
-2.241593429097584
 31
0.0
 12
9.081143683140474
 22
-2.380973562589404
 32
0.0
 13
9.147519866606604
 23
-2.256138117675971
 33
0.0
  0
SOLID
  5
1BE
330
17F
100
AcDbEntity
  8
SOLID
 62
     1
100
AcDbTrace
 10
8.953204584543676
 20
-2.390290100204915
 30
0.0
 11
9.086741623699323
 21
-2.390290100204915
 31
0.0
 12
8.947606643984824
 22
-2.380973562589404
 32
0.0
 13
9.081143683140474
 23
-2.380973562589404
 33
0.0
  0
LINE
  5
1BF
330
17F
100
AcDbEntity
  8
TRIM
100
AcDbLine
 10
9.994468265884982
 20
-2.199660401921236
 30
0.0
 11
9.994468265884982
 21
-3.265684594848474
 31
0.0
  0
TEXT
  5
1C0
330
17F
100
AcDbEntity
  8
DIM
100
AcDbText
 10
9.971153146106461
 20
-2.334434594848473
 30
0.0
 40
0.09
  1
INITIALS
 41
0.8
 72
     1
 11
10.21115314610646
 21
-2.334434594848473
 31
0.0
100
AcDbText
  0
LINE
  5
1C1
330
17F
100
AcDbEntity
  8
TRIM
100
AcDbLine
 10
10.42
 20
-2.365684594848473
 30
0.0
 11
9.994468265884984
 21
-2.365684594848473
 31
0.0
  0
LINE
  5
1C2
330
17F
100
AcDbEntity
  8
TRIM
100
AcDbLine
 10
0.0300000000000482
 20
-3.600764178481991
 30
0.0
 11
7.996999999999998
 21
-3.600764178481997
 31
0.0
  0
LINE
  5
1C3
330
17F
100
AcDbEntity
  8
TRIM
100
AcDbLine
 10
0.0299999999999994
 20
-3.311528356963991
 30
0.0
 11
7.996999999999998
 21
-3.311528356963997
 31
0.0
  0
LINE
  5
1C4
330
17F
100
AcDbEntity
  8
TRIM
100
AcDbLine
 10
0.0
 20
-3.95
 30
0.0
 11
10.45
 21
-3.949999999999998
 31
0.0
  0
LINE
  5
1C5
330
17F
100
AcDbEntity
  8
TRIM
100
AcDbLine
 10
0.0299999999999994
 20
-3.630764178481991
 30
0.0
 11
7.996999999999998
 21
-3.630764178481998
 31
0.0
  0
LINE
  5
1C6
330
17F
100
AcDbEntity
  8
TRIM
100
AcDbLine
 10
0.0300000000000482
 20
-3.919999999999991
 30
0.0
 11
7.996999999999998
 21
-3.919999999999998
 31
0.0
  0
LINE
  5
1C7
330
17F
100
AcDbEntity
  8
TRIM
100
AcDbLine
 10
0.0300000000000001
 20
-2.962292535445996
 30
0.0
 11
6.060374999999972
 21
-2.962292535446001
 31
0.0
  0
LINE
  5
1C8
330
17F
100
AcDbEntity
  8
TRIM
100
AcDbLine
 10
0.0300000000000491
 20
-2.992292535445997
 30
0.0
 11
5.249124999999974
 21
-2.992292535445998
 31
0.0
  0
LINE
  5
1C9
330
17F
100
AcDbEntity
  8
TRIM
100
AcDbLine
 10
0.0299999999999994
 20
-3.281528356963996
 30
0.0
 11
5.249125000000023
 21
-3.281528356963999
 31
0.0
  0
TEXT
  5
1CA
330
17F
100
AcDbEntity
  8
TRIM
100
AcDbText
 10
0.1075473557651141
 20
-3.529971212324581
 30
0.0
 40
0.14
  1
DESCRIPTION:
 41
0.9
  7
simplex
100
AcDbText
  0
TEXT
  5
1CB
330
17F
100
AcDbEntity
  8
TRIM
100
AcDbText
 10
0.1075473557651141
 20
-3.842471212324581
 30
0.0
 40
0.14
  1
EXTRA DESC:
 41
0.9
  7
simplex
100
AcDbText
  0
TEXT
  5
1CC
330
17F
100
AcDbEntity
  8
TRIM
100
AcDbText
 10
0.1101805231206985
 20
-3.206860587244686
 30
0.0
 40
0.14
  1
PART NUMBER:
 41
0.8
  7
simplex
100
AcDbText
  0
LINE
  5
1CD
330
17F
100
AcDbEntity
  8
TRIM
100
AcDbLine
 10
0.0299999999999994
 20
-3.311528356963991
 30
0.0
 11
0.0300000000000482
 21
-3.600764178481991
 31
0.0
  0
LINE
  5
1CE
330
17F
100
AcDbEntity
  8
TRIM
100
AcDbLine
 10
0.0299999999999994
 20
-3.630764178481991
 30
0.0
 11
0.0300000000000482
 21
-3.919999999999991
 31
0.0
  0
LINE
  5
1CF
330
17F
100
AcDbEntity
  8
TRIM
100
AcDbLine
 10
0.0300000000000003
 20
-2.992292535445995
 30
0.0
 11
0.0299999999999994
 21
-3.281528356963996
 31
0.0
  0
LINE
  5
1D0
330
17F
100
AcDbEntity
  8
TRIM
100
AcDbLine
 10
5.279124999999976
 20
-2.992292535445998
 30
0.0
 11
6.030374999999975
 21
-2.992292535445998
 31
0.0
  0
TEXT
  5
1D1
330
17F
100
AcDbEntity
  8
DIM
 62
     1
100
AcDbText
 10
5.468708333333308
 20
-3.096250000000001
 30
0.0
 40
0.08
  1
SHEET
 72
     1
 11
5.655374999999975
 21
-3.096250000000001
 31
0.0
100
AcDbText
  0
LINE
  5
1D2
330
17F
100
AcDbEntity
  8
TRIM
100
AcDbLine
 10
5.279124999999976
 20
-2.992292535445998
 30
0.0
 11
5.279125000000023
 21
-3.281528356963996
 31
0.0
  0
LINE
  5
1D3
330
17F
100
AcDbEntity
  8
TRIM
100
AcDbLine
 10
5.249124999999974
 20
-2.992292535445999
 30
0.0
 11
5.249125000000023
 21
-3.281528356963999
 31
0.0
  0
LINE
  5
1D4
330
17F
100
AcDbEntity
  8
TRIM
100
AcDbLine
 10
6.060374999999972
 20
-2.962292535446001
 30
0.0
 11
6.060375000000023
 21
-3.281528356963996
 31
0.0
  0
LINE
  5
1D5
330
17F
100
AcDbEntity
  8
TRIM
100
AcDbLine
 10
6.030374999999975
 20
-2.992292535445998
 30
0.0
 11
6.030375000000024
 21
-3.281528356963999
 31
0.0
  0
LINE
  5
1D6
330
17F
100
AcDbEntity
  8
TRIM
100
AcDbLine
 10
6.060375000000023
 20
-3.281528356963998
 30
0.0
 11
7.996999999999998
 21
-3.281528356963998
 31
0.0
  0
LINE
  5
1D7
330
17F
100
AcDbEntity
  8
TRIM
100
AcDbLine
 10
9.182094456945961
 20
-2.695684594848474
 30
0.0
 11
8.026999999999997
 21
-2.695684594848474
 31
0.0
  0
TEXT
  5
1D8
330
17F
100
AcDbEntity
  8
DIM
100
AcDbText
 10
8.043249999999996
 20
-3.684660772043168
 30
0.0
 40
0.056
  1
DIMENSIONS IN 'INCHES' UNLESS SPECIFIED OTHERWISE
100
AcDbText
  0
LINE
  5
1D9
330
17F
100
AcDbEntity
  8
TRIM
100
AcDbLine
 10
9.182094456945938
 20
-2.905684594848473
 30
0.0
 11
8.026999999999986
 21
-2.905684594848473
 31
0.0
  0
LINE
  5
1DA
330
17F
100
AcDbEntity
  8
TRIM
100
AcDbLine
 10
9.182094456945961
 20
-2.725684594848474
 30
0.0
 11
8.027000000000001
 21
-2.725684594848474
 31
0.0
  0
LINE
  5
1DB
330
17F
100
AcDbEntity
  8
TRIM
100
AcDbLine
 10
8.026999999999999
 20
-3.874999999999998
 30
0.0
 11
10.42
 21
-3.875
 31
0.0
  0
LINE
  5
1DC
330
17F
100
AcDbEntity
  8
TRIM
100
AcDbLine
 10
8.026999999999999
 20
-3.724999999999998
 30
0.0
 11
10.42
 21
-3.724999999999998
 31
0.0
  0
TEXT
  5
1DD
330
17F
100
AcDbEntity
  8
TRIM
100
AcDbText
 10
8.07456365306904
 20
-3.368985470670738
 30
0.0
 40
0.07
  1
PRINT APPROVED
 41
1.058889550608496
  7
simplex
 72
     5
 11
9.024034616781325
 21
-3.368985470670738
 31
0.0
100
AcDbText
  0
LINE
  5
1DE
330
17F
100
AcDbEntity
  8
TRIM
100
AcDbLine
 10
9.182094456945996
 20
-3.595684594848473
 30
0.0
 11
8.026999999999999
 21
-3.595684594848473
 31
0.0
  0
LINE
  5
1DF
330
17F
100
AcDbEntity
  8
TRIM
 62
     2
100
AcDbLine
 10
9.182094456945947
 20
-3.085684594848473
 30
0.0
 11
8.026999999999999
 21
-3.085684594848473
 31
0.0
  0
LINE
  5
1E0
330
17F
100
AcDbEntity
  8
TRIM
100
AcDbLine
 10
9.182094456945954
 20
-3.265684594848473
 30
0.0
 11
8.026999999999999
 21
-3.265684594848474
 31
0.0
  0
LINE
  5
1E1
330
17F
100
AcDbEntity
  8
TRIM
 62
     2
100
AcDbLine
 10
9.182094456945961
 20
-3.404239025796373
 30
0.0
 11
8.026999999999999
 21
-3.404239025796373
 31
0.0
  0
LINE
  5
1E2
330
17F
100
AcDbEntity
  8
TRIM
100
AcDbLine
 10
9.182094456945966
 20
-3.595684594848473
 30
0.0
 11
8.026999999999999
 21
-3.595684594848473
 31
0.0
  0
LINE
  5
1E3
330
17F
100
AcDbEntity
  8
TRIM
100
AcDbLine
 10
7.996999999999998
 20
-3.600764178482001
 30
0.0
 11
7.996999999999998
 21
-3.311528356964001
 31
0.0
  0
LINE
  5
1E4
330
17F
100
AcDbEntity
  8
TRIM
100
AcDbLine
 10
8.026999999999999
 20
-3.595684594848473
 30
0.0
 11
8.026999999999999
 21
-3.085684594848473
 31
0.0
  0
TEXT
  5
1E5
330
17F
100
AcDbEntity
  8
TRIM
100
AcDbText
 10
8.0625
 20
-3.839999999999998
 30
0.0
 40
0.08
  1
FILE:
  7
simplex
100
AcDbText
  0
LINE
  5
1E6
330
17F
100
AcDbEntity
  8
TRIM
100
AcDbLine
 10
8.026999999999999
 20
-3.874999999999996
 30
0.0
 11
8.099999999999999
 21
-3.874999999999996
 31
0.0
  0
LINE
  5
1E7
330
17F
100
AcDbEntity
  8
TRIM
100
AcDbLine
 10
8.026999999999999
 20
-3.875
 30
0.0
 11
8.026999999999999
 21
-3.724999999999998
 31
0.0
  0
LINE
  5
1E8
330
17F
100
AcDbEntity
  8
TRIM
100
AcDbLine
 10
7.996999999999998
 20
-3.920000000000001
 30
0.0
 11
7.996999999999998
 21
-3.630764178482002
 31
0.0
  0
TEXT
  5
1E9
330
17F
100
AcDbEntity
  8
TRIM
100
AcDbText
 10
8.074563653069027
 20
-3.050431039722838
 30
0.0
 40
0.07
  1
PRINT DRAWN
 41
1.047995828933662
  7
simplex
 72
     5
 11
8.81165405275237
 21
-3.050431039722838
 31
0.0
100
AcDbText
  0
TEXT
  5
1EA
330
17F
100
AcDbEntity
  8
TRIM
100
AcDbText
 10
8.074583589391936
 20
-2.867078253753203
 30
0.0
 40
0.09
  1
SCALE:
  7
simplex
100
AcDbText
  0
LINE
  5
1EB
330
17F
100
AcDbEntity
  8
TRIM
100
AcDbLine
 10
8.026999999999999
 20
-3.085684594848473
 30
0.0
 11
8.026999999999999
 21
-2.725684594848474
 31
0.0
  0
LINE
  5
1EC
330
17F
100
AcDbEntity
  8
TRIM
100
AcDbLine
 10
10.42
 20
-3.595684594848473
 30
0.0
 11
9.212094456945999
 21
-3.595684594848473
 31
0.0
  0
LINE
  5
1ED
330
17F
100
AcDbEntity
  8
TRIM
100
AcDbLine
 10
10.42
 20
-3.875
 30
0.0
 11
10.42
 21
-3.724999999999998
 31
0.0
  0
LINE
  5
1EE
330
17F
100
AcDbEntity
  8
TRIM
100
AcDbLine
 10
10.42
 20
-3.265684594848474
 30
0.0
 11
9.212094456945974
 21
-3.265684594848473
 31
0.0
  0
LINE
  5
1EF
330
17F
100
AcDbEntity
  8
TRIM
100
AcDbLine
 10
10.42
 20
-3.085684594848473
 30
0.0
 11
9.212094456945965
 21
-3.085684594848473
 31
0.0
  0
LINE
  5
1F0
330
17F
100
AcDbEntity
  8
TRIM
100
AcDbLine
 10
10.42
 20
-2.905684594848473
 30
0.0
 11
9.21209445694596
 21
-2.905684594848473
 31
0.0
  0
LINE
  5
1F1
330
17F
100
AcDbEntity
  8
TRIM
100
AcDbLine
 10
10.42
 20
-2.725684594848474
 30
0.0
 11
9.212094456945953
 21
-2.725684594848474
 31
0.0
  0
TEXT
  5
1F2
330
17F
100
AcDbEntity
  8
TRIM
100
AcDbText
 10
9.277645855643239
 20
-3.368985470670738
 30
0.0
 40
0.07
  1
DESIGN ENGINEER
  7
simplex
100
AcDbText
  0
LINE
  5
1F3
330
17F
100
AcDbEntity
  8
TRIM
 62
     2
100
AcDbLine
 10
10.41418891389197
 20
-3.404239025796373
 30
0.0
 11
9.212094456945999
 21
-3.404239025796373
 31
0.0
  0
LINE
  5
1F4
330
17F
100
AcDbEntity
  8
TRIM
100
AcDbLine
 10
9.182094456945961
 20
-2.725684594848474
 30
0.0
 11
9.182094456945996
 21
-3.595684594848473
 31
0.0
  0
LINE
  5
1F5
330
17F
100
AcDbEntity
  8
TRIM
 62
     2
100
AcDbLine
 10
8.736598448036387
 20
-3.404239025796373
 30
0.0
 11
8.736598448036383
 21
-3.595684594848473
 31
0.0
  0
LINE
  5
1F6
330
17F
100
AcDbEntity
  8
TRIM
 62
     2
100
AcDbLine
 10
8.736598448036387
 20
-3.085684594848473
 30
0.0
 11
8.736598448036387
 21
-3.265684594848473
 31
0.0
  0
LINE
  5
1F7
330
17F
100
AcDbEntity
  8
TRIM
100
AcDbLine
 10
5.279125000000023
 20
-3.281528356963996
 30
0.0
 11
6.030375000000022
 21
-3.281528356963998
 31
0.0
  0
ATTDEF
  5
1F8
330
17F
100
AcDbEntity
  8
DIM
100
AcDbText
 10
1.498750002566997
 20
-3.206945014218479
 30
0.0
 40
0.13
  1

  7
simplex
100
AcDbAttributeDefinition
  3
PART_#
  2
PART_#
 70
     0
  0
ATTDEF
  5
1F9
330
17F
100
AcDbEntity
  8
DIM
100
AcDbText
 10
1.50468374509182
 20
-3.531130609568118
 30
0.0
 40
0.13
  1

  7
simplex
100
AcDbAttributeDefinition
  3
PART_DESCRIPTION
  2
PART_DESCRIPTION
 70
     0
  0
ATTDEF
  5
1FA
330
17F
100
AcDbEntity
  8
DIM
100
AcDbText
 10
1.500000001465934
 20
-3.844457553051038
 30
0.0
 40
0.13
  1

  7
simplex
100
AcDbAttributeDefinition
  3
EXTRA_DESCRIPTION
  2
EXTRA_DESCRIPTION
 70
     0
  0
ATTDEF
  5
1FB
330
17F
100
AcDbEntity
  8
DIM
100
AcDbText
 10
5.65537500146591
 20
-3.199999998273463
 30
0.0
 40
0.1
  1

  7
simplex
 72
     4
 11
5.65537500146591
 21
-3.199999998273463
 31
0.0
100
AcDbAttributeDefinition
  3
SHEET
  2
SHEET
 70
     0
  0
ATTDEF
  5
1FC
330
17F
100
AcDbEntity
  8
DIM
100
AcDbText
 10
8.370750001651003
 20
-3.841069024870303
 30
0.0
 40
0.08
  1

  7
simplex
100
AcDbAttributeDefinition
  3
FILE_NAME
  2
FILE_NAME
 70
     0
  0
ATTDEF
  5
1FD
330
17F
100
AcDbEntity
  8
DIM
100
AcDbText
 10
8.593750001465933
 20
-2.867243860095428
 30
0.0
 40
0.08
  1

  7
simplex
100
AcDbAttributeDefinition
  3
DRAWING_SCALE
  2
SCALE
 70
     0
  0
ATTDEF
  5
1FE
330
17F
100
AcDbEntity
  8
DIM
100
AcDbText
 10
8.381799224018191
 20
-3.175684594848473
 30
0.0
 40
0.08
  1

  7
simplex
 72
     4
 11
8.381799224018191
 21
-3.175684594848473
 31
0.0
100
AcDbAttributeDefinition
  3
DATE_DRAWN
  2
DATE
 70
     0
  0
ATTDEF
  5
1FF
330
17F
100
AcDbEntity
  8
DIM
100
AcDbText
 10
8.959346452491168
 20
-3.175684594848473
 30
0.0
 40
0.08
  1

  7
simplex
 72
     4
 11
8.959346452491168
 21
-3.175684594848473
 31
0.0
100
AcDbAttributeDefinition
  3
DRAWN_BY?
  2
WHO?
 70
     0
  0
ATTDEF
  5
200
330
17F
100
AcDbEntity
  8
DIM
100
AcDbText
 10
8.381799224018191
 20
-3.499961810322423
 30
0.0
 40
0.08
  1

  7
SCRIPT
 72
     4
 11
8.381799224018191
 21
-3.499961810322423
 31
0.0
100
AcDbAttributeDefinition
  3
DATE_APPROVED
  2
DATE
 70
     0
  0
ATTDEF
  5
201
330
17F
100
AcDbEntity
  8
DIM
100
AcDbText
 10
8.959346452491192
 20
-3.499961810322423
 30
0.0
 40
0.08
  1

  7
SCRIPT
 72
     4
 11
8.959346452491192
 21
-3.499961810322423
 31
0.0
100
AcDbAttributeDefinition
  3
APPROVED_BY?
  2
WHO?
 70
     0
  0
ATTDEF
  5
202
330
17F
100
AcDbEntity
  8
DIM
100
AcDbText
 10
9.277645855643239
 20
-3.539961810322423
 30
0.0
 40
0.08
  1

  7
SCRIPT
 11
9.277645855643239
 21
-3.499961810322423
 31
0.0
100
AcDbAttributeDefinition
  3
ENGINEER_IN_CHARGE
  2
WHO?
 70
     0
 74
     2
  0
TEXT
  5
203
330
17F
100
AcDbEntity
  8
DIM
100
AcDbText
 10
9.73771867776024
 20
-3.931972942467266
 30
0.0
 40
0.04
  1
F04-0052-01 REV. 00
 72
     2
 11
10.41771867776024
 21
-3.931972942467266
 31
0.0
100
AcDbText
  0
ENDBLK
  5
204
330
17F
100
AcDbEntity
  8
0
100
AcDbBlockEnd
  0
BLOCK
  5
206
330
205
100
AcDbEntity
  8
0
100
AcDbBlockBegin
  2
rvsn_blk
 70
     2
 10
0.0
 20
0.0
 30
0.0
  3
rvsn_blk
  1

  0
ATTDEF
  5
207
330
205
100
AcDbEntity
  8
DIM
100
AcDbText
 10
-0.1443252782292399
 20
0.0442732402878181
 30
1.0
 40
0.07
  1

  7
simplex
100
AcDbAttributeDefinition
  3
REV_#
  2
X
 70
     0
  0
ATTDEF
  5
208
330
205
100
AcDbEntity
  8
DIM
100
AcDbText
 10
0.269150253848311
 20
0.0469563354417511
 30
1.0
 40
0.07
  1

  7
simplex
 72
     1
 11
0.269150253848311
 21
0.0469563354417511
 31
1.0
100
AcDbAttributeDefinition
  3
DATE
  2
DATE
 70
     0
  0
ATTDEF
  5
209
330
205
100
AcDbEntity
  8
DIM
100
AcDbText
 10
0.7631729674994113
 20
0.0469563354417511
 30
1.0
 40
0.07
  1

  7
simplex
 72
     1
 11
0.7631729674994113
 21
0.0469563354417511
 31
1.0
100
AcDbAttributeDefinition
  3
INITIALS
  2
XXX
 70
     0
  0
ENDBLK
  5
20A
330
205
100
AcDbEntity
  8
0
100
AcDbBlockEnd
  0
ENDSEC
  0
SECTION
  2
ENTITIES
  0
LINE
  5
9B0
330
1F
100
AcDbEntity
  8
PART
100
AcDbLine
 10
13.94556947324725
 20
17.53719785149056
 30
0.0
 11
14.05056947324725
 21
17.53719785149056
 31
0.0
  0
LINE
  5
9B1
330
1F
100
AcDbEntity
  8
PART
100
AcDbLine
 10
20.66272281353669
 20
18.3580103328165
 30
0.0
 11
20.66272281353669
 21
18.35448244079768
 31
0.0
  0
LINE
  5
9B2
330
1F
100
AcDbEntity
  8
PART
100
AcDbLine
 10
19.13637167192842
 20
18.44299156274635
 30
0.0
 11
19.13637167192844
 21
18.40257341684319
 31
0.0
  0
ARC
  5
9B3
330
1F
100
AcDbEntity
  8
PART
100
AcDbCircle
 10
19.52580283538994
 20
21.14409990806888
 30
0.0
 40
0.4112947537483313
100
AcDbArc
 50
139.8803500589057
 51
188.5222233708113
  0
LINE
  5
9B4
330
1F
100
AcDbEntity
  8
PART
100
AcDbLine
 10
14.05056947324725
 20
21.03720516483567
 30
0.0
 11
13.94556947324725
 21
21.03720516483567
 31
0.0
  0
LINE
  5
9B5
330
1F
100
AcDbEntity
  8
PART
100
AcDbLine
 10
14.06556947324725
 20
21.02220532510977
 30
0.0
 11
14.06556947324725
 21
17.53719785149056
 31
0.0
  0
ARC
  5
9B6
330
1F
100
AcDbEntity
  8
PART
100
AcDbCircle
 10
14.05056947324725
 20
21.02220516483567
 30
0.0
 40
0.015
100
AcDbArc
 50
0.0
 51
90.00000000000255
  0
LINE
  5
9B7
330
1F
100
AcDbEntity
  8
PART
100
AcDbLine
 10
14.05056947324725
 20
21.03720516483567
 30
0.0
 11
14.05056947324725
 21
17.53719785149056
 31
0.0
  0
ARC
  5
9B8
330
1F
100
AcDbEntity
  8
PART
100
AcDbCircle
 10
14.05056947324725
 20
17.55219785149056
 30
0.0
 40
0.015
100
AcDbArc
 50
269.9999999999983
 51
0.0
  0
LINE
  5
9B9
330
1F
100
AcDbEntity
  8
0
100
AcDbLine
 10
14.70011947324725
 20
17.53719785149056
 30
0.0
 11
14.06556947324725
 21
17.53719785149056
 31
0.0
  0
LINE
  5
9BA
330
1F
100
AcDbEntity
  8
0
100
AcDbLine
 10
14.06556947324725
 20
18.75177633176581
 30
0.0
 11
14.06580967310843
 21
18.2528125929693
 31
0.0
  0
LINE
  5
9BB
330
1F
100
AcDbEntity
  8
0
100
AcDbLine
 10
14.06556947324725
 20
18.75177633176581
 30
0.0
 11
14.06556947324725
 21
19.28649785149055
 31
0.0
  0
LINE
  5
9BC
330
1F
100
AcDbEntity
  8
0
100
AcDbLine
 10
14.06556947324725
 20
21.03579785149056
 30
0.0
 11
14.06556947324725
 21
20.54679493444258
 31
0.0
  0
LINE
  5
9BD
330
1F
100
AcDbEntity
  8
0
100
AcDbLine
 10
14.0856287474899
 20
21.03579785149056
 30
0.0
 11
14.06556947324725
 21
21.03579785149056
 31
0.0
  0
LINE
  5
9BE
330
1F
100
AcDbEntity
  8
0
100
AcDbLine
 10
14.06556947324725
 20
20.54660642685477
 30
0.0
 11
14.06556947324725
 21
19.28649785149055
 31
0.0
  0
LINE
  5
9BF
330
1F
100
AcDbEntity
  8
0
100
AcDbLine
 10
14.69943347324725
 20
21.03579785149056
 30
0.0
 11
14.06556947324725
 21
21.03579785149056
 31
0.0
  0
LINE
  5
9C0
330
1F
100
AcDbEntity
  8
0
100
AcDbLine
 10
14.06556947324725
 20
17.53719785149056
 30
0.0
 11
14.06556947324725
 21
18.2528125929693
 31
0.0
  0
LINE
  5
9C1
330
1F
100
AcDbEntity
  8
0
100
AcDbLine
 10
15.40288674850217
 20
17.53719785149056
 30
0.0
 11
14.70011947324725
 21
17.53719785149055
 31
0.0
  0
LINE
  5
9C2
330
1F
100
AcDbEntity
  8
0
100
AcDbLine
 10
15.40288674850216
 20
21.03579785149056
 30
0.0
 11
14.70011947324725
 21
21.03579785149056
 31
0.0
  0
LINE
  5
9C3
330
1F
100
AcDbEntity
  8
PART
100
AcDbLine
 10
20.44859645763767
 20
16.88429772569917
 30
0.0
 11
20.44859645763767
 21
16.77682161869719
 31
0.0
  0
LINE
  5
9C4
330
1F
100
AcDbEntity
  8
PART
100
AcDbLine
 10
20.44859645763767
 20
18.17659085173282
 30
0.0
 11
20.44859645763767
 21
17.67913819147631
 31
0.0
  0
LINE
  5
9C5
330
1F
100
AcDbEntity
  8
PART
100
AcDbLine
 10
20.44859645763767
 20
19.61932427349542
 30
0.0
 11
20.44859645763767
 21
18.95474920606934
 31
0.0
  0
LINE
  5
9C6
330
1F
100
AcDbEntity
  8
PART
100
AcDbLine
 10
20.44859645763767
 20
20.89493528808846
 30
0.0
 11
20.44859645763767
 21
20.39748262783195
 31
0.0
  0
LINE
  5
9C7
330
1F
100
AcDbEntity
  8
PART
100
AcDbLine
 10
20.44859645763767
 20
21.79725186086757
 30
0.0
 11
20.44859645763767
 21
21.6897757538656
 31
0.0
  0
ARC
  5
9C8
330
1F
100
AcDbEntity
  8
PART
100
AcDbCircle
 10
21.12469604032282
 20
16.6180075341764
 30
0.0
 40
0.4205361691285684
100
AcDbArc
 50
192.1517024578709
 51
270.7206418563965
  0
LINE
  5
9C9
330
1F
100
AcDbEntity
  8
PART
100
AcDbLine
 10
20.94353359087556
 20
16.22658889523758
 30
0.0
 11
19.70001457657346
 21
16.22658889523758
 31
0.0
  0
ARC
  5
9CA
330
1F
100
AcDbEntity
  8
PART
100
AcDbCircle
 10
19.32432574071879
 20
17.46575147446946
 30
0.0
 40
0.2134488954890121
100
AcDbArc
 50
88.61700288031904
 51
164.0938386382442
  0
LINE
  5
9CB
330
1F
100
AcDbEntity
  8
PART
100
AcDbLine
 10
19.68708795009208
 20
16.88429772569917
 30
0.0
 11
20.78541245952352
 21
16.88429772569917
 31
0.0
  0
LINE
  5
9CC
330
1F
100
AcDbEntity
  8
PART
100
AcDbLine
 10
20.55928801186512
 20
18.95474920606934
 30
0.0
 11
19.31637167192838
 21
18.95474920606934
 31
0.0
  0
LINE
  5
9CD
330
1F
100
AcDbEntity
  8
PART
100
AcDbLine
 10
19.13637167192838
 20
18.77474920606928
 30
0.0
 11
19.13637167192848
 21
18.48163531330494
 31
0.0
  0
LINE
  5
9CE
330
1F
100
AcDbEntity
  8
PART
100
AcDbLine
 10
19.45897302181145
 20
18.17659085173282
 30
0.0
 11
20.56410943602884
 21
18.17659085173282
 31
0.0
  0
LINE
  5
9CF
330
1F
100
AcDbEntity
  8
PART
100
AcDbLine
 10
20.56338581808777
 20
18.65721807058772
 30
0.0
 11
19.6177740344882
 21
18.65721807058777
 31
0.0
  0
LINE
  5
9D0
330
1F
100
AcDbEntity
  8
PART
100
AcDbLine
 10
20.59777170112775
 20
18.34824342989529
 30
0.0
 11
19.65215991752818
 21
18.34824342989533
 31
0.0
  0
ARC
  5
9D1
330
1F
100
AcDbEntity
  8
PART
100
AcDbCircle
 10
19.64261027697413
 20
18.71438451102083
 30
0.0
 40
0.3662655961491501
100
AcDbArc
 50
196.3231290054969
 51
271.4940418018773
  0
LINE
  5
9D2
330
1F
100
AcDbEntity
  8
PART
100
AcDbLine
 10
20.58057875960776
 20
17.25240098109597
 30
0.0
 11
19.68654580056817
 21
17.25240098109601
 31
0.0
  0
LINE
  5
9D3
330
1F
100
AcDbEntity
  8
PART
100
AcDbLine
 10
20.58057875960776
 20
17.09219190814433
 30
0.0
 11
19.60058109296821
 21
17.09219190814437
 31
0.0
  0
ARC
  5
9D4
330
1F
100
AcDbEntity
  8
PART
100
AcDbCircle
 10
19.60261956499462
 20
17.38104556522502
 30
0.0
 40
0.2892509172924394
100
AcDbArc
 50
196.6485679559407
 51
273.0032225108711
  0
ARC
  5
9D5
330
1F
100
AcDbEntity
  8
PART
100
AcDbCircle
 10
20.53178468388258
 20
19.02047202989572
 30
0.0
 40
0.844500048821145
100
AcDbArc
 50
272.1936344726346
 51
297.013100218924
  0
ARC
  5
9D6
330
1F
100
AcDbEntity
  8
PART
100
AcDbCircle
 10
20.31670694203776
 20
18.1103762956869
 30
0.0
 40
0.8785278522769244
100
AcDbArc
 50
34.81554596565643
 51
73.97109708616515
  0
ARC
  5
9D7
330
1F
100
AcDbEntity
  8
PART
100
AcDbCircle
 10
20.77766219162056
 20
18.51099739812475
 30
0.0
 40
0.2792047438403234
100
AcDbArc
 50
291.9770711727395
 51
21.19891827279281
  0
ARC
  5
9D8
330
1F
100
AcDbEntity
  8
PART
100
AcDbCircle
 10
19.51014938313244
 20
18.55381927244325
 30
0.0
 40
0.3806839914545141
100
AcDbArc
 50
190.9304033675906
 51
262.2741853861267
  0
ARC
  5
9D9
330
1F
100
AcDbEntity
  8
PART
100
AcDbCircle
 10
19.31637167192838
 20
18.77474920606934
 30
0.0
 40
0.18
100
AcDbArc
 50
90.0
 51
180.0000000000194
  0
LINE
  5
9DA
330
1F
100
AcDbEntity
  8
PART
100
AcDbLine
 10
19.31917404289028
 20
17.67913819147631
 30
0.0
 11
20.48530774233637
 21
17.67913819147631
 31
0.0
  0
ARC
  5
9DB
330
1F
100
AcDbEntity
  8
PART
100
AcDbCircle
 10
19.74488157247374
 20
17.06429772569917
 30
0.0
 40
0.18
100
AcDbArc
 50
251.2720100821728
 51
270.0
  0
ARC
  5
9DC
330
1F
100
AcDbEntity
  8
PART
100
AcDbCircle
 10
19.71782567783076
 20
17.48703517392687
 30
0.0
 40
0.5999316215252934
100
AcDbArc
 50
176.4435726294439
 51
269.5506362383937
  0
ARC
  5
9DD
330
1F
100
AcDbEntity
  8
PART
100
AcDbCircle
 10
20.81406381706697
 20
17.1496086309088
 30
0.0
 40
0.2668534742367737
100
AcDbArc
 50
263.8364215016577
 51
335.4132073989462
  0
ARC
  5
9DE
330
1F
100
AcDbEntity
  8
PART
100
AcDbCircle
 10
20.47706471973584
 20
17.47823392869715
 30
0.0
 40
0.2010732956521882
100
AcDbArc
 50
12.80253775755588
 51
87.65049459926734
  0
ARC
  5
9DF
330
1F
100
AcDbEntity
  8
PART
100
AcDbCircle
 10
20.83232893673131
 20
17.03014520608517
 30
0.0
 40
0.2245517153486815
100
AcDbArc
 50
2.152336531025421
 51
55.03763915666347
  0
ARC
  5
9E0
330
1F
100
AcDbEntity
  8
PART
100
AcDbCircle
 10
21.26315456066969
 20
17.78456787759339
 30
0.0
 40
0.6454809699091239
100
AcDbArc
 50
203.9258860096381
 51
242.089039026414
  0
ARC
  5
9E1
330
1F
100
AcDbEntity
  8
PART
100
AcDbCircle
 10
19.71782567783076
 20
16.82650206574372
 30
0.0
 40
0.5999316215252934
100
AcDbArc
 50
191.4673406563504
 51
269.5506362383937
  0
ARC
  5
9E2
330
1F
100
AcDbEntity
  8
PART
100
AcDbCircle
 10
19.28761445602009
 20
16.56343490169034
 30
0.0
 40
0.2134488954890121
100
AcDbArc
 50
88.61700288031904
 51
137.6486686271603
  0
LINE
  5
9E3
330
1F
100
AcDbEntity
  8
PART
100
AcDbLine
 10
19.28246275819158
 20
16.77682161869719
 30
0.0
 11
20.44859645763767
 21
16.77682161869719
 31
0.0
  0
ARC
  5
9E4
330
1F
100
AcDbEntity
  8
PART
100
AcDbCircle
 10
20.44035343503714
 20
16.57591735591803
 30
0.0
 40
0.2010732956521882
100
AcDbArc
 50
12.80253775755588
 51
87.65049459926734
  0
LINE
  5
9E5
330
1F
100
AcDbEntity
  8
PART
100
AcDbLine
 10
20.63642795616084
 20
16.62047352710167
 30
0.0
 11
20.71358253770718
 21
16.52948433093322
 31
0.0
  0
LINE
  5
9E6
330
1F
100
AcDbEntity
  8
PART
100
AcDbLine
 10
20.25073865864563
 20
16.32064609268094
 30
0.0
 11
19.57929707047266
 21
16.32064609268094
 31
0.0
  0
LINE
  5
9E7
330
1F
100
AcDbEntity
  8
PART
100
AcDbLine
 10
20.33481054750303
 20
16.40689318746057
 30
0.0
 11
19.67537168875801
 21
16.40689318746057
 31
0.0
  0
ARC
  5
9E8
330
1F
100
AcDbEntity
  8
PART
100
AcDbCircle
 10
19.58133554249907
 20
16.60949974976158
 30
0.0
 40
0.2892509172924394
100
AcDbArc
 50
196.6485679559407
 51
273.0032225108711
  0
LINE
  5
9E9
330
1F
100
AcDbEntity
  8
PART
100
AcDbLine
 10
22.20806442836291
 20
19.15203673978236
 30
0.0
 11
21.90806442836306
 21
19.15203673978236
 31
0.0
  0
LINE
  5
9EA
330
1F
100
AcDbEntity
  8
PART
100
AcDbLine
 10
22.20806442836289
 20
18.91547700438844
 30
0.0
 11
21.90806442836306
 21
18.91547700438844
 31
0.0
  0
LINE
  5
9EB
330
1F
100
AcDbEntity
  8
PART
100
AcDbLine
 10
22.20806442836291
 20
18.64547700438844
 30
0.0
 11
21.90806442836306
 21
18.64547700438844
 31
0.0
  0
LINE
  5
9EC
330
1F
100
AcDbEntity
  8
PART
100
AcDbLine
 10
22.20806442836289
 20
18.43711859880111
 30
0.0
 11
21.90806442836306
 21
18.43711859880111
 31
0.0
  0
LINE
  5
9ED
330
1F
100
AcDbEntity
  8
PART
100
AcDbLine
 10
22.20806442836291
 20
18.16711859880111
 30
0.0
 11
21.90806442836306
 21
18.16711859880111
 31
0.0
  0
LINE
  5
9EE
330
1F
100
AcDbEntity
  8
PART
100
AcDbLine
 10
22.20806442836289
 20
17.95929229377617
 30
0.0
 11
21.90806442836306
 21
17.95929229377617
 31
0.0
  0
LINE
  5
9EF
330
1F
100
AcDbEntity
  8
PART
100
AcDbLine
 10
22.20806442836291
 20
17.68929229377618
 30
0.0
 11
21.90806442836306
 21
17.68929229377618
 31
0.0
  0
LINE
  5
9F0
330
1F
100
AcDbEntity
  8
PART
100
AcDbLine
 10
22.20806442836289
 20
17.51019941912022
 30
0.0
 11
21.90806442836306
 21
17.51019941912022
 31
0.0
  0
LINE
  5
9F1
330
1F
100
AcDbEntity
  8
PART
100
AcDbLine
 10
22.20806442836291
 20
17.24019941912022
 30
0.0
 11
21.90806442836306
 21
17.24019941912022
 31
0.0
  0
LINE
  5
9F2
330
1F
100
AcDbEntity
  8
PART
100
AcDbLine
 10
22.20806442836289
 20
17.08983997483325
 30
0.0
 11
21.90806442836306
 21
17.08983997483325
 31
0.0
  0
LINE
  5
9F3
330
1F
100
AcDbEntity
  8
PART
100
AcDbLine
 10
22.20806442836291
 20
16.81983997483324
 30
0.0
 11
21.90806442836306
 21
16.81983997483324
 31
0.0
  0
LINE
  5
9F4
330
1F
100
AcDbEntity
  8
PART
100
AcDbLine
 10
22.20806442836289
 20
16.70725967047586
 30
0.0
 11
21.90806442836306
 21
16.70725967047586
 31
0.0
  0
LINE
  5
9F5
330
1F
100
AcDbEntity
  8
PART
100
AcDbLine
 10
22.20806442836291
 20
16.43725967047586
 30
0.0
 11
21.90806442836306
 21
16.43725967047586
 31
0.0
  0
LINE
  5
9F6
330
1F
100
AcDbEntity
  8
PART
100
AcDbLine
 10
22.20806442836289
 20
16.32467936611847
 30
0.0
 11
21.90806442836306
 21
16.32467936611847
 31
0.0
  0
LINE
  5
9F7
330
1F
100
AcDbEntity
  8
PART
100
AcDbLine
 10
22.20806442836289
 20
22.24939411344629
 30
0.0
 11
21.90806442836306
 21
22.24939411344629
 31
0.0
  0
LINE
  5
9F8
330
1F
100
AcDbEntity
  8
PART
100
AcDbLine
 10
22.20806442836291
 20
22.13681380908891
 30
0.0
 11
21.90806442836306
 21
22.13681380908891
 31
0.0
  0
LINE
  5
9F9
330
1F
100
AcDbEntity
  8
PART
100
AcDbLine
 10
22.20806442836289
 20
21.86681380908892
 30
0.0
 11
21.90806442836306
 21
21.86681380908892
 31
0.0
  0
LINE
  5
9FA
330
1F
100
AcDbEntity
  8
PART
100
AcDbLine
 10
22.20806442836291
 20
21.75423350473153
 30
0.0
 11
21.90806442836306
 21
21.75423350473153
 31
0.0
  0
LINE
  5
9FB
330
1F
100
AcDbEntity
  8
PART
100
AcDbLine
 10
22.20806442836289
 20
21.48423350473153
 30
0.0
 11
21.90806442836306
 21
21.48423350473153
 31
0.0
  0
LINE
  5
9FC
330
1F
100
AcDbEntity
  8
PART
100
AcDbLine
 10
22.20806442836291
 20
21.33387406044455
 30
0.0
 11
21.90806442836306
 21
21.33387406044455
 31
0.0
  0
LINE
  5
9FD
330
1F
100
AcDbEntity
  8
PART
100
AcDbLine
 10
22.20806442836289
 20
21.06387406044455
 30
0.0
 11
21.90806442836306
 21
21.06387406044455
 31
0.0
  0
LINE
  5
9FE
330
1F
100
AcDbEntity
  8
PART
100
AcDbLine
 10
22.20806442836291
 20
20.88478118578859
 30
0.0
 11
21.90806442836306
 21
20.88478118578859
 31
0.0
  0
LINE
  5
9FF
330
1F
100
AcDbEntity
  8
PART
100
AcDbLine
 10
22.20806442836289
 20
20.61478118578859
 30
0.0
 11
21.90806442836306
 21
20.61478118578859
 31
0.0
  0
LINE
  5
A00
330
1F
100
AcDbEntity
  8
PART
100
AcDbLine
 10
22.20806442836291
 20
20.40695488076366
 30
0.0
 11
21.90806442836306
 21
20.40695488076366
 31
0.0
  0
LINE
  5
A01
330
1F
100
AcDbEntity
  8
PART
100
AcDbLine
 10
22.20806442836289
 20
20.13695488076366
 30
0.0
 11
21.90806442836306
 21
20.13695488076366
 31
0.0
  0
LINE
  5
A02
330
1F
100
AcDbEntity
  8
PART
100
AcDbLine
 10
22.20806442836291
 20
19.92859647517633
 30
0.0
 11
21.90806442836306
 21
19.92859647517633
 31
0.0
  0
LINE
  5
A03
330
1F
100
AcDbEntity
  8
PART
100
AcDbLine
 10
22.20806442836289
 20
19.65859647517633
 30
0.0
 11
21.90806442836306
 21
19.65859647517633
 31
0.0
  0
LINE
  5
A04
330
1F
100
AcDbEntity
  8
PART
100
AcDbLine
 10
22.20806442836289
 20
19.15203673978239
 30
0.0
 11
21.90806442836306
 21
19.15203673978239
 31
0.0
  0
LINE
  5
A05
330
1F
100
AcDbEntity
  8
PART
100
AcDbLine
 10
22.20806442836291
 20
19.4220367397824
 30
0.0
 11
21.90806442836306
 21
19.4220367397824
 31
0.0
  0
LINE
  5
A06
330
1F
100
AcDbEntity
  8
PART
100
AcDbLine
 10
22.20806442836306
 20
22.37638715018403
 30
0.0
 11
22.20806442836275
 21
16.18703673978239
 31
0.0
  0
ARC
  5
A07
330
1F
100
AcDbEntity
  8
PART
100
AcDbCircle
 10
19.58133554249907
 20
21.96457372980319
 30
0.0
 40
0.2892509172924394
100
AcDbArc
 50
86.99677748912897
 51
163.3514320440593
  0
LINE
  5
A08
330
1F
100
AcDbEntity
  8
PART
100
AcDbLine
 10
20.33481054750303
 20
22.1671802921042
 30
0.0
 11
19.67537168875801
 21
22.1671802921042
 31
0.0
  0
LINE
  5
A09
330
1F
100
AcDbEntity
  8
PART
100
AcDbLine
 10
20.25073865864563
 20
22.25342738688382
 30
0.0
 11
19.57929707047266
 21
22.25342738688382
 31
0.0
  0
LINE
  5
A0A
330
1F
100
AcDbEntity
  8
PART
100
AcDbLine
 10
20.63642795616084
 20
21.9535999524631
 30
0.0
 11
20.71358253770718
 21
22.04458914863154
 31
0.0
  0
ARC
  5
A0B
330
1F
100
AcDbEntity
  8
PART
100
AcDbCircle
 10
20.44035343503714
 20
21.99815612364674
 30
0.0
 40
0.2010732956521882
100
AcDbArc
 50
272.3495054007326
 51
347.1974622424442
  0
LINE
  5
A0C
330
1F
100
AcDbEntity
  8
PART
100
AcDbLine
 10
19.28246275819158
 20
21.79725186086757
 30
0.0
 11
20.44859645763767
 21
21.79725186086757
 31
0.0
  0
ARC
  5
A0D
330
1F
100
AcDbEntity
  8
PART
100
AcDbCircle
 10
19.28761445602009
 20
22.01063857787443
 30
0.0
 40
0.2134488954890121
100
AcDbArc
 50
222.3513313728397
 51
271.3829971196808
  0
LINE
  5
A0E
330
1F
100
AcDbEntity
  8
PART
100
AcDbLine
 10
19.0744985128622
 20
21.86460651109257
 30
0.0
 11
19.12747437144335
 21
21.86460651109257
 31
0.0
  0
ARC
  5
A0F
330
1F
100
AcDbEntity
  8
PART
100
AcDbCircle
 10
19.71782567783076
 20
21.74757141382105
 30
0.0
 40
0.5999316215252934
100
AcDbArc
 50
90.44936376160647
 51
168.5326593436496
  0
ARC
  5
A10
330
1F
100
AcDbEntity
  8
PART
100
AcDbCircle
 10
21.26315456066969
 20
20.78950560197138
 30
0.0
 40
0.6454809699091239
100
AcDbArc
 50
117.9109609735859
 51
156.0741139903616
  0
ARC
  5
A11
330
1F
100
AcDbEntity
  8
PART
100
AcDbCircle
 10
20.83232893673131
 20
21.5439282734796
 30
0.0
 40
0.2245517153486815
100
AcDbArc
 50
304.9623608433364
 51
357.8476634689747
  0
ARC
  5
A12
330
1F
100
AcDbEntity
  8
PART
100
AcDbCircle
 10
20.47706471973584
 20
21.09583955086762
 30
0.0
 40
0.2010732956521882
100
AcDbArc
 50
272.3495054007326
 51
347.1974622424442
  0
ARC
  5
A13
330
1F
100
AcDbEntity
  8
PART
100
AcDbCircle
 10
20.81406381706697
 20
21.42446484865597
 30
0.0
 40
0.2668534742367737
100
AcDbArc
 50
24.58679260105375
 51
96.1635784983423
  0
ARC
  5
A14
330
1F
100
AcDbEntity
  8
PART
100
AcDbCircle
 10
19.71782567783076
 20
21.0870383056379
 30
0.0
 40
0.5999316215252934
100
AcDbArc
 50
90.44936376160647
 51
183.5564273705561
  0
ARC
  5
A15
330
1F
100
AcDbEntity
  8
PART
100
AcDbCircle
 10
19.74488157247374
 20
21.5097757538656
 30
0.0
 40
0.18
100
AcDbArc
 50
90.0
 51
108.7279899178271
  0
LINE
  5
A16
330
1F
100
AcDbEntity
  8
PART
100
AcDbLine
 10
19.31917404289028
 20
20.89493528808846
 30
0.0
 11
20.48530774233637
 21
20.89493528808846
 31
0.0
  0
ARC
  5
A17
330
1F
100
AcDbEntity
  8
PART
100
AcDbCircle
 10
19.31637167192838
 20
19.79932427349542
 30
0.0
 40
0.18
100
AcDbArc
 50
179.9999999999805
 51
270.0
  0
ARC
  5
A18
330
1F
100
AcDbEntity
  8
PART
100
AcDbCircle
 10
19.51014938313244
 20
20.02025420712152
 30
0.0
 40
0.3806839914545141
100
AcDbArc
 50
97.72581461387336
 51
169.0695966324093
  0
ARC
  5
A19
330
1F
100
AcDbEntity
  8
PART
100
AcDbCircle
 10
20.77766219162056
 20
20.06307608144002
 30
0.0
 40
0.2792047438403234
100
AcDbArc
 50
338.8010817272072
 51
68.0229288272605
  0
ARC
  5
A1A
330
1F
100
AcDbEntity
  8
PART
100
AcDbCircle
 10
20.31670694203776
 20
20.46369718387787
 30
0.0
 40
0.8785278522769244
100
AcDbArc
 50
286.0289029138348
 51
325.1844540343435
  0
ARC
  5
A1B
330
1F
100
AcDbEntity
  8
PART
100
AcDbCircle
 10
20.53178468388258
 20
19.55360144966904
 30
0.0
 40
0.844500048821145
100
AcDbArc
 50
62.98689978107585
 51
87.80636552736543
  0
ARC
  5
A1C
330
1F
100
AcDbEntity
  8
PART
100
AcDbCircle
 10
19.60261956499462
 20
21.19302791433975
 30
0.0
 40
0.2892509172924394
100
AcDbArc
 50
86.99677748912897
 51
163.3514320440593
  0
LINE
  5
A1D
330
1F
100
AcDbEntity
  8
PART
100
AcDbLine
 10
20.58057875960776
 20
21.48188157142044
 30
0.0
 11
19.60058109296821
 21
21.4818815714204
 31
0.0
  0
LINE
  5
A1E
330
1F
100
AcDbEntity
  8
PART
100
AcDbLine
 10
20.58057875960776
 20
21.32167249846881
 30
0.0
 11
19.68654580056817
 21
21.32167249846876
 31
0.0
  0
ARC
  5
A1F
330
1F
100
AcDbEntity
  8
PART
100
AcDbCircle
 10
19.64261027697413
 20
19.85968896854394
 30
0.0
 40
0.3662655961491501
100
AcDbArc
 50
88.50595819812269
 51
163.6768709945031
  0
LINE
  5
A20
330
1F
100
AcDbEntity
  8
PART
100
AcDbLine
 10
20.59777170112775
 20
20.22583004966948
 30
0.0
 11
19.65215991752818
 21
20.22583004966945
 31
0.0
  0
LINE
  5
A21
330
1F
100
AcDbEntity
  8
PART
100
AcDbLine
 10
20.56338581808777
 20
19.91685540897705
 30
0.0
 11
19.6177740344882
 21
19.916855408977
 31
0.0
  0
LINE
  5
A22
330
1F
100
AcDbEntity
  8
PART
100
AcDbLine
 10
19.45897302181145
 20
20.39748262783195
 30
0.0
 11
20.56410943602884
 21
20.39748262783195
 31
0.0
  0
LINE
  5
A23
330
1F
100
AcDbEntity
  8
PART
100
AcDbLine
 10
19.13637167192838
 20
19.79932427349548
 30
0.0
 11
19.13637167192848
 21
20.09243816625982
 31
0.0
  0
LINE
  5
A24
330
1F
100
AcDbEntity
  8
PART
100
AcDbLine
 10
20.55928801186512
 20
19.61932427349542
 30
0.0
 11
19.31637167192838
 21
19.61932427349542
 31
0.0
  0
LINE
  5
A25
330
1F
100
AcDbEntity
  8
PART
100
AcDbLine
 10
19.68708795009208
 20
21.6897757538656
 30
0.0
 11
20.78541245952352
 21
21.6897757538656
 31
0.0
  0
ARC
  5
A26
330
1F
100
AcDbEntity
  8
PART
100
AcDbCircle
 10
19.32432574071879
 20
21.10832200509531
 30
0.0
 40
0.2134488954890121
100
AcDbArc
 50
195.9061613617556
 51
271.3829971196808
  0
LINE
  5
A27
330
1F
100
AcDbEntity
  8
PART
100
AcDbLine
 10
20.94353359087556
 20
22.34748458432719
 30
0.0
 11
19.70001457657346
 21
22.34748458432719
 31
0.0
  0
ARC
  5
A28
330
1F
100
AcDbEntity
  8
PART
100
AcDbCircle
 10
21.12469604032282
 20
21.95606594538837
 30
0.0
 40
0.4205361691285684
100
AcDbArc
 50
89.27935814360346
 51
167.8482975421291
  0
ARC
  5
A29
330
1F
100
AcDbEntity
  8
PART
100
AcDbCircle
 10
19.08831613179609
 20
21.68430616730582
 30
0.0
 40
0.1797778002427377
100
AcDbArc
 50
94.4080681554298
 51
141.3639242843932
  0
ARC
  5
A2A
330
1F
100
AcDbEntity
  8
PART
100
AcDbCircle
 10
19.1525134506634
 20
17.03102252090362
 30
0.0
 40
0.3546590001974109
100
AcDbArc
 50
234.5319548779046
 51
257.0816216762308
  0
LINE
  5
A2B
330
1F
100
AcDbEntity
  8
PART
100
AcDbLine
 10
19.0744985128622
 20
21.86460651109257
 30
0.0
 11
19.07449851286224
 21
16.68594800139091
 31
0.0
  0
LINE
  5
A2C
330
1F
100
AcDbEntity
  8
PART
100
AcDbLine
 10
21.90806442836306
 20
16.18703673978241
 30
0.0
 11
21.90806442836306
 21
22.37638715018403
 31
0.0
  0
LINE
  5
A2D
330
1F
100
AcDbEntity
  8
PART
100
AcDbLine
 10
21.12016199663805
 20
16.18703673978245
 30
0.0
 11
22.20806442836275
 21
16.18703673978239
 31
0.0
  0
LINE
  5
A2E
330
1F
100
AcDbEntity
  8
PART
100
AcDbLine
 10
21.120161996638
 20
22.37638715018402
 30
0.0
 11
21.12016199663804
 21
16.18703673978245
 31
0.0
  0
LINE
  5
A2F
330
1F
100
AcDbEntity
  8
PART
100
AcDbLine
 10
22.20806442836306
 20
22.37638715018403
 30
0.0
 11
21.120161996638
 21
22.37638715018403
 31
0.0
  0
LINE
  5
A30
330
1F
100
AcDbEntity
  8
PART
100
AcDbLine
 10
19.07322490177484
 20
16.68534010533092
 30
0.0
 11
19.13473799022419
 21
16.68534010533092
 31
0.0
  0
LINE
  5
A31
330
1F
100
AcDbEntity
  8
PART
100
AcDbLine
 10
18.94788674850215
 20
21.7965543110222
 30
0.0
 11
18.94788674850215
 21
16.74134870575345
 31
0.0
  0
ARC
  5
A32
330
1F
100
AcDbEntity
  8
PART
100
AcDbCircle
 10
15.81335556188475
 20
19.26895150838782
 30
0.0
 40
2.417042339434765
100
AcDbArc
 50
0.0
 51
5.832190181999044
  0
ARC
  5
A33
330
1F
100
AcDbEntity
  8
PART
100
AcDbCircle
 10
18.0218256934113
 20
19.26895150838782
 30
0.0
 40
0.5624031856691396
100
AcDbArc
 50
180.0000000000002
 51
189.9529985264307
  0
LINE
  5
A34
330
1F
100
AcDbEntity
  8
PART
100
AcDbLine
 10
16.99288674850216
 20
21.33582650838782
 30
0.0
 11
16.99288674850216
 21
19.26895150838782
 31
0.0
  0
ARC
  5
A35
330
1F
100
AcDbEntity
  8
PART
100
AcDbCircle
 10
16.71788674850217
 20
21.60091842015253
 30
0.0
 40
0.3819669117647013
100
AcDbArc
 50
270.0
 51
316.0509840170564
  0
ARC
  5
A36
330
1F
100
AcDbEntity
  8
PART
100
AcDbCircle
 10
17.81788674850217
 20
20.54055077309372
 30
0.0
 40
1.145900735294113
100
AcDbArc
 50
108.22944731508
 51
136.0509840170564
  0
ARC
  5
A37
330
1F
100
AcDbEntity
  8
PART
100
AcDbCircle
 10
15.81335556188475
 20
19.26895150838782
 30
0.0
 40
2.417042339434765
100
AcDbArc
 50
354.1678098180011
 51
0.0
  0
ARC
  5
A38
330
1F
100
AcDbEntity
  8
PART
100
AcDbCircle
 10
18.0218256934113
 20
19.26895150838782
 30
0.0
 40
0.5624031856691396
100
AcDbArc
 50
170.0470014735691
 51
180.0000000000002
  0
LINE
  5
A39
330
1F
100
AcDbEntity
  8
PART
100
AcDbLine
 10
18.22539790131951
 20
21.68645150838782
 30
0.0
 11
18.94788674850216
 21
21.68645150838782
 31
0.0
  0
LINE
  5
A3A
330
1F
100
AcDbEntity
  8
PART
100
AcDbLine
 10
18.21788674850215
 20
21.67894035557047
 30
0.0
 11
18.22539790131951
 21
21.68645150838782
 31
0.0
  0
LINE
  5
A3B
330
1F
100
AcDbEntity
  8
PART
100
AcDbLine
 10
17.45942250774179
 20
21.62894035557046
 30
0.0
 11
17.46788674850215
 21
21.62894035557046
 31
0.0
  0
LINE
  5
A3C
330
1F
100
AcDbEntity
  8
PART
100
AcDbLine
 10
16.71788674850217
 20
21.21895150838783
 30
0.0
 11
16.71788674850217
 21
19.26895150838782
 31
0.0
  0
LINE
  5
A3D
330
1F
100
AcDbEntity
  8
PART
100
AcDbLine
 10
18.94788674850215
 20
19.26895150838782
 30
0.0
 11
18.94788674850215
 21
21.68645150838782
 31
0.0
  0
ARC
  5
A3E
330
1F
100
AcDbEntity
  8
PART
100
AcDbCircle
 10
15.50288674850216
 20
21.16895150838782
 30
0.0
 40
0.1
100
AcDbArc
 50
90.0000000000001
 51
180.0
  0
LINE
  5
A3F
330
1F
100
AcDbEntity
  8
PART
100
AcDbLine
 10
15.70288674850216
 20
21.26895150838782
 30
0.0
 11
15.50288674850216
 21
21.26895150838782
 31
0.0
  0
LINE
  5
A40
330
1F
100
AcDbEntity
  8
PART
100
AcDbLine
 10
15.50288674850216
 20
21.26895150838782
 30
0.0
 11
15.50288674850216
 21
19.26895150838782
 31
0.0
  0
LINE
  5
A41
330
1F
100
AcDbEntity
  8
PART
100
AcDbLine
 10
18.21788674850215
 20
23.38992006823389
 30
0.0
 11
18.21788674850215
 21
15.14798294854176
 31
0.0
  0
LINE
  5
A42
330
1F
100
AcDbEntity
  8
PART
100
AcDbLine
 10
17.46788674850215
 20
23.38992006823389
 30
0.0
 11
17.46788674850215
 21
15.14798294854176
 31
0.0
  0
LINE
  5
A43
330
1F
100
AcDbEntity
  8
PART
100
AcDbLine
 10
18.13551809291356
 20
15.0548821195178
 30
0.0
 11
18.13551809291356
 21
19.14577218273624
 31
0.0
  0
LINE
  5
A44
330
1F
100
AcDbEntity
  8
PART
100
AcDbLine
 10
17.84288674850215
 20
15.01895150838782
 30
0.0
 11
17.84288674850215
 21
18.95145150838782
 31
0.0
  0
LINE
  5
A45
330
1F
100
AcDbEntity
  8
PART
100
AcDbLine
 10
17.55025540409075
 20
15.0548821195178
 30
0.0
 11
17.55025540409075
 21
19.14577218273624
 31
0.0
  0
LINE
  5
A46
330
1F
100
AcDbEntity
  8
PART
100
AcDbLine
 10
17.55025540409075
 20
15.0548821195178
 30
0.0
 11
17.84288674850215
 21
15.01895150838782
 31
0.0
  0
LINE
  5
A47
330
1F
100
AcDbEntity
  8
PART
100
AcDbLine
 10
18.13551809291356
 20
15.0548821195178
 30
0.0
 11
17.84288674850215
 21
15.01895150838782
 31
0.0
  0
ARC
  5
A48
330
1F
100
AcDbEntity
  8
PART
100
AcDbCircle
 10
17.56168674850216
 20
15.14798294854176
 30
0.0
 40
0.0938
100
AcDbArc
 50
180.0
 51
263.0
  0
ARC
  5
A49
330
1F
100
AcDbEntity
  8
PART
100
AcDbCircle
 10
18.12408674850215
 20
15.14798294854176
 30
0.0
 40
0.0938
100
AcDbArc
 50
277.0
 51
0.0
  0
CIRCLE
  5
A4A
330
1F
100
AcDbEntity
  8
PART
100
AcDbCircle
 10
17.84288674850215
 20
19.26895150838782
 30
0.0
 40
0.3175
  0
ARC
  5
A4B
330
1F
100
AcDbEntity
  8
PART
100
AcDbCircle
 10
18.12408674850215
 20
23.38992006823389
 30
0.0
 40
0.0938
100
AcDbArc
 50
0.0
 51
83.00000000000009
  0
ARC
  5
A4C
330
1F
100
AcDbEntity
  8
PART
100
AcDbCircle
 10
17.56168674850216
 20
23.38992006823389
 30
0.0
 40
0.0938
100
AcDbArc
 50
97.00000000000013
 51
180.0
  0
LINE
  5
A4D
330
1F
100
AcDbEntity
  8
PART
100
AcDbLine
 10
18.13551809291356
 20
23.48302089725784
 30
0.0
 11
17.84288674850215
 21
23.51895150838782
 31
0.0
  0
LINE
  5
A4E
330
1F
100
AcDbEntity
  8
PART
100
AcDbLine
 10
17.55025540409075
 20
23.48302089725784
 30
0.0
 11
17.84288674850215
 21
23.51895150838782
 31
0.0
  0
LINE
  5
A4F
330
1F
100
AcDbEntity
  8
PART
100
AcDbLine
 10
17.55025540409075
 20
19.3921308340394
 30
0.0
 11
17.55025540409075
 21
23.48302089725784
 31
0.0
  0
LINE
  5
A50
330
1F
100
AcDbEntity
  8
PART
100
AcDbLine
 10
18.13551809291356
 20
19.3921308340394
 30
0.0
 11
18.13551809291356
 21
23.48302089725784
 31
0.0
  0
LINE
  5
A51
330
1F
100
AcDbEntity
  8
PART
100
AcDbLine
 10
17.84288674850215
 20
19.58645150838782
 30
0.0
 11
17.84288674850215
 21
23.51895150838782
 31
0.0
  0
LINE
  5
A52
330
1F
100
AcDbEntity
  8
PART
100
AcDbLine
 10
15.40288674850216
 20
21.16895150838782
 30
0.0
 11
15.40288674850216
 21
19.21054679718942
 31
0.0
  0
LINE
  5
A53
330
1F
100
AcDbEntity
  8
PART
100
AcDbLine
 10
18.22539790131951
 20
16.85145150838781
 30
0.0
 11
18.94788674850216
 21
16.85145150838782
 31
0.0
  0
ARC
  5
A54
330
1F
100
AcDbEntity
  8
PART
100
AcDbCircle
 10
17.81788674850217
 20
17.99735224368193
 30
0.0
 40
1.145900735294113
100
AcDbArc
 50
223.9490159829436
 51
251.7705526849198
  0
LINE
  5
A55
330
1F
100
AcDbEntity
  8
PART
100
AcDbLine
 10
15.40288674850216
 20
17.36895150838782
 30
0.0
 11
15.40288674850216
 21
19.32735621958622
 31
0.0
  0
LINE
  5
A56
330
1F
100
AcDbEntity
  8
PART
100
AcDbLine
 10
15.50288674850216
 20
17.26895150838782
 30
0.0
 11
15.50288674850216
 21
19.26895150838782
 31
0.0
  0
LINE
  5
A57
330
1F
100
AcDbEntity
  8
PART
100
AcDbLine
 10
15.70288674850216
 20
17.26895150838782
 30
0.0
 11
15.50288674850216
 21
17.26895150838782
 31
0.0
  0
ARC
  5
A58
330
1F
100
AcDbEntity
  8
PART
100
AcDbCircle
 10
15.50288674850216
 20
17.36895150838782
 30
0.0
 40
0.1
100
AcDbArc
 50
180.0
 51
269.9999999999999
  0
LINE
  5
A59
330
1F
100
AcDbEntity
  8
PART
100
AcDbLine
 10
18.94788674850215
 20
19.26895150838782
 30
0.0
 11
18.94788674850215
 21
16.85145150838782
 31
0.0
  0
LINE
  5
A5A
330
1F
100
AcDbEntity
  8
PART
100
AcDbLine
 10
16.71788674850217
 20
17.31895150838782
 30
0.0
 11
16.71788674850217
 21
19.26895150838782
 31
0.0
  0
LINE
  5
A5B
330
1F
100
AcDbEntity
  8
PART
100
AcDbLine
 10
17.45942250774179
 20
16.90896266120519
 30
0.0
 11
17.46788674850215
 21
16.90896266120519
 31
0.0
  0
LINE
  5
A5C
330
1F
100
AcDbEntity
  8
PART
100
AcDbLine
 10
18.21788674850215
 20
16.85896266120517
 30
0.0
 11
18.22539790131951
 21
16.85145150838781
 31
0.0
  0
ARC
  5
A5D
330
1F
100
AcDbEntity
  8
PART
100
AcDbCircle
 10
18.0218256934113
 20
19.26895150838782
 30
0.0
 40
0.5624031856691396
100
AcDbArc
 50
179.9999999999998
 51
189.9529985264307
  0
ARC
  5
A5E
330
1F
100
AcDbEntity
  8
PART
100
AcDbCircle
 10
16.71788674850217
 20
16.93698459662312
 30
0.0
 40
0.3819669117647013
100
AcDbArc
 50
43.94901598294358
 51
89.99999999999991
  0
LINE
  5
A5F
330
1F
100
AcDbEntity
  8
PART
100
AcDbLine
 10
16.99288674850216
 20
17.20207650838782
 30
0.0
 11
16.99288674850216
 21
19.26895150838782
 31
0.0
  0
ARC
  5
A60
330
1F
100
AcDbEntity
  8
PART
100
AcDbCircle
 10
18.0218256934113
 20
19.26895150838782
 30
0.0
 40
0.5624031856691396
100
AcDbArc
 50
170.0470014735693
 51
179.9999999999998
  0
ARC
  5
A61
330
1F
100
AcDbEntity
  8
PART
100
AcDbCircle
 10
15.81335556188475
 20
19.26895150838782
 30
0.0
 40
2.417042339434765
100
AcDbArc
 50
354.1678098180011
 51
359.9999999999998
  0
LINE
  5
A62
330
1F
100
AcDbEntity
  8
TO
100
AcDbLine
 10
14.06556947324725
 20
17.53719785149056
 30
0.0
 11
14.06556947324725
 21
21.03579785149055
 31
0.0
  0
LINE
  5
A63
330
1F
100
AcDbEntity
  8
TO
100
AcDbLine
 10
15.39056947324725
 20
17.53719785149056
 30
0.0
 11
15.39056947324725
 21
21.03579785149056
 31
0.0
  0
LINE
  5
A64
330
1F
100
AcDbEntity
  8
PART
100
AcDbLine
 10
13.94556947324725
 20
17.53719785149056
 30
0.0
 11
13.94556947324725
 21
21.03720516483567
 31
0.0
  0
LINE
  5
A65
330
1F
100
AcDbEntity
  8
PART
100
AcDbLine
 10
12.28686947324725
 20
17.50813900816311
 30
0.0
 11
12.28686947324725
 21
18.10299903570742
 31
0.0
  0
LINE
  5
A66
330
1F
100
AcDbEntity
  8
PART
100
AcDbLine
 10
13.91426947324725
 20
17.50813900816311
 30
0.0
 11
13.91426947324725
 21
18.10299903570742
 31
0.0
  0
LINE
  5
A67
330
1F
100
AcDbEntity
  8
PART
100
AcDbLine
 10
12.25556947324725
 20
21.03233900816311
 30
0.0
 11
12.25556947324725
 21
19.2872015081631
 31
0.0
  0
LINE
  5
A68
330
1F
100
AcDbEntity
  8
PART
100
AcDbLine
 10
13.94556947324725
 20
19.2872015081631
 30
0.0
 11
13.94556947324725
 21
20.86563900816312
 31
0.0
  0
LWPOLYLINE
  5
A69
330
1F
100
AcDbEntity
  8
PART
100
AcDbPolyline
 90
        5
 70
   128
 43
0.0
 10
12.34583897086682
 20
18.45137368548125
 42
-0.2237657489754184
 10
12.31810262078556
 20
18.46464679375569
 42
-0.0898371126946458
 10
12.28207280965802
 20
18.5298242238597
 42
-0.0467244948206406
 10
12.26320708499995
 20
18.60953069102587
 42
-0.0347719661268038
 10
12.25556947324725
 20
18.7192221759382
 42
-0.0347719661268006
  0
LWPOLYLINE
  5
A6A
330
1F
100
AcDbEntity
  8
PART
100
AcDbPolyline
 90
        5
 70
   128
 43
0.0
 10
13.85529997562768
 20
18.45137368548125
 42
0.2237657489754184
 10
13.88303632570894
 20
18.46464679375569
 42
0.0898371126946458
 10
13.91906613683647
 20
18.5298242238597
 42
0.0467244948206406
 10
13.93793186149455
 20
18.60953069102587
 42
0.0347719661268038
 10
13.94556947324725
 20
18.7192221759382
 42
0.0347719661268006
  0
LINE
  5
A6B
330
1F
100
AcDbEntity
  8
PART
100
AcDbLine
 10
12.25556947324725
 20
19.2872015081631
 30
0.0
 11
12.25556947324725
 21
17.74489198393605
 31
0.0
  0
LINE
  5
A6C
330
1F
100
AcDbEntity
  8
PART
100
AcDbLine
 10
13.94556947324725
 20
17.7056390081631
 30
0.0
 11
13.94556947324725
 21
19.2872015081631
 31
0.0
  0
LINE
  5
A6D
330
1F
100
AcDbEntity
  8
PART
100
AcDbLine
 10
12.43654557449083
 20
17.91942549479267
 30
0.0
 11
13.76459337200367
 21
17.91942549479267
 31
0.0
  0
LINE
  5
A6E
330
1F
100
AcDbEntity
  8
PART
100
AcDbLine
 10
12.43654557449083
 20
18.47795673820988
 30
0.0
 11
13.76459337200367
 21
18.47795673820988
 31
0.0
  0
LINE
  5
A6F
330
1F
100
AcDbEntity
  8
PART
100
AcDbLine
 10
12.28686947324725
 20
17.50813900816311
 30
0.0
 11
13.91426947324725
 21
17.50813900816311
 31
0.0
  0
LWPOLYLINE
  5
A70
330
1F
100
AcDbEntity
  8
PART
100
AcDbPolyline
 90
        5
 70
   128
 43
0.0
 10
12.25556947324725
 20
18.10796552656295
 42
-0.1300802433003461
 10
12.30558369832192
 20
18.09472984213908
 42
-0.1064602871106316
 10
12.35245003288176
 20
18.05282737772548
 42
-0.0842836319442091
 10
12.38160763684417
 20
17.99411936015705
 42
-0.0038337975294459
 10
12.38271961448607
 20
17.99032573076815
 42
-0.0733304849027588
  0
LWPOLYLINE
  5
A71
330
1F
100
AcDbEntity
  8
PART
100
AcDbPolyline
 90
       12
 70
   128
 43
0.0
 10
12.43654557449083
 20
18.47795673820988
 42
-0.2446937287859042
 10
12.46066541880961
 20
18.46540101471492
 42
-0.0823309632512463
 10
12.49382122376694
 20
18.39616173136371
 42
-0.0407055026059719
 10
12.51068015931956
 20
18.3133911829609
 42
-0.0299009287956329
 10
12.51754557449083
 20
18.19869111650128
 42
-0.0299009287956355
 10
12.51068015931956
 20
18.08399105004165
 42
-0.0407055026059739
 10
12.49382122376694
 20
18.00122050163884
 42
-0.0823309632512438
 10
12.46066541880961
 20
17.93198121828763
 42
-0.2446937287859042
 10
12.43654557449083
 20
17.91942549479267
 42
-0.2446937287859042
 10
12.41242573017206
 20
17.93198121828763
 42
-0.0823309632512442
 10
12.37926992521472
 20
18.00122050163884
 42
-0.0004264400962002
 10
12.37902373265621
 20
18.00207201942097
 42
-0.0299009287956314
  0
LINE
  5
A72
330
1F
100
AcDbEntity
  8
PART
100
AcDbLine
 10
12.25556947324725
 20
17.74489198393605
 30
0.0
 11
12.25556947324725
 21
17.53943900816311
 31
0.0
  0
LINE
  5
A73
330
1F
100
AcDbEntity
  8
PART
100
AcDbLine
 10
12.25556947324725
 20
17.53943900816311
 30
0.0
 11
12.28686947324725
 21
17.50813900816311
 31
0.0
  0
ARC
  5
A74
330
1F
100
AcDbEntity
  8
PART
100
AcDbCircle
 10
12.34676342561882
 20
18.5882538299889
 30
0.0
 40
0.1368832662417942
100
AcDbArc
 50
269.6130443132103
 51
301.3054935154756
  0
LWPOLYLINE
  5
A75
330
1F
100
AcDbEntity
  8
PART
100
AcDbPolyline
 90
        2
 70
   128
 43
0.0
 10
12.41789811144588
 20
18.47129953334376
 42
-0.1731499815784678
 10
12.43654557449083
 20
18.47795673820988
 42
-0.2446937287859042
  0
LWPOLYLINE
  5
A76
330
1F
100
AcDbEntity
  8
PART
100
AcDbPolyline
 90
       12
 70
   128
 43
0.0
 10
13.76459337200367
 20
18.47795673820988
 42
0.2446937287859042
 10
13.74047352768489
 20
18.46540101471492
 42
0.0823309632512463
 10
13.70731772272755
 20
18.39616173136371
 42
0.0407055026059719
 10
13.69045878717493
 20
18.3133911829609
 42
0.0299009287956329
 10
13.68359337200366
 20
18.19869111650128
 42
0.0299009287956355
 10
13.69045878717493
 20
18.08399105004165
 42
0.0407055026059739
 10
13.70731772272755
 20
18.00122050163884
 42
0.0823309632512438
 10
13.74047352768489
 20
17.93198121828763
 42
0.2446937287859042
 10
13.76459337200367
 20
17.91942549479267
 42
0.2446937287859042
 10
13.78871321632244
 20
17.93198121828763
 42
0.0823309632512442
 10
13.82186902127978
 20
18.00122050163884
 42
0.0004264400962002
 10
13.82211521383829
 20
18.00207201942097
 42
0.0299009287956314
  0
LWPOLYLINE
  5
A77
330
1F
100
AcDbEntity
  8
PART
100
AcDbPolyline
 90
        5
 70
   128
 43
0.0
 10
13.94556947324725
 20
18.10796552656295
 42
0.1300802433003461
 10
13.89555524817258
 20
18.09472984213908
 42
0.1064602871106316
 10
13.84868891361274
 20
18.05282737772548
 42
0.0842836319442091
 10
13.81953130965032
 20
17.99411936015705
 42
0.0038337975294459
 10
13.81841933200843
 20
17.99032573076815
 42
0.0733304849027588
  0
LWPOLYLINE
  5
A78
330
1F
100
AcDbEntity
  8
PART
100
AcDbPolyline
 90
        2
 70
   128
 43
0.0
 10
13.94556947324725
 20
17.73145869543283
 42
0.1300802433003523
 10
13.94556947324725
 20
17.73145869543283
 42
0.1300802433003523
  0
LINE
  5
A79
330
1F
100
AcDbEntity
  8
PART
100
AcDbLine
 10
13.94556947324725
 20
17.53943900816311
 30
0.0
 11
13.91426947324725
 21
17.50813900816311
 31
0.0
  0
LINE
  5
A7A
330
1F
100
AcDbEntity
  8
PART
100
AcDbLine
 10
13.94556947324725
 20
17.53943900816311
 30
0.0
 11
13.94556947324725
 21
17.7056390081631
 31
0.0
  0
ARC
  5
A7B
330
1F
100
AcDbEntity
  8
PART
100
AcDbCircle
 10
13.85437552087568
 20
18.5882538299889
 30
0.0
 40
0.1368832662417942
100
AcDbArc
 50
238.6945064845245
 51
270.3869556867898
  0
LWPOLYLINE
  5
A7C
330
1F
100
AcDbEntity
  8
PART
100
AcDbPolyline
 90
        2
 70
   128
 43
0.0
 10
13.78324083504862
 20
18.47129953334376
 42
0.1731499815784678
 10
13.76459337200367
 20
18.47795673820988
 42
0.2446937287859042
  0
LWPOLYLINE
  5
A7D
330
1F
100
AcDbEntity
  8
PART
100
AcDbPolyline
 90
        2
 70
   128
 43
0.0
 10
13.94556947324725
 20
18.10796552656295
 42
0.1300802433003461
 10
13.94556947324725
 20
18.10796552656295
 42
0.1300802433003461
  0
LINE
  5
A7E
330
1F
100
AcDbEntity
  8
PART
100
AcDbLine
 10
12.25556947324725
 20
18.7192221759382
 30
0.0
 11
13.94556947324725
 21
18.7192221759382
 31
0.0
  0
LWPOLYLINE
  5
A7F
330
1F
100
AcDbEntity
  8
PART
100
AcDbPolyline
 90
        2
 70
   128
 43
0.0
 10
13.76459337200367
 20
18.7192221759382
 42
0.0347719661268076
 10
13.76459337200367
 20
18.7192221759382
 42
0.0347719661268076
  0
LWPOLYLINE
  5
A80
330
1F
100
AcDbEntity
  8
PART
100
AcDbPolyline
 90
        2
 70
   128
 43
0.0
 10
13.76459337200367
 20
18.7192221759382
 42
0.0347719661268076
 10
13.76459337200367
 20
18.7192221759382
 42
0.0347719661268076
  0
LINE
  5
A81
330
1F
100
AcDbEntity
  8
PART
100
AcDbLine
 10
12.28686947324725
 20
21.06363900816312
 30
0.0
 11
13.91426947324725
 21
21.06363900816312
 31
0.0
  0
LINE
  5
A82
330
1F
100
AcDbEntity
  8
PART
100
AcDbLine
 10
13.44023656772169
 20
21.53813900816311
 30
0.0
 11
12.51754557449083
 21
21.53813900816311
 31
0.0
  0
ARC
  5
A83
330
1F
100
AcDbEntity
  8
PART
100
AcDbCircle
 10
13.34287102135415
 20
20.97348167246308
 30
0.0
 40
1.0
100
AcDbArc
 50
145.6215005269138
 51
170.8594218691786
  0
LINE
  5
A84
330
1F
100
AcDbEntity
  8
PART
100
AcDbLine
 10
12.28686947324725
 20
21.06363900816312
 30
0.0
 11
12.35556947324725
 21
21.13233900816311
 31
0.0
  0
LINE
  5
A85
330
1F
100
AcDbEntity
  8
PART
100
AcDbLine
 10
12.25556947324725
 20
21.03233900816311
 30
0.0
 11
12.28686947324725
 21
21.06363900816312
 31
0.0
  0
ARC
  5
A86
330
1F
100
AcDbEntity
  8
PART
100
AcDbCircle
 10
12.85826792514035
 20
20.97348167246308
 30
0.0
 40
1.0
100
AcDbArc
 50
9.140578130821452
 51
34.37849947308603
  0
LINE
  5
A87
330
1F
100
AcDbEntity
  8
PART
100
AcDbLine
 10
13.91426947324725
 20
21.06363900816312
 30
0.0
 11
13.84556947324725
 21
21.13233900816311
 31
0.0
  0
LINE
  5
A88
330
1F
100
AcDbEntity
  8
PART
100
AcDbLine
 10
13.91426947324725
 20
21.06363900816312
 30
0.0
 11
13.94556947324725
 21
21.03233900816311
 31
0.0
  0
LINE
  5
A89
330
1F
100
AcDbEntity
  8
PART
100
AcDbLine
 10
13.44023656772169
 20
21.53813900816311
 30
0.0
 11
13.65012169477205
 21
21.53813900816311
 31
0.0
  0
LINE
  5
A8A
330
1F
100
AcDbEntity
  8
PART
100
AcDbLine
 10
13.65012169477205
 20
21.53813900816311
 30
0.0
 11
13.68359337200366
 21
21.53813900816311
 31
0.0
  0
LINE
  5
A8B
330
1F
100
AcDbEntity
  8
PART
100
AcDbLine
 10
13.91426947324725
 20
18.7192221759382
 30
0.0
 11
13.91426947324725
 21
21.06363900816312
 31
0.0
  0
LINE
  5
A8C
330
1F
100
AcDbEntity
  8
PART
100
AcDbLine
 10
12.28686947324725
 20
18.7192221759382
 30
0.0
 11
12.28686947324725
 21
21.06363900816312
 31
0.0
  0
CIRCLE
  5
A8D
330
1F
100
AcDbEntity
  8
PART
100
AcDbCircle
 10
27.95500682270562
 20
19.18191506931273
 30
0.0
 40
4.055949999999998
  0
CIRCLE
  5
A8E
330
1F
100
AcDbEntity
  8
PART
100
AcDbCircle
 10
27.95500682270562
 20
19.18191506931273
 30
0.0
 40
4.149049999999999
  0
CIRCLE
  5
A8F
330
1F
100
AcDbEntity
  8
PART
100
AcDbCircle
 10
27.95500682270562
 20
19.18191506931273
 30
0.0
 40
4.184999999999998
  0
LINE
  5
A90
330
1F
100
AcDbEntity
  8
PART
100
AcDbLine
 10
31.29814633605134
 20
18.86941506931273
 30
0.0
 11
31.32505271934694
 21
18.89771506931273
 31
0.0
  0
LINE
  5
A91
330
1F
100
AcDbEntity
  8
PART
100
AcDbLine
 10
31.29814633605134
 20
19.49441506931272
 30
0.0
 11
31.32505271934694
 21
19.46611506931273
 31
0.0
  0
ARC
  5
A92
330
1F
100
AcDbEntity
  8
PART
100
AcDbCircle
 10
27.95500682270561
 20
15.25027840598253
 30
0.0
 40
0.629
100
AcDbArc
 50
64.63119983809932
 51
115.3688001619006
  0
ARC
  5
A93
330
1F
100
AcDbEntity
  8
PART
100
AcDbCircle
 10
27.95500682270562
 20
23.11355173264293
 30
0.0
 40
0.629
100
AcDbArc
 50
244.6311998380994
 51
295.3688001619005
  0
ARC
  5
A94
330
1F
100
AcDbEntity
  8
PART
100
AcDbCircle
 10
24.02337015937542
 20
19.18191506931274
 30
0.0
 40
0.629
100
AcDbArc
 50
334.6311998380993
 51
25.36880016190053
  0
LINE
  5
A95
330
1F
100
AcDbEntity
  8
PART
100
AcDbLine
 10
27.67080682270562
 20
15.81186917267143
 30
0.0
 11
27.64250682270562
 21
15.83877555596701
 31
0.0
  0
LINE
  5
A96
330
1F
100
AcDbEntity
  8
PART
100
AcDbLine
 10
28.23920682270561
 20
15.81186917267142
 30
0.0
 11
28.26750682270562
 21
15.83877555596701
 31
0.0
  0
LINE
  5
A97
330
1F
100
AcDbEntity
  8
PART
100
AcDbLine
 10
28.23920682270563
 20
22.55196096595405
 30
0.0
 11
28.26750682270562
 21
22.52505458265845
 31
0.0
  0
LINE
  5
A98
330
1F
100
AcDbEntity
  8
PART
100
AcDbLine
 10
27.64250682270563
 20
22.52505458265845
 30
0.0
 11
27.67080682270561
 21
22.55196096595405
 31
0.0
  0
ARC
  5
A99
330
1F
100
AcDbEntity
  8
PART
100
AcDbCircle
 10
29.44432509707831
 20
22.77744744599338
 30
0.0
 40
0.5931
100
AcDbArc
 50
221.3483802381086
 51
273.6516197618915
  0
ARC
  5
A9A
330
1F
100
AcDbEntity
  8
PART
100
AcDbCircle
 10
29.44432509707831
 20
22.77744744599338
 30
0.0
 40
0.5
100
AcDbArc
 50
221.3483802381086
 51
273.6516197618915
  0
ARC
  5
A9B
330
1F
100
AcDbEntity
  8
PART
100
AcDbCircle
 10
28.50594189207917
 20
21.95165270117145
 30
0.0
 40
0.75
100
AcDbArc
 50
41.34838023810859
 51
116.1516197618914
  0
ARC
  5
A9C
330
1F
100
AcDbEntity
  8
PART
100
AcDbCircle
 10
28.50594189207917
 20
21.95165270117145
 30
0.0
 40
0.6569000000000002
100
AcDbArc
 50
41.34838023810859
 51
115.3688001619005
  0
ARC
  5
A9D
330
1F
100
AcDbEntity
  8
PART
100
AcDbCircle
 10
30.70690816488154
 20
21.93381641148865
 30
0.0
 40
0.5931
100
AcDbArc
 50
198.8483802381085
 51
251.1516197618914
  0
ARC
  5
A9E
330
1F
100
AcDbEntity
  8
PART
100
AcDbCircle
 10
30.70690816488154
 20
21.93381641148865
 30
0.0
 40
0.5
100
AcDbArc
 50
198.8483802381085
 51
251.1516197618914
  0
ARC
  5
A9F
330
1F
100
AcDbEntity
  8
PART
100
AcDbCircle
 10
29.52393716075297
 20
21.52998525445511
 30
0.0
 40
0.75
100
AcDbArc
 50
18.84838023810855
 51
93.6516197618914
  0
ARC
  5
AA0
330
1F
100
AcDbEntity
  8
PART
100
AcDbCircle
 10
29.52393716075297
 20
21.52998525445511
 30
0.0
 40
0.6569000000000002
100
AcDbArc
 50
18.84838023810855
 51
93.6516197618914
  0
ARC
  5
AA1
330
1F
100
AcDbEntity
  8
PART
100
AcDbCircle
 10
31.55053919938627
 20
20.67123334368542
 30
0.0
 40
0.5931
100
AcDbArc
 50
176.3483802381086
 51
228.6516197618914
  0
ARC
  5
AA2
330
1F
100
AcDbEntity
  8
PART
100
AcDbCircle
 10
31.55053919938627
 20
20.67123334368542
 30
0.0
 40
0.5
100
AcDbArc
 50
176.3483802381086
 51
228.6516197618914
  0
ARC
  5
AA3
330
1F
100
AcDbEntity
  8
PART
100
AcDbCircle
 10
30.303077007848
 20
20.75084540736008
 30
0.0
 40
0.75
100
AcDbArc
 50
356.3483802381085
 51
71.15161976189146
  0
ARC
  5
AA4
330
1F
100
AcDbEntity
  8
PART
100
AcDbCircle
 10
30.303077007848
 20
20.75084540736008
 30
0.0
 40
0.6569000000000002
100
AcDbArc
 50
356.3483802381085
 51
71.15161976189146
  0
ARC
  5
AA5
330
1F
100
AcDbEntity
  8
PART
100
AcDbCircle
 10
31.84678302312355
 20
19.18191506931272
 30
0.0
 40
0.5931
100
AcDbArc
 50
153.8483802381084
 51
206.1516197618914
  0
ARC
  5
AA6
330
1F
100
AcDbEntity
  8
PART
100
AcDbCircle
 10
31.84678302312355
 20
19.18191506931272
 30
0.0
 40
0.5
100
AcDbArc
 50
153.8483802381084
 51
206.1516197618914
  0
ARC
  5
AA7
330
1F
100
AcDbEntity
  8
PART
100
AcDbCircle
 10
30.72474445456434
 20
19.73285013868627
 30
0.0
 40
0.75
100
AcDbArc
 50
333.8483802381085
 51
48.6516197618914
  0
ARC
  5
AA8
330
1F
100
AcDbEntity
  8
PART
100
AcDbCircle
 10
30.72474445456434
 20
19.73285013868627
 30
0.0
 40
0.6569000000000002
100
AcDbArc
 50
333.8483802381085
 51
48.6516197618914
  0
ARC
  5
AA9
330
1F
100
AcDbEntity
  8
PART
100
AcDbCircle
 10
31.55053919938627
 20
17.69259679494003
 30
0.0
 40
0.5931
100
AcDbArc
 50
131.3483802381086
 51
183.6516197618913
  0
ARC
  5
AAA
330
1F
100
AcDbEntity
  8
PART
100
AcDbCircle
 10
31.55053919938627
 20
17.69259679494003
 30
0.0
 40
0.5
100
AcDbArc
 50
131.3483802381086
 51
183.6516197618913
  0
ARC
  5
AAB
330
1F
100
AcDbEntity
  8
PART
100
AcDbCircle
 10
30.72474445456434
 20
18.63097999993918
 30
0.0
 40
0.75
100
AcDbArc
 50
311.3483802381085
 51
26.15161976189137
  0
ARC
  5
AAC
330
1F
100
AcDbEntity
  8
PART
100
AcDbCircle
 10
30.72474445456434
 20
18.63097999993918
 30
0.0
 40
0.6569000000000002
100
AcDbArc
 50
311.3483802381085
 51
26.15161976189137
  0
ARC
  5
AAD
330
1F
100
AcDbEntity
  8
PART
100
AcDbCircle
 10
30.70690816488154
 20
16.4300137271368
 30
0.0
 40
0.5931
100
AcDbArc
 50
108.8483802381085
 51
161.1516197618914
  0
ARC
  5
AAE
330
1F
100
AcDbEntity
  8
PART
100
AcDbCircle
 10
30.70690816488154
 20
16.4300137271368
 30
0.0
 40
0.5
100
AcDbArc
 50
108.8483802381085
 51
161.1516197618914
  0
ARC
  5
AAF
330
1F
100
AcDbEntity
  8
PART
100
AcDbCircle
 10
30.303077007848
 20
17.61298473126537
 30
0.0
 40
0.75
100
AcDbArc
 50
288.8483802381085
 51
3.651619761891413
  0
ARC
  5
AB0
330
1F
100
AcDbEntity
  8
PART
100
AcDbCircle
 10
30.303077007848
 20
17.61298473126537
 30
0.0
 40
0.6569000000000002
100
AcDbArc
 50
288.8483802381085
 51
3.651619761891413
  0
ARC
  5
AB1
330
1F
100
AcDbEntity
  8
PART
100
AcDbCircle
 10
29.44432509707831
 20
15.58638269263207
 30
0.0
 40
0.5931
100
AcDbArc
 50
86.34838023810848
 51
138.6516197618914
  0
ARC
  5
AB2
330
1F
100
AcDbEntity
  8
PART
100
AcDbCircle
 10
29.44432509707831
 20
15.58638269263207
 30
0.0
 40
0.5
100
AcDbArc
 50
86.34838023810848
 51
138.6516197618914
  0
ARC
  5
AB3
330
1F
100
AcDbEntity
  8
PART
100
AcDbCircle
 10
29.52393716075297
 20
16.83384488417034
 30
0.0
 40
0.75
100
AcDbArc
 50
266.3483802381084
 51
341.1516197618916
  0
ARC
  5
AB4
330
1F
100
AcDbEntity
  8
PART
100
AcDbCircle
 10
29.52393716075297
 20
16.83384488417034
 30
0.0
 40
0.6569000000000002
100
AcDbArc
 50
266.3483802381084
 51
341.1516197618916
  0
ARC
  5
AB5
330
1F
100
AcDbEntity
  8
PART
100
AcDbCircle
 10
27.95500682270562
 20
15.29013886889481
 30
0.0
 40
0.5
100
AcDbArc
 50
63.84838023810853
 51
116.1516197618913
  0
ARC
  5
AB6
330
1F
100
AcDbEntity
  8
PART
100
AcDbCircle
 10
28.50594189207916
 20
16.41217743745401
 30
0.0
 40
0.75
100
AcDbArc
 50
243.8483802381085
 51
318.6516197618914
  0
ARC
  5
AB7
330
1F
100
AcDbEntity
  8
PART
100
AcDbCircle
 10
28.50594189207916
 20
16.41217743745401
 30
0.0
 40
0.6569000000000002
100
AcDbArc
 50
244.6311998380991
 51
318.6516197618914
  0
ARC
  5
AB8
330
1F
100
AcDbEntity
  8
PART
100
AcDbCircle
 10
26.46568854833292
 20
15.58638269263207
 30
0.0
 40
0.5931
100
AcDbArc
 50
41.34838023810859
 51
93.6516197618914
  0
ARC
  5
AB9
330
1F
100
AcDbEntity
  8
PART
100
AcDbCircle
 10
26.46568854833292
 20
15.58638269263207
 30
0.0
 40
0.5
100
AcDbArc
 50
41.34838023810859
 51
93.6516197618914
  0
ARC
  5
ABA
330
1F
100
AcDbEntity
  8
PART
100
AcDbCircle
 10
27.40407175333207
 20
16.41217743745401
 30
0.0
 40
0.75
100
AcDbArc
 50
221.3483802381084
 51
296.1516197618916
  0
ARC
  5
ABB
330
1F
100
AcDbEntity
  8
PART
100
AcDbCircle
 10
27.40407175333207
 20
16.41217743745401
 30
0.0
 40
0.6569000000000002
100
AcDbArc
 50
221.3483802381084
 51
295.3688001619005
  0
ARC
  5
ABC
330
1F
100
AcDbEntity
  8
PART
100
AcDbCircle
 10
25.20310548052969
 20
16.43001372713681
 30
0.0
 40
0.5931
100
AcDbArc
 50
18.84838023810855
 51
71.15161976189134
  0
ARC
  5
ABD
330
1F
100
AcDbEntity
  8
PART
100
AcDbCircle
 10
25.20310548052969
 20
16.43001372713681
 30
0.0
 40
0.5
100
AcDbArc
 50
18.84838023810855
 51
71.15161976189134
  0
ARC
  5
ABE
330
1F
100
AcDbEntity
  8
PART
100
AcDbCircle
 10
26.38607648465826
 20
16.83384488417035
 30
0.0
 40
0.75
100
AcDbArc
 50
198.8483802381084
 51
273.6516197618915
  0
ARC
  5
ABF
330
1F
100
AcDbEntity
  8
PART
100
AcDbCircle
 10
26.38607648465826
 20
16.83384488417035
 30
0.0
 40
0.6569000000000002
100
AcDbArc
 50
198.8483802381084
 51
273.6516197618915
  0
ARC
  5
AC0
330
1F
100
AcDbEntity
  8
PART
100
AcDbCircle
 10
24.35947444602498
 20
17.69259679494004
 30
0.0
 40
0.5931
100
AcDbArc
 50
356.3483802381085
 51
48.6516197618914
  0
ARC
  5
AC1
330
1F
100
AcDbEntity
  8
PART
100
AcDbCircle
 10
24.35947444602498
 20
17.69259679494004
 30
0.0
 40
0.5
100
AcDbArc
 50
356.3483802381085
 51
48.6516197618914
  0
ARC
  5
AC2
330
1F
100
AcDbEntity
  8
PART
100
AcDbCircle
 10
25.60693663756323
 20
17.61298473126538
 30
0.0
 40
0.75
100
AcDbArc
 50
176.3483802381085
 51
251.1516197618914
  0
ARC
  5
AC3
330
1F
100
AcDbEntity
  8
PART
100
AcDbCircle
 10
25.60693663756323
 20
17.61298473126538
 30
0.0
 40
0.6569000000000002
100
AcDbArc
 50
176.3483802381085
 51
251.1516197618914
  0
ARC
  5
AC4
330
1F
100
AcDbEntity
  8
PART
100
AcDbCircle
 10
24.06323062228771
 20
19.18191506931273
 30
0.0
 40
0.5
100
AcDbArc
 50
333.8483802381085
 51
26.15161976189137
  0
ARC
  5
AC5
330
1F
100
AcDbEntity
  8
PART
100
AcDbCircle
 10
25.18526919084691
 20
18.63097999993919
 30
0.0
 40
0.75
100
AcDbArc
 50
153.8483802381084
 51
228.6516197618914
  0
ARC
  5
AC6
330
1F
100
AcDbEntity
  8
PART
100
AcDbCircle
 10
25.18526919084691
 20
18.63097999993919
 30
0.0
 40
0.6569000000000002
100
AcDbArc
 50
154.6311998380992
 51
228.6516197618914
  0
ARC
  5
AC7
330
1F
100
AcDbEntity
  8
PART
100
AcDbCircle
 10
24.35947444602498
 20
20.67123334368543
 30
0.0
 40
0.5931
100
AcDbArc
 50
311.3483802381086
 51
3.651619761891312
  0
ARC
  5
AC8
330
1F
100
AcDbEntity
  8
PART
100
AcDbCircle
 10
24.35947444602498
 20
20.67123334368543
 30
0.0
 40
0.5
100
AcDbArc
 50
311.3483802381086
 51
3.651619761891312
  0
ARC
  5
AC9
330
1F
100
AcDbEntity
  8
PART
100
AcDbCircle
 10
25.18526919084691
 20
19.73285013868628
 30
0.0
 40
0.75
100
AcDbArc
 50
131.3483802381084
 51
206.1516197618915
  0
ARC
  5
ACA
330
1F
100
AcDbEntity
  8
PART
100
AcDbCircle
 10
25.18526919084691
 20
19.73285013868628
 30
0.0
 40
0.6569000000000002
100
AcDbArc
 50
131.3483802381084
 51
205.3688001619005
  0
ARC
  5
ACB
330
1F
100
AcDbEntity
  8
PART
100
AcDbCircle
 10
25.2031054805297
 20
21.93381641148866
 30
0.0
 40
0.5931
100
AcDbArc
 50
288.8483802381085
 51
341.1516197618914
  0
ARC
  5
ACC
330
1F
100
AcDbEntity
  8
PART
100
AcDbCircle
 10
25.2031054805297
 20
21.93381641148866
 30
0.0
 40
0.5
100
AcDbArc
 50
288.8483802381085
 51
341.1516197618914
  0
ARC
  5
ACD
330
1F
100
AcDbEntity
  8
PART
100
AcDbCircle
 10
25.60693663756324
 20
20.75084540736009
 30
0.0
 40
0.75
100
AcDbArc
 50
108.8483802381084
 51
183.6516197618914
  0
ARC
  5
ACE
330
1F
100
AcDbEntity
  8
PART
100
AcDbCircle
 10
25.60693663756324
 20
20.75084540736009
 30
0.0
 40
0.6569000000000002
100
AcDbArc
 50
108.8483802381084
 51
183.6516197618914
  0
ARC
  5
ACF
330
1F
100
AcDbEntity
  8
PART
100
AcDbCircle
 10
26.46568854833293
 20
22.77744744599338
 30
0.0
 40
0.5931
100
AcDbArc
 50
266.3483802381084
 51
318.6516197618914
  0
ARC
  5
AD0
330
1F
100
AcDbEntity
  8
PART
100
AcDbCircle
 10
26.46568854833293
 20
22.77744744599338
 30
0.0
 40
0.5
100
AcDbArc
 50
266.3483802381084
 51
318.6516197618914
  0
ARC
  5
AD1
330
1F
100
AcDbEntity
  8
PART
100
AcDbCircle
 10
26.38607648465827
 20
21.52998525445511
 30
0.0
 40
0.75
100
AcDbArc
 50
86.34838023810848
 51
161.1516197618914
  0
ARC
  5
AD2
330
1F
100
AcDbEntity
  8
PART
100
AcDbCircle
 10
26.38607648465827
 20
21.52998525445511
 30
0.0
 40
0.6569000000000002
100
AcDbArc
 50
86.34838023810848
 51
161.1516197618914
  0
ARC
  5
AD3
330
1F
100
AcDbEntity
  8
PART
100
AcDbCircle
 10
27.95500682270562
 20
23.07369126973064
 30
0.0
 40
0.5
100
AcDbArc
 50
243.8483802381085
 51
296.1516197618914
  0
ARC
  5
AD4
330
1F
100
AcDbEntity
  8
PART
100
AcDbCircle
 10
27.40407175333208
 20
21.95165270117145
 30
0.0
 40
0.75
100
AcDbArc
 50
63.84838023810845
 51
138.6516197618914
  0
ARC
  5
AD5
330
1F
100
AcDbEntity
  8
PART
100
AcDbCircle
 10
27.40407175333208
 20
21.95165270117145
 30
0.0
 40
0.6569000000000002
100
AcDbArc
 50
64.63119983809948
 51
138.6516197618914
  0
ARC
  5
AD6
330
1F
100
AcDbEntity
  8
PART
100
AcDbCircle
 10
29.44432509707832
 20
22.77744744599338
 30
0.0
 40
0.629
100
AcDbArc
 50
221.3483802381082
 51
273.6516197618913
  0
ARC
  5
AD7
330
1F
100
AcDbEntity
  8
PART
100
AcDbCircle
 10
30.70690816488154
 20
21.93381641148865
 30
0.0
 40
0.629
100
AcDbArc
 50
198.8483802381083
 51
251.1516197618914
  0
ARC
  5
AD8
330
1F
100
AcDbEntity
  8
PART
100
AcDbCircle
 10
31.55053919938627
 20
20.67123334368542
 30
0.0
 40
0.629
100
AcDbArc
 50
176.3483802381083
 51
228.6516197618916
  0
ARC
  5
AD9
330
1F
100
AcDbEntity
  8
PART
100
AcDbCircle
 10
26.46568854833292
 20
15.58638269263208
 30
0.0
 40
0.629
100
AcDbArc
 50
41.34838023810829
 51
93.6516197618914
  0
ARC
  5
ADA
330
1F
100
AcDbEntity
  8
PART
100
AcDbCircle
 10
31.55053919938627
 20
17.69259679494002
 30
0.0
 40
0.629
100
AcDbArc
 50
131.3483802381081
 51
183.6516197618911
  0
ARC
  5
ADB
330
1F
100
AcDbEntity
  8
PART
100
AcDbCircle
 10
30.70690816488154
 20
16.43001372713681
 30
0.0
 40
0.629
100
AcDbArc
 50
108.8483802381085
 51
161.1516197618915
  0
ARC
  5
ADC
330
1F
100
AcDbEntity
  8
PART
100
AcDbCircle
 10
29.4443250970783
 20
15.58638269263207
 30
0.0
 40
0.629
100
AcDbArc
 50
86.34838023810806
 51
138.6516197618915
  0
ARC
  5
ADD
330
1F
100
AcDbEntity
  8
PART
100
AcDbCircle
 10
25.20310548052969
 20
16.43001372713681
 30
0.0
 40
0.629
100
AcDbArc
 50
18.84838023810845
 51
71.15161976189146
  0
ARC
  5
ADE
330
1F
100
AcDbEntity
  8
PART
100
AcDbCircle
 10
24.35947444602498
 20
17.69259679494004
 30
0.0
 40
0.629
100
AcDbArc
 50
356.3483802381082
 51
48.65161976189135
  0
ARC
  5
ADF
330
1F
100
AcDbEntity
  8
PART
100
AcDbCircle
 10
24.35947444602498
 20
20.67123334368543
 30
0.0
 40
0.629
100
AcDbArc
 50
311.3483802381086
 51
3.651619761891514
  0
ARC
  5
AE0
330
1F
100
AcDbEntity
  8
PART
100
AcDbCircle
 10
25.20310548052971
 20
21.93381641148866
 30
0.0
 40
0.629
100
AcDbArc
 50
288.8483802381082
 51
341.1516197618914
  0
ARC
  5
AE1
330
1F
100
AcDbEntity
  8
PART
100
AcDbCircle
 10
26.46568854833293
 20
22.77744744599338
 30
0.0
 40
0.629
100
AcDbArc
 50
266.3483802381084
 51
318.6516197618916
  0
ARC
  5
AE2
330
1F
100
AcDbEntity
  8
PART
100
AcDbCircle
 10
28.50594189207917
 20
21.95165270117145
 30
0.0
 40
0.621
100
AcDbArc
 50
41.34838023810845
 51
112.5787822102002
  0
ARC
  5
AE3
330
1F
100
AcDbEntity
  8
PART
100
AcDbCircle
 10
29.52393716075297
 20
21.52998525445511
 30
0.0
 40
0.621
100
AcDbArc
 50
18.84838023810855
 51
93.65161976189153
  0
ARC
  5
AE4
330
1F
100
AcDbEntity
  8
PART
100
AcDbCircle
 10
30.303077007848
 20
20.75084540736008
 30
0.0
 40
0.621
100
AcDbArc
 50
356.3483802381082
 51
71.15161976189156
  0
ARC
  5
AE5
330
1F
100
AcDbEntity
  8
PART
100
AcDbCircle
 10
30.72474445456434
 20
19.73285013868627
 30
0.0
 40
0.621
100
AcDbArc
 50
337.4212177898008
 51
48.6516197618917
  0
ARC
  5
AE6
330
1F
100
AcDbEntity
  8
PART
100
AcDbCircle
 10
30.72474445456434
 20
18.63097999993918
 30
0.0
 40
0.621
100
AcDbArc
 50
311.3483802381083
 51
22.57878221019982
  0
ARC
  5
AE7
330
1F
100
AcDbEntity
  8
PART
100
AcDbCircle
 10
30.303077007848
 20
17.61298473126537
 30
0.0
 40
0.621
100
AcDbArc
 50
288.8483802381088
 51
3.651619761891211
  0
ARC
  5
AE8
330
1F
100
AcDbEntity
  8
PART
100
AcDbCircle
 10
29.52393716075297
 20
16.83384488417034
 30
0.0
 40
0.621
100
AcDbArc
 50
266.3483802381082
 51
341.1516197618916
  0
ARC
  5
AE9
330
1F
100
AcDbEntity
  8
PART
100
AcDbCircle
 10
28.50594189207916
 20
16.41217743745401
 30
0.0
 40
0.621
100
AcDbArc
 50
247.421217789801
 51
318.6516197618916
  0
ARC
  5
AEA
330
1F
100
AcDbEntity
  8
PART
100
AcDbCircle
 10
27.40407175333207
 20
16.41217743745401
 30
0.0
 40
0.621
100
AcDbArc
 50
221.3483802381084
 51
292.5787822101997
  0
ARC
  5
AEB
330
1F
100
AcDbEntity
  8
PART
100
AcDbCircle
 10
26.38607648465826
 20
16.83384488417035
 30
0.0
 40
0.621
100
AcDbArc
 50
198.8483802381083
 51
273.6516197618913
  0
ARC
  5
AEC
330
1F
100
AcDbEntity
  8
PART
100
AcDbCircle
 10
25.60693663756323
 20
17.61298473126538
 30
0.0
 40
0.621
100
AcDbArc
 50
176.3483782963919
 51
251.1516197618916
  0
ARC
  5
AED
330
1F
100
AcDbEntity
  8
PART
100
AcDbCircle
 10
25.18526919084691
 20
18.63097999993919
 30
0.0
 40
0.621
100
AcDbArc
 50
157.421217789801
 51
228.6516197618914
  0
ARC
  5
AEE
330
1F
100
AcDbEntity
  8
PART
100
AcDbCircle
 10
25.18526919084691
 20
19.73285013868628
 30
0.0
 40
0.621
100
AcDbArc
 50
131.3483802381084
 51
202.5787822101995
  0
ARC
  5
AEF
330
1F
100
AcDbEntity
  8
PART
100
AcDbCircle
 10
25.60693663756324
 20
20.75084540736009
 30
0.0
 40
0.621
100
AcDbArc
 50
108.8483802381081
 51
183.6516197618915
  0
ARC
  5
AF0
330
1F
100
AcDbEntity
  8
PART
100
AcDbCircle
 10
26.38607648465827
 20
21.52998525445511
 30
0.0
 40
0.621
100
AcDbArc
 50
86.34838023810848
 51
161.1516197618912
  0
ARC
  5
AF1
330
1F
100
AcDbEntity
  8
PART
100
AcDbCircle
 10
27.40407175333208
 20
21.95165270117145
 30
0.0
 40
0.621
100
AcDbArc
 50
67.42121778979975
 51
138.6516197618914
  0
LINE
  5
AF2
330
1F
100
AcDbEntity
  8
PART
100
AcDbLine
 10
27.64250682270562
 20
22.26612384142917
 30
0.0
 11
27.64250682270562
 21
22.52505458265845
 31
0.0
  0
LINE
  5
AF3
330
1F
100
AcDbEntity
  8
PART
100
AcDbLine
 10
28.26750682270562
 20
22.26612384142917
 30
0.0
 11
28.26750682270562
 21
22.52505458265845
 31
0.0
  0
LINE
  5
AF4
330
1F
100
AcDbEntity
  8
PART
100
AcDbLine
 10
31.03921559482206
 20
19.49441506931272
 30
0.0
 11
31.29814633605134
 21
19.49441506931272
 31
0.0
  0
LINE
  5
AF5
330
1F
100
AcDbEntity
  8
PART
100
AcDbLine
 10
31.03921559482206
 20
18.86941506931273
 30
0.0
 11
31.29814633605134
 21
18.86941506931273
 31
0.0
  0
LINE
  5
AF6
330
1F
100
AcDbEntity
  8
PART
100
AcDbLine
 10
28.26750682270562
 20
16.09770629719629
 30
0.0
 11
28.26750682270562
 21
15.83877555596701
 31
0.0
  0
LINE
  5
AF7
330
1F
100
AcDbEntity
  8
PART
100
AcDbLine
 10
27.64250682270562
 20
16.09770629719629
 30
0.0
 11
27.64250682270562
 21
15.83877555596701
 31
0.0
  0
LINE
  5
AF8
330
1F
100
AcDbEntity
  8
PART
100
AcDbLine
 10
24.87079805058918
 20
19.49441506931273
 30
0.0
 11
24.6118673093599
 21
19.49441506931273
 31
0.0
  0
LINE
  5
AF9
330
1F
100
AcDbEntity
  8
PART
100
AcDbLine
 10
24.87079805058918
 20
18.86941506931273
 30
0.0
 11
24.6118673093599
 21
18.86941506931273
 31
0.0
  0
LINE
  5
AFA
330
1F
100
AcDbEntity
  8
PART
100
AcDbLine
 10
24.86806167256123
 20
18.89771506931273
 30
0.0
 11
24.58496092606429
 21
18.89771506931273
 31
0.0
  0
LINE
  5
AFB
330
1F
100
AcDbEntity
  8
PART
100
AcDbLine
 10
24.86806167256123
 20
19.46611506931273
 30
0.0
 11
24.58496092606432
 21
19.46611506931273
 31
0.0
  0
LINE
  5
AFC
330
1F
100
AcDbEntity
  8
PART
100
AcDbLine
 10
24.86090262439555
 20
19.37301506931273
 30
0.0
 11
24.62263787083665
 21
19.37301506931273
 31
0.0
  0
LINE
  5
AFD
330
1F
100
AcDbEntity
  8
PART
100
AcDbLine
 10
24.86090262439555
 20
18.99081506931273
 30
0.0
 11
24.62263787083665
 21
18.99081506931273
 31
0.0
  0
LINE
  5
AFE
330
1F
100
AcDbEntity
  8
PART
100
AcDbLine
 10
27.67080682270562
 20
16.09496991916833
 30
0.0
 11
27.67080682270562
 21
15.81186917267143
 31
0.0
  0
LINE
  5
AFF
330
1F
100
AcDbEntity
  8
PART
100
AcDbLine
 10
27.76390682270562
 20
16.08781087100266
 30
0.0
 11
27.76390682270562
 21
15.84954611744377
 31
0.0
  0
LINE
  5
B00
330
1F
100
AcDbEntity
  8
PART
100
AcDbLine
 10
28.14610682270562
 20
16.08781087100266
 30
0.0
 11
28.14610682270562
 21
15.84954611744379
 31
0.0
  0
LINE
  5
B01
330
1F
100
AcDbEntity
  8
PART
100
AcDbLine
 10
28.23920682270562
 20
16.09496991916833
 30
0.0
 11
28.23920682270562
 21
15.8118691726714
 31
0.0
  0
LINE
  5
B02
330
1F
100
AcDbEntity
  8
PART
100
AcDbLine
 10
31.04195197285001
 20
18.89771506931273
 30
0.0
 11
31.32505271934694
 21
18.89771506931273
 31
0.0
  0
LINE
  5
B03
330
1F
100
AcDbEntity
  8
PART
100
AcDbLine
 10
31.04911102101569
 20
18.99081506931272
 30
0.0
 11
31.28531316640817
 21
18.99081506931272
 31
0.0
  0
LINE
  5
B04
330
1F
100
AcDbEntity
  8
PART
100
AcDbLine
 10
31.04911102101569
 20
19.37301506931273
 30
0.0
 11
31.28531316640817
 21
19.37301506931273
 31
0.0
  0
LINE
  5
B05
330
1F
100
AcDbEntity
  8
PART
100
AcDbLine
 10
31.04195197285001
 20
19.46611506931273
 30
0.0
 11
31.32505271934694
 21
19.46611506931273
 31
0.0
  0
LINE
  5
B06
330
1F
100
AcDbEntity
  8
PART
100
AcDbLine
 10
28.23920682270563
 20
22.26886021945713
 30
0.0
 11
28.23920682270563
 21
22.55196096595405
 31
0.0
  0
LINE
  5
B07
330
1F
100
AcDbEntity
  8
PART
100
AcDbLine
 10
28.14610682270562
 20
22.2760192676228
 30
0.0
 11
28.14610682270562
 21
22.5142840211817
 31
0.0
  0
LINE
  5
B08
330
1F
100
AcDbEntity
  8
PART
100
AcDbLine
 10
27.76390682270562
 20
22.2760192676228
 30
0.0
 11
27.76390682270562
 21
22.51428402118167
 31
0.0
  0
LINE
  5
B09
330
1F
100
AcDbEntity
  8
PART
100
AcDbLine
 10
27.67080682270562
 20
22.26886021945713
 30
0.0
 11
27.67080682270562
 21
22.55196096595406
 31
0.0
  0
ARC
  5
B0A
330
1F
100
AcDbEntity
  8
BUMPER
100
AcDbCircle
 10
27.46043747068952
 20
16.2528681840231
 30
0.0
 40
0.112
100
AcDbArc
 50
351.9955137628659
 51
80.03474665103928
  0
LINE
  5
B0B
330
1F
100
AcDbEntity
  8
BUMPER
100
AcDbLine
 10
27.47981917329486
 20
16.36317842653987
 30
0.0
 11
27.43747243985116
 21
16.37064529819086
 31
0.0
  0
ARC
  5
B0C
330
1F
100
AcDbEntity
  8
BUMPER
100
AcDbCircle
 10
27.41795695774762
 20
16.26035864460909
 30
0.0
 40
0.112
100
AcDbArc
 50
79.9652533489604
 51
168.0044862371339
  0
ARC
  5
B0D
330
1F
100
AcDbEntity
  8
BUMPER
100
AcDbCircle
 10
26.9593274365064
 20
16.38324805445075
 30
0.0
 40
0.112
100
AcDbArc
 50
341.9955137628658
 51
70.03474665103938
  0
LINE
  5
B0E
330
1F
100
AcDbEntity
  8
BUMPER
100
AcDbLine
 10
26.99756986008975
 20
16.48851683918043
 30
0.0
 11
26.95716307733473
 21
16.50322370536572
 31
0.0
  0
ARC
  5
B0F
330
1F
100
AcDbEntity
  8
BUMPER
100
AcDbCircle
 10
26.91879300283992
 20
16.39800138176818
 30
0.0
 40
0.112
100
AcDbArc
 50
69.96525334896046
 51
158.0044862371338
  0
ARC
  5
B10
330
1F
100
AcDbEntity
  8
BUMPER
100
AcDbCircle
 10
26.48847061663486
 20
16.59866400593114
 30
0.0
 40
0.112
100
AcDbArc
 50
331.9955137628658
 51
60.03474665103929
  0
LINE
  5
B11
330
1F
100
AcDbEntity
  8
BUMPER
100
AcDbLine
 10
26.54441178450724
 20
16.69569279411829
 30
0.0
 11
26.50717269208808
 21
16.71719279415087
 31
0.0
  0
ARC
  5
B12
330
1F
100
AcDbEntity
  8
BUMPER
100
AcDbCircle
 10
26.45111388049935
 20
16.62023192759502
 30
0.0
 40
0.112
100
AcDbArc
 50
59.9652533489605
 51
148.0044862371339
  0
ARC
  5
B13
330
1F
100
AcDbEntity
  8
BUMPER
100
AcDbCircle
 10
26.06217375728166
 20
16.89257073378427
 30
0.0
 40
0.112
100
AcDbArc
 50
321.9955137628659
 51
50.03474665103936
  0
LINE
  5
B14
330
1F
100
AcDbEntity
  8
BUMPER
100
AcDbLine
 10
26.13411392536486
 20
16.97841135479876
 30
0.0
 11
26.10117401426083
 21
17.00605122205716
 31
0.0
  0
ARC
  5
B15
330
1F
100
AcDbEntity
  8
BUMPER
100
AcDbCircle
 10
26.02912978420118
 20
16.92029791940874
 30
0.0
 40
0.112
100
AcDbArc
 50
49.96525334896046
 51
138.0044862371339
  0
ARC
  5
B16
330
1F
100
AcDbEntity
  8
BUMPER
100
AcDbCircle
 10
25.69338967280161
 20
17.2560380308083
 30
0.0
 40
0.112
100
AcDbArc
 50
311.9955137628659
 51
40.03474665103932
  0
LINE
  5
B17
330
1F
100
AcDbEntity
  8
BUMPER
100
AcDbLine
 10
25.77914297549191
 20
17.32808226081805
 30
0.0
 11
25.75150310823352
 21
17.36102217192208
 31
0.0
  0
ARC
  5
B18
330
1F
100
AcDbEntity
  8
BUMPER
100
AcDbCircle
 10
25.66566248717715
 20
17.28908200388878
 30
0.0
 40
0.112
100
AcDbArc
 50
39.96525334896051
 51
128.0044862371339
  0
ARC
  5
B19
330
1F
100
AcDbEntity
  8
BUMPER
100
AcDbCircle
 10
25.3933236809879
 20
17.67802212710648
 30
0.0
 40
0.112
100
AcDbArc
 50
301.9955137628659
 51
30.03474665103937
  0
LINE
  5
B1A
330
1F
100
AcDbEntity
  8
BUMPER
100
AcDbLine
 10
25.49028454757632
 20
17.73408093863879
 30
0.0
 11
25.46878454754374
 21
17.77132003105794
 31
0.0
  0
ARC
  5
B1B
330
1F
100
AcDbEntity
  8
BUMPER
100
AcDbCircle
 10
25.37175575932402
 20
17.71537886324199
 30
0.0
 40
0.112
100
AcDbArc
 50
29.96525334896047
 51
118.0044862371339
  0
ARC
  5
B1C
330
1F
100
AcDbEntity
  8
BUMPER
100
AcDbCircle
 10
25.17109313516107
 20
18.14570124944706
 30
0.0
 40
0.112
100
AcDbArc
 50
291.9955137628658
 51
20.03474665103933
  0
LINE
  5
B1D
330
1F
100
AcDbEntity
  8
BUMPER
100
AcDbLine
 10
25.27631545878089
 20
18.18407132388063
 30
0.0
 11
25.2616085925956
 21
18.22447810663566
 31
0.0
  0
ARC
  5
B1E
330
1F
100
AcDbEntity
  8
BUMPER
100
AcDbCircle
 10
25.15633980784363
 20
18.18623568311354
 30
0.0
 40
0.112
100
AcDbArc
 50
19.96525334896048
 51
108.0044862371339
  0
ARC
  5
B1F
330
1F
100
AcDbEntity
  8
BUMPER
100
AcDbCircle
 10
25.03345039800198
 20
18.64486520435476
 30
0.0
 40
0.112
100
AcDbArc
 50
281.9955137628659
 51
10.03474665103939
  0
LINE
  5
B20
330
1F
100
AcDbEntity
  8
BUMPER
100
AcDbLine
 10
25.14373705159507
 20
18.66438068639413
 30
0.0
 11
25.13627017994408
 21
18.70672741983782
 31
0.0
  0
ARC
  5
B21
330
1F
100
AcDbEntity
  8
BUMPER
100
AcDbCircle
 10
25.02595993741599
 20
18.68734571729666
 30
0.0
 40
0.112
100
AcDbArc
 50
9.96525334896051
 51
98.00448623713389
  0
ARC
  5
B22
330
1F
100
AcDbEntity
  8
BUMPER
100
AcDbCircle
 10
24.98457767442862
 20
19.16034714764886
 30
0.0
 40
0.112
100
AcDbArc
 50
271.995513762866
 51
0.0347466510393423
  0
LINE
  5
B23
330
1F
100
AcDbEntity
  8
BUMPER
100
AcDbLine
 10
25.0965776538333
 20
19.16041506924759
 30
0.0
 11
25.0965776538333
 21
19.20341506931274
 31
0.0
  0
ARC
  5
B24
330
1F
100
AcDbEntity
  8
BUMPER
100
AcDbCircle
 10
24.98457767442862
 20
19.20348299097662
 30
0.0
 40
0.112
100
AcDbArc
 50
359.9652533489607
 51
88.00448623713394
  0
ARC
  5
B25
330
1F
100
AcDbEntity
  8
BUMPER
100
AcDbCircle
 10
25.02595993741599
 20
19.67648442132882
 30
0.0
 40
0.112
100
AcDbArc
 50
261.9955137628659
 51
350.0347466510394
  0
LINE
  5
B26
330
1F
100
AcDbEntity
  8
BUMPER
100
AcDbLine
 10
25.13627017993278
 20
19.65710271872348
 30
0.0
 11
25.14373705158376
 21
19.69944945216718
 31
0.0
  0
ARC
  5
B27
330
1F
100
AcDbEntity
  8
BUMPER
100
AcDbCircle
 10
25.03345039800198
 20
19.71896493427072
 30
0.0
 40
0.112
100
AcDbArc
 50
349.9652533489605
 51
78.00448623713397
  0
ARC
  5
B28
330
1F
100
AcDbEntity
  8
BUMPER
100
AcDbCircle
 10
25.15633980784365
 20
20.17759445551195
 30
0.0
 40
0.112
100
AcDbArc
 50
251.9955137628659
 51
340.0347466510394
  0
LINE
  5
B29
330
1F
100
AcDbEntity
  8
BUMPER
100
AcDbLine
 10
25.26160859257332
 20
20.1393520319286
 30
0.0
 11
25.27631545875861
 21
20.17975881468362
 31
0.0
  0
ARC
  5
B2A
330
1F
100
AcDbEntity
  8
BUMPER
100
AcDbCircle
 10
25.17109313516108
 20
20.21812888917843
 30
0.0
 40
0.112
100
AcDbArc
 50
339.9652533489606
 51
68.00448623713403
  0
ARC
  5
B2B
330
1F
100
AcDbEntity
  8
BUMPER
100
AcDbCircle
 10
25.37175575932404
 20
20.64845127538349
 30
0.0
 40
0.112
100
AcDbArc
 50
241.9955137628658
 51
330.0347466510394
  0
LINE
  5
B2C
330
1F
100
AcDbEntity
  8
BUMPER
100
AcDbLine
 10
25.46878454751118
 20
20.59251010751111
 30
0.0
 11
25.49028454754376
 21
20.62974919993026
 31
0.0
  0
ARC
  5
B2D
330
1F
100
AcDbEntity
  8
BUMPER
100
AcDbCircle
 10
25.39332368098792
 20
20.68580801151899
 30
0.0
 40
0.112
100
AcDbArc
 50
329.9652533489605
 51
58.00448623713402
  0
ARC
  5
B2E
330
1F
100
AcDbEntity
  8
BUMPER
100
AcDbCircle
 10
25.66566248717716
 20
21.07474813473669
 30
0.0
 40
0.112
100
AcDbArc
 50
231.9955137628659
 51
320.0347466510394
  0
LINE
  5
B2F
330
1F
100
AcDbEntity
  8
BUMPER
100
AcDbLine
 10
25.75150310819164
 20
21.00280796665349
 30
0.0
 11
25.77914297545004
 21
21.03574787775752
 31
0.0
  0
ARC
  5
B30
330
1F
100
AcDbEntity
  8
BUMPER
100
AcDbCircle
 10
25.69338967280162
 20
21.10779210781717
 30
0.0
 40
0.112
100
AcDbArc
 50
319.9652533489605
 51
48.00448623713396
  0
ARC
  5
B31
330
1F
100
AcDbEntity
  8
BUMPER
100
AcDbCircle
 10
26.0291297842012
 20
21.44353221921675
 30
0.0
 40
0.112
100
AcDbArc
 50
221.9955137628659
 51
310.0347466510394
  0
LINE
  5
B32
330
1F
100
AcDbEntity
  8
BUMPER
100
AcDbLine
 10
26.10117401421094
 20
21.35777891652644
 30
0.0
 11
26.13411392531496
 21
21.38541878378484
 31
0.0
  0
ARC
  5
B33
330
1F
100
AcDbEntity
  8
BUMPER
100
AcDbCircle
 10
26.06217375728169
 20
21.47125940484121
 30
0.0
 40
0.112
100
AcDbArc
 50
309.9652533489605
 51
38.00448623713391
  0
ARC
  5
B34
330
1F
100
AcDbEntity
  8
BUMPER
100
AcDbCircle
 10
26.45111388049939
 20
21.74359821103046
 30
0.0
 40
0.112
100
AcDbArc
 50
211.995513762866
 51
300.0347466510394
  0
LINE
  5
B35
330
1F
100
AcDbEntity
  8
BUMPER
100
AcDbLine
 10
26.50717269203168
 20
21.64663734444203
 30
0.0
 11
26.54441178445083
 21
21.6681373444746
 31
0.0
  0
ARC
  5
B36
330
1F
100
AcDbEntity
  8
BUMPER
100
AcDbCircle
 10
26.4884706166349
 20
21.76516613269434
 30
0.0
 40
0.112
100
AcDbArc
 50
299.9652533489605
 51
28.00448623713399
  0
ARC
  5
B37
330
1F
100
AcDbEntity
  8
BUMPER
100
AcDbCircle
 10
26.91879300283996
 20
21.96582875685729
 30
0.0
 40
0.112
100
AcDbArc
 50
201.995513762866
 51
290.0347466510394
  0
LINE
  5
B38
330
1F
100
AcDbEntity
  8
BUMPER
100
AcDbLine
 10
26.95716307727352
 20
21.86060643323747
 30
0.0
 11
26.99756986002854
 21
21.87531329942275
 31
0.0
  0
ARC
  5
B39
330
1F
100
AcDbEntity
  8
BUMPER
100
AcDbCircle
 10
26.95932743650643
 20
21.98058208417472
 30
0.0
 40
0.112
100
AcDbArc
 50
289.9652533489605
 51
18.004486237134
  0
ARC
  5
B3A
330
1F
100
AcDbEntity
  8
BUMPER
100
AcDbCircle
 10
27.41795695774766
 20
22.10347149401638
 30
0.0
 40
0.112
100
AcDbArc
 50
191.995513762866
 51
280.0347466510394
  0
LINE
  5
B3B
330
1F
100
AcDbEntity
  8
BUMPER
100
AcDbLine
 10
27.43747243978702
 20
21.99318484042328
 30
0.0
 11
27.47981917323071
 21
22.00065171207427
 31
0.0
  0
ARC
  5
B3C
330
1F
100
AcDbEntity
  8
BUMPER
100
AcDbCircle
 10
27.46043747068955
 20
22.11096195460237
 30
0.0
 40
0.112
100
AcDbArc
 50
279.9652533489605
 51
8.004486237134003
  0
ARC
  5
B3D
330
1F
100
AcDbEntity
  8
BUMPER
100
AcDbCircle
 10
27.93343890104175
 20
22.15234421758973
 30
0.0
 40
0.112
100
AcDbArc
 50
181.9955137628659
 51
270.0347466510394
  0
LINE
  5
B3E
330
1F
100
AcDbEntity
  8
BUMPER
100
AcDbLine
 10
27.93350682264048
 20
22.04034423818505
 30
0.0
 11
27.97650682270563
 21
22.04034423818505
 31
0.0
  0
ARC
  5
B3F
330
1F
100
AcDbEntity
  8
BUMPER
100
AcDbCircle
 10
27.97657474436952
 20
22.15234421758973
 30
0.0
 40
0.112
100
AcDbArc
 50
269.9652533489606
 51
358.004486237134
  0
ARC
  5
B40
330
1F
100
AcDbEntity
  8
BUMPER
100
AcDbCircle
 10
28.44957617472172
 20
22.11096195460236
 30
0.0
 40
0.112
100
AcDbArc
 50
171.995513762866
 51
260.0347466510395
  0
LINE
  5
B41
330
1F
100
AcDbEntity
  8
BUMPER
100
AcDbLine
 10
28.43019447211638
 20
22.00065171208558
 30
0.0
 11
28.47254120556006
 21
21.99318484043459
 31
0.0
  0
ARC
  5
B42
330
1F
100
AcDbEntity
  8
BUMPER
100
AcDbCircle
 10
28.49205668766361
 20
22.10347149401637
 30
0.0
 40
0.112
100
AcDbArc
 50
259.9652533489607
 51
348.004486237134
  0
ARC
  5
B43
330
1F
100
AcDbEntity
  8
BUMPER
100
AcDbCircle
 10
28.95068620890482
 20
21.98058208417471
 30
0.0
 40
0.112
100
AcDbArc
 50
161.995513762866
 51
250.0347466510395
  0
LINE
  5
B44
330
1F
100
AcDbEntity
  8
BUMPER
100
AcDbLine
 10
28.91244378532149
 20
21.87531329944503
 30
0.0
 11
28.95285056807651
 21
21.86060643325975
 31
0.0
  0
ARC
  5
B45
330
1F
100
AcDbEntity
  8
BUMPER
100
AcDbCircle
 10
28.99122064257129
 20
21.96582875685727
 30
0.0
 40
0.112
100
AcDbArc
 50
249.9652533489607
 51
338.0044862371341
  0
ARC
  5
B46
330
1F
100
AcDbEntity
  8
BUMPER
100
AcDbCircle
 10
29.42154302877637
 20
21.76516613269432
 30
0.0
 40
0.112
100
AcDbArc
 50
151.995513762866
 51
240.0347466510394
  0
LINE
  5
B47
330
1F
100
AcDbEntity
  8
BUMPER
100
AcDbLine
 10
29.365601860904
 20
21.66813734450717
 30
0.0
 11
29.40284095332315
 21
21.6466373444746
 31
0.0
  0
ARC
  5
B48
330
1F
100
AcDbEntity
  8
BUMPER
100
AcDbCircle
 10
29.45889976491188
 20
21.74359821103045
 30
0.0
 40
0.112
100
AcDbArc
 50
239.9652533489607
 51
328.0044862371341
  0
ARC
  5
B49
330
1F
100
AcDbEntity
  8
BUMPER
100
AcDbCircle
 10
29.84783988812957
 20
21.47125940484119
 30
0.0
 40
0.112
100
AcDbArc
 50
141.9955137628661
 51
230.0347466510395
  0
LINE
  5
B4A
330
1F
100
AcDbEntity
  8
BUMPER
100
AcDbLine
 10
29.77589972004638
 20
21.38541878382671
 30
0.0
 11
29.8088396311504
 21
21.35777891656831
 31
0.0
  0
ARC
  5
B4B
330
1F
100
AcDbEntity
  8
BUMPER
100
AcDbCircle
 10
29.88088386121005
 20
21.44353221921673
 30
0.0
 40
0.112
100
AcDbArc
 50
229.9652533489606
 51
318.0044862371342
  0
ARC
  5
B4C
330
1F
100
AcDbEntity
  8
BUMPER
100
AcDbCircle
 10
30.21662397260963
 20
21.10779210781716
 30
0.0
 40
0.112
100
AcDbArc
 50
131.995513762866
 51
220.0347466510395
  0
LINE
  5
B4D
330
1F
100
AcDbEntity
  8
BUMPER
100
AcDbLine
 10
30.13087066991932
 20
21.03574787780742
 30
0.0
 11
30.15851053717773
 21
21.00280796670339
 31
0.0
  0
ARC
  5
B4E
330
1F
100
AcDbEntity
  8
BUMPER
100
AcDbCircle
 10
30.2443511582341
 20
21.07474813473668
 30
0.0
 40
0.112
100
AcDbArc
 50
219.9652533489607
 51
308.0044862371341
  0
ARC
  5
B4F
330
1F
100
AcDbEntity
  8
BUMPER
100
AcDbCircle
 10
30.51668996442334
 20
20.68580801151898
 30
0.0
 40
0.112
100
AcDbArc
 50
121.9955137628661
 51
210.0347466510395
  0
LINE
  5
B50
330
1F
100
AcDbEntity
  8
BUMPER
100
AcDbLine
 10
30.41972909783491
 20
20.62974919998667
 30
0.0
 11
30.44122909786749
 21
20.59251010756752
 31
0.0
  0
ARC
  5
B51
330
1F
100
AcDbEntity
  8
BUMPER
100
AcDbCircle
 10
30.53825788608722
 20
20.64845127538347
 30
0.0
 40
0.112
100
AcDbArc
 50
209.9652533489606
 51
298.0044862371341
  0
ARC
  5
B52
330
1F
100
AcDbEntity
  8
BUMPER
100
AcDbCircle
 10
30.73892051025018
 20
20.2181288891784
 30
0.0
 40
0.112
100
AcDbArc
 50
111.9955137628661
 51
200.0347466510395
  0
LINE
  5
B53
330
1F
100
AcDbEntity
  8
BUMPER
100
AcDbLine
 10
30.63369818663036
 20
20.17975881474483
 30
0.0
 11
30.64840505281564
 21
20.13935203198981
 31
0.0
  0
ARC
  5
B54
330
1F
100
AcDbEntity
  8
BUMPER
100
AcDbCircle
 10
30.75367383756761
 20
20.17759445551193
 30
0.0
 40
0.112
100
AcDbArc
 50
199.9652533489606
 51
288.0044862371341
  0
ARC
  5
B55
330
1F
100
AcDbEntity
  8
BUMPER
100
AcDbCircle
 10
30.87656324740926
 20
19.71896493427071
 30
0.0
 40
0.112
100
AcDbArc
 50
101.995513762866
 51
190.0347466510394
  0
LINE
  5
B56
330
1F
100
AcDbEntity
  8
BUMPER
100
AcDbLine
 10
30.76627659381617
 20
19.69944945223133
 30
0.0
 11
30.77374346546716
 21
19.65710271878764
 31
0.0
  0
ARC
  5
B57
330
1F
100
AcDbEntity
  8
BUMPER
100
AcDbCircle
 10
30.88405370799526
 20
19.67648442132881
 30
0.0
 40
0.112
100
AcDbArc
 50
189.9652533489606
 51
278.0044862371341
  0
ARC
  5
B58
330
1F
100
AcDbEntity
  8
BUMPER
100
AcDbCircle
 10
30.92543597098262
 20
19.2034829909766
 30
0.0
 40
0.112
100
AcDbArc
 50
91.99551376286606
 51
180.0347466510395
  0
LINE
  5
B59
330
1F
100
AcDbEntity
  8
BUMPER
100
AcDbLine
 10
30.81343599157794
 20
19.20341506937788
 30
0.0
 11
30.81343599157794
 21
19.16041506931273
 31
0.0
  0
ARC
  5
B5A
330
1F
100
AcDbEntity
  8
BUMPER
100
AcDbCircle
 10
30.92543597098262
 20
19.16034714764884
 30
0.0
 40
0.112
100
AcDbArc
 50
179.9652533489606
 51
268.0044862371341
  0
ARC
  5
B5B
330
1F
100
AcDbEntity
  8
BUMPER
100
AcDbCircle
 10
30.88405370799526
 20
18.68734571729664
 30
0.0
 40
0.112
100
AcDbArc
 50
81.9955137628661
 51
170.0347466510396
  0
LINE
  5
B5C
330
1F
100
AcDbEntity
  8
BUMPER
100
AcDbLine
 10
30.77374346547848
 20
18.70672741990198
 30
0.0
 11
30.76627659382749
 21
18.66438068645829
 31
0.0
  0
ARC
  5
B5D
330
1F
100
AcDbEntity
  8
BUMPER
100
AcDbCircle
 10
30.87656324740926
 20
18.64486520435474
 30
0.0
 40
0.112
100
AcDbArc
 50
169.9652533489607
 51
258.0044862371341
  0
ARC
  5
B5E
330
1F
100
AcDbEntity
  8
BUMPER
100
AcDbCircle
 10
30.7536738375676
 20
18.18623568311352
 30
0.0
 40
0.112
100
AcDbArc
 50
71.9955137628661
 51
160.0347466510396
  0
LINE
  5
B5F
330
1F
100
AcDbEntity
  8
BUMPER
100
AcDbLine
 10
30.64840505283792
 20
18.22447810669686
 30
0.0
 11
30.63369818665264
 21
18.18407132394185
 31
0.0
  0
ARC
  5
B60
330
1F
100
AcDbEntity
  8
BUMPER
100
AcDbCircle
 10
30.73892051025017
 20
18.14570124944704
 30
0.0
 40
0.112
100
AcDbArc
 50
159.9652533489606
 51
248.0044862371341
  0
ARC
  5
B61
330
1F
100
AcDbEntity
  8
BUMPER
100
AcDbCircle
 10
30.53825788608721
 20
17.71537886324198
 30
0.0
 40
0.112
100
AcDbArc
 50
61.99551376286611
 51
150.0347466510395
  0
LINE
  5
B62
330
1F
100
AcDbEntity
  8
BUMPER
100
AcDbLine
 10
30.44122909790007
 20
17.77132003111435
 30
0.0
 11
30.41972909786749
 21
17.7340809386952
 31
0.0
  0
ARC
  5
B63
330
1F
100
AcDbEntity
  8
BUMPER
100
AcDbCircle
 10
30.51668996442333
 20
17.67802212710647
 30
0.0
 40
0.112
100
AcDbArc
 50
149.9652533489606
 51
238.0044862371342
  0
ARC
  5
B64
330
1F
100
AcDbEntity
  8
BUMPER
100
AcDbCircle
 10
30.24435115823409
 20
17.28908200388876
 30
0.0
 40
0.112
100
AcDbArc
 50
51.9955137628661
 51
140.0347466510395
  0
LINE
  5
B65
330
1F
100
AcDbEntity
  8
BUMPER
100
AcDbLine
 10
30.1585105372196
 20
17.36102217197197
 30
0.0
 11
30.1308706699612
 21
17.32808226086794
 31
0.0
  0
ARC
  5
B66
330
1F
100
AcDbEntity
  8
BUMPER
100
AcDbCircle
 10
30.21662397260962
 20
17.25603803080828
 30
0.0
 40
0.112
100
AcDbArc
 50
139.9652533489606
 51
228.0044862371341
  0
ARC
  5
B67
330
1F
100
AcDbEntity
  8
BUMPER
100
AcDbCircle
 10
29.88088386121005
 20
16.92029791940873
 30
0.0
 40
0.112
100
AcDbArc
 50
41.99551376286604
 51
130.0347466510395
  0
LINE
  5
B68
330
1F
100
AcDbEntity
  8
BUMPER
100
AcDbLine
 10
29.80883963120031
 20
17.00605122209903
 30
0.0
 11
29.77589972009628
 21
16.97841135484063
 31
0.0
  0
ARC
  5
B69
330
1F
100
AcDbEntity
  8
BUMPER
100
AcDbCircle
 10
29.84783988812957
 20
16.89257073378426
 30
0.0
 40
0.112
100
AcDbArc
 50
129.9652533489606
 51
218.0044862371341
  0
ARC
  5
B6A
330
1F
100
AcDbEntity
  8
BUMPER
100
AcDbCircle
 10
29.45889976491187
 20
16.62023192759501
 30
0.0
 40
0.112
100
AcDbArc
 50
31.99551376286612
 51
120.0347466510395
  0
LINE
  5
B6B
330
1F
100
AcDbEntity
  8
BUMPER
100
AcDbLine
 10
29.40284095337957
 20
16.71719279418343
 30
0.0
 11
29.36560186096041
 21
16.69569279415085
 31
0.0
  0
ARC
  5
B6C
330
1F
100
AcDbEntity
  8
BUMPER
100
AcDbCircle
 10
29.42154302877636
 20
16.59866400593113
 30
0.0
 40
0.112
100
AcDbArc
 50
119.9652533489606
 51
208.0044862371341
  0
ARC
  5
B6D
330
1F
100
AcDbEntity
  8
BUMPER
100
AcDbCircle
 10
28.99122064257129
 20
16.39800138176816
 30
0.0
 40
0.112
100
AcDbArc
 50
21.99551376286611
 51
110.0347466510395
  0
LINE
  5
B6E
330
1F
100
AcDbEntity
  8
BUMPER
100
AcDbLine
 10
28.95285056813773
 20
16.50322370538799
 30
0.0
 11
28.91244378538271
 21
16.4885168392027
 31
0.0
  0
ARC
  5
B6F
330
1F
100
AcDbEntity
  8
BUMPER
100
AcDbCircle
 10
28.95068620890482
 20
16.38324805445074
 30
0.0
 40
0.112
100
AcDbArc
 50
109.9652533489606
 51
198.004486237134
  0
ARC
  5
B70
330
1F
100
AcDbEntity
  8
BUMPER
100
AcDbCircle
 10
28.4920566876636
 20
16.26035864460909
 30
0.0
 40
0.112
100
AcDbArc
 50
11.99551376286612
 51
100.0347466510395
  0
LINE
  5
B71
330
1F
100
AcDbEntity
  8
BUMPER
100
AcDbLine
 10
28.47254120562422
 20
16.37064529820217
 30
0.0
 11
28.43019447218054
 21
16.36317842655119
 31
0.0
  0
ARC
  5
B72
330
1F
100
AcDbEntity
  8
BUMPER
100
AcDbCircle
 10
28.4495761747217
 20
16.25286818402309
 30
0.0
 40
0.112
100
AcDbArc
 50
99.96525334896062
 51
188.0044862371341
  0
LINE
  5
B73
330
1F
100
AcDbEntity
  8
BUMPER
100
AcDbLine
 10
27.97650682277077
 20
16.32348590044041
 30
0.0
 11
27.93350682270562
 21
16.32348590044041
 31
0.0
  0
ARC
  5
B74
330
1F
100
AcDbEntity
  8
BUMPER
100
AcDbCircle
 10
27.97657474436949
 20
16.21148592103573
 30
0.0
 40
0.112
100
AcDbArc
 50
1.995513762866071
 51
90.03474665103954
  0
ARC
  5
B75
330
1F
100
AcDbEntity
  8
BUMPER
100
AcDbCircle
 10
27.93343890104174
 20
16.21148592103573
 30
0.0
 40
0.112
100
AcDbArc
 50
89.96525334896064
 51
178.0044862371341
  0
LINE
  5
B76
330
1F
100
AcDbEntity
  8
BUMPER
100
AcDbLine
 10
28.46693336138918
 20
22.20900830689136
 30
0.0
 11
28.50928009483288
 21
22.20154143524037
 31
0.0
  0
LINE
  5
B77
330
1F
100
AcDbEntity
  8
BUMPER
100
AcDbLine
 10
28.60080719516444
 20
22.07563512124105
 30
0.0
 11
28.58298019497286
 21
21.96322295392732
 31
0.0
  0
ARC
  5
B78
330
1F
100
AcDbEntity
  8
BUMPER
100
AcDbCircle
 10
25.37264085400748
 20
22.52929239696937
 30
0.0
 40
3.259863999999999
100
AcDbArc
 50
351.9774646870487
 51
352.0412763333446
  0
ARC
  5
B79
330
1F
100
AcDbEntity
  8
BUMPER
100
AcDbCircle
 10
28.48989839229171
 20
22.09123119271228
 30
0.0
 40
0.112
100
AcDbArc
 50
351.9955137628657
 51
80.03474665103917
  0
ARC
  5
B7A
330
1F
100
AcDbEntity
  8
BUMPER
100
AcDbCircle
 10
28.38300319029452
 20
21.6089666394119
 30
0.0
 40
0.112
100
AcDbArc
 50
259.9789955656522
 51
342.9739060527082
  0
ARC
  5
B7B
330
1F
100
AcDbEntity
  8
BUMPER
100
AcDbCircle
 10
25.36289197872676
 20
22.53132018363704
 30
0.0
 40
3.269816903560633
100
AcDbArc
 50
343.0156472625558
 51
349.9946712711332
  0
ARC
  5
B7C
330
1F
100
AcDbEntity
  8
BUMPER
100
AcDbCircle
 10
31.52650754103016
 20
21.44419966436423
 30
0.0
 40
3.259863999999999
100
AcDbArc
 50
167.9587236666549
 51
168.0225353129509
  0
LINE
  5
B7D
330
1F
100
AcDbEntity
  8
BUMPER
100
AcDbLine
 10
28.33786352511019
 20
22.12199918467812
 30
0.0
 11
28.31616820006477
 21
22.01026910740627
 31
0.0
  0
ARC
  5
B7E
330
1F
100
AcDbEntity
  8
BUMPER
100
AcDbCircle
 10
31.53636203107912
 20
21.4427708488116
 30
0.0
 40
3.269816903560633
100
AcDbArc
 50
170.0053287288663
 51
176.9843527374435
  0
ARC
  5
B7F
330
1F
100
AcDbEntity
  8
BUMPER
100
AcDbCircle
 10
28.38292232022329
 20
21.60898089898739
 30
0.0
 40
0.112
100
AcDbArc
 50
177.0260939472913
 51
260.0210044343473
  0
ARC
  5
B80
330
1F
100
AcDbEntity
  8
BUMPER
100
AcDbCircle
 10
28.4474178793498
 20
22.09872165329827
 30
0.0
 40
0.112
100
AcDbArc
 50
79.96525334896031
 51
168.0044862371337
  0
LINE
  5
B81
330
1F
100
AcDbEntity
  8
BUMPER
100
AcDbLine
 10
28.98480527130732
 20
22.07412484822925
 30
0.0
 11
29.02521205406234
 21
22.05941798204396
 31
0.0
  0
LINE
  5
B82
330
1F
100
AcDbEntity
  8
BUMPER
100
AcDbLine
 10
29.09348525009685
 20
21.91953095368453
 30
0.0
 11
29.05640891409361
 21
21.8119222058776
 31
0.0
  0
ARC
  5
B83
330
1F
100
AcDbEntity
  8
BUMPER
100
AcDbCircle
 10
25.99313876852798
 20
22.9268613583798
 30
0.0
 40
3.259863999999999
100
AcDbArc
 50
341.9774646870485
 51
342.0412763333446
  0
ARC
  5
B84
330
1F
100
AcDbEntity
  8
BUMPER
100
AcDbCircle
 10
28.98696963054021
 20
21.954149197292
 30
0.0
 40
0.112
100
AcDbArc
 50
341.9955137628658
 51
70.0347466510392
  0
ARC
  5
B85
330
1F
100
AcDbEntity
  8
BUMPER
100
AcDbCircle
 10
28.79795404601961
 20
21.49777348322697
 30
0.0
 40
0.112
100
AcDbArc
 50
249.9789955656523
 51
332.9739060527083
  0
ARC
  5
B86
330
1F
100
AcDbEntity
  8
BUMPER
100
AcDbCircle
 10
25.98389012202793
 20
22.93055121283838
 30
0.0
 40
3.269816903560633
100
AcDbArc
 50
333.015647262556
 51
339.9946712711332
  0
ARC
  5
B87
330
1F
100
AcDbEntity
  8
BUMPER
100
AcDbCircle
 10
31.86509001729496
 20
20.78964588676634
 30
0.0
 40
3.259863999999999
100
AcDbArc
 50
157.9587236666549
 51
158.022535312951
  0
LINE
  5
B88
330
1F
100
AcDbEntity
  8
BUMPER
100
AcDbLine
 10
28.84258732034702
 20
22.01085033195248
 30
0.0
 11
28.80181987172933
 21
21.90458503926854
 31
0.0
  0
ARC
  5
B89
330
1F
100
AcDbEntity
  8
BUMPER
100
AcDbCircle
 10
31.87454668428022
 20
20.78652756389364
 30
0.0
 40
3.269816903560633
100
AcDbArc
 50
160.0053287288663
 51
166.9843527374436
  0
ARC
  5
B8A
330
1F
100
AcDbEntity
  8
BUMPER
100
AcDbCircle
 10
28.79787688069578
 20
21.49780156910797
 30
0.0
 40
0.112
100
AcDbArc
 50
167.0260939472913
 51
250.0210044343474
  0
ARC
  5
B8B
330
1F
100
AcDbEntity
  8
BUMPER
100
AcDbCircle
 10
28.94643519687374
 20
21.96890252460943
 30
0.0
 40
0.112
100
AcDbArc
 50
69.96525334896034
 51
158.0044862371338
  0
LINE
  5
B8C
330
1F
100
AcDbEntity
  8
BUMPER
100
AcDbLine
 10
29.47138727646784
 20
21.85136305896353
 30
0.0
 11
29.508626368887
 21
21.82986305893095
 31
0.0
  0
LINE
  5
B8D
330
1F
100
AcDbEntity
  8
BUMPER
100
AcDbLine
 10
29.55157121411085
 20
21.68024571278186
 30
0.0
 11
29.49637208800389
 21
21.58071002183119
 31
0.0
  0
ARC
  5
B8E
330
1F
100
AcDbEntity
  8
BUMPER
100
AcDbCircle
 10
26.67324705112154
 20
23.21064202183119
 30
0.0
 40
3.259863999999999
100
AcDbArc
 50
331.9774646870485
 51
332.0412763333447
  0
ARC
  5
B8F
330
1F
100
AcDbEntity
  8
BUMPER
100
AcDbCircle
 10
29.45268520107104
 20
21.73283427071122
 30
0.0
 40
0.112
100
AcDbArc
 50
331.9955137628658
 51
60.03474665103917
  0
ARC
  5
B90
330
1F
100
AcDbEntity
  8
BUMPER
100
AcDbCircle
 10
29.18729237691618
 20
21.31621414101616
 30
0.0
 40
0.112
100
AcDbArc
 50
239.9789955656522
 51
322.9739060527082
  0
ARC
  5
B91
330
1F
100
AcDbEntity
  8
BUMPER
100
AcDbCircle
 10
26.66477964884599
 20
23.21588182972011
 30
0.0
 40
3.269816903560633
100
AcDbArc
 50
323.0156472625558
 51
329.9946712711332
  0
ARC
  5
B92
330
1F
100
AcDbEntity
  8
BUMPER
100
AcDbCircle
 10
32.08486659428972
 20
20.08624202183117
 30
0.0
 40
3.259863999999999
100
AcDbArc
 50
147.9587236666549
 51
148.022535312951
  0
LINE
  5
B93
330
1F
100
AcDbEntity
  8
BUMPER
100
AcDbLine
 10
29.32034243130041
 20
21.81374571278185
 30
0.0
 11
29.26174155740738
 21
21.7161740218312
 31
0.0
  0
ARC
  5
B94
330
1F
100
AcDbEntity
  8
BUMPER
100
AcDbCircle
 10
32.09363810217025
 20
20.08152894030095
 30
0.0
 40
3.269816903560633
100
AcDbArc
 50
150.0053287288662
 51
156.9843527374437
  0
ARC
  5
B95
330
1F
100
AcDbEntity
  8
BUMPER
100
AcDbCircle
 10
29.18722126096906
 20
21.31625519982736
 30
0.0
 40
0.112
100
AcDbArc
 50
157.0260939472911
 51
240.0210044343473
  0
ARC
  5
B96
330
1F
100
AcDbEntity
  8
BUMPER
100
AcDbCircle
 10
29.41532846493554
 20
21.75440219237511
 30
0.0
 40
0.112
100
AcDbArc
 50
59.96525334896038
 51
148.0044862371337
  0
LINE
  5
B97
330
1F
100
AcDbEntity
  8
BUMPER
100
AcDbLine
 10
29.91189482886634
 20
21.54749144333813
 30
0.0
 11
29.94483473997036
 21
21.51985157607972
 31
0.0
  0
LINE
  5
B98
330
1F
100
AcDbEntity
  8
BUMPER
100
AcDbLine
 10
29.96114637699257
 20
21.36504995949367
 30
0.0
 11
29.88950165829653
 21
21.2766116670013
 31
0.0
  0
ARC
  5
B99
330
1F
100
AcDbEntity
  8
BUMPER
100
AcDbCircle
 10
27.39230095577295
 20
23.37201185546451
 30
0.0
 40
3.259863999999999
100
AcDbArc
 50
321.9774646870486
 51
322.0412763333447
  0
ARC
  5
B9A
330
1F
100
AcDbEntity
  8
BUMPER
100
AcDbCircle
 10
29.87289457193707
 20
21.43401095502336
 30
0.0
 40
0.112
100
AcDbArc
 50
321.9955137628657
 51
50.03474665103921
  0
ARC
  5
B9B
330
1F
100
AcDbEntity
  8
BUMPER
100
AcDbCircle
 10
29.53918833481465
 20
21.06980520151907
 30
0.0
 40
0.112
100
AcDbArc
 50
229.9789955656522
 51
312.9739060527082
  0
ARC
  5
B9C
330
1F
100
AcDbEntity
  8
BUMPER
100
AcDbCircle
 10
27.38487207545535
 20
23.37864240787253
 30
0.0
 40
3.269816903560633
100
AcDbArc
 50
313.0156472625558
 51
319.9946712711333
  0
ARC
  5
B9D
330
1F
100
AcDbEntity
  8
BUMPER
100
AcDbCircle
 10
32.17915947193478
 20
19.35536064005525
 30
0.0
 40
3.259863999999999
100
AcDbArc
 50
137.9587236666548
 51
138.022535312951
  0
LINE
  5
B9E
330
1F
100
AcDbEntity
  8
BUMPER
100
AcDbLine
 10
29.75661251067981
 20
21.53667425127998
 30
0.0
 11
29.68195876941119
 21
21.45076082851846
 31
0.0
  0
ARC
  5
B9F
330
1F
100
AcDbEntity
  8
BUMPER
100
AcDbCircle
 10
32.18697930288222
 20
19.34919600446486
 30
0.0
 40
3.269816903560633
100
AcDbArc
 50
140.0053287288663
 51
146.9843527374436
  0
ARC
  5
BA0
330
1F
100
AcDbEntity
  8
BUMPER
100
AcDbCircle
 10
29.53912542906631
 20
21.0698579857093
 30
0.0
 40
0.112
100
AcDbArc
 50
147.0260939472913
 51
230.0210044343474
  0
ARC
  5
BA1
330
1F
100
AcDbEntity
  8
BUMPER
100
AcDbCircle
 10
29.8398505988566
 20
21.46173814064782
 30
0.0
 40
0.112
100
AcDbArc
 50
49.96525334896038
 51
138.0044862371338
  0
LINE
  5
BA2
330
1F
100
AcDbEntity
  8
BUMPER
100
AcDbLine
 10
30.29294332943075
 20
21.17174298662737
 30
0.0
 11
30.32058319668915
 21
21.13880307552334
 31
0.0
  0
LINE
  5
BA3
330
1F
100
AcDbEntity
  8
BUMPER
100
AcDbLine
 10
30.30976600467288
 20
20.9835207572869
 30
0.0
 11
30.22385258191138
 21
20.90886701601828
 31
0.0
  0
ARC
  5
BA4
330
1F
100
AcDbEntity
  8
BUMPER
100
AcDbCircle
 10
28.12845239344817
 20
23.4060677185419
 30
0.0
 40
3.259863999999999
100
AcDbArc
 50
311.9774646870486
 51
312.0412763333447
  0
ARC
  5
BA5
330
1F
100
AcDbEntity
  8
BUMPER
100
AcDbCircle
 10
30.23482989404073
 20
21.06675884546369
 30
0.0
 40
0.112
100
AcDbArc
 50
311.9955137628658
 51
40.03474665103925
  0
ARC
  5
BA6
330
1F
100
AcDbEntity
  8
BUMPER
100
AcDbCircle
 10
29.84294973910221
 20
20.7660336756734
 30
0.0
 40
0.112
100
AcDbArc
 50
219.9789955656523
 51
302.9739060527082
  0
ARC
  5
BA7
330
1F
100
AcDbEntity
  8
BUMPER
100
AcDbCircle
 10
28.12228775785779
 20
23.41388754948932
 30
0.0
 40
3.269816903560633
100
AcDbArc
 50
303.0156472625559
 51
309.9946712711332
  0
ARC
  5
BA8
330
1F
100
AcDbEntity
  8
BUMPER
100
AcDbCircle
 10
32.1451036088574
 20
18.61920920238001
 30
0.0
 40
3.259863999999999
100
AcDbArc
 50
127.9587236666548
 51
128.022535312951
  0
LINE
  5
BA9
330
1F
100
AcDbEntity
  8
BUMPER
100
AcDbLine
 10
30.13814171288658
 20
21.18805462359967
 30
0.0
 11
30.04970342039421
 21
21.11640990490363
 31
0.0
  0
ARC
  5
BAA
330
1F
100
AcDbEntity
  8
BUMPER
100
AcDbCircle
 10
32.15173416126543
 20
18.61178032206242
 30
0.0
 40
3.269816903560633
100
AcDbArc
 50
130.0053287288663
 51
136.9843527374437
  0
ARC
  5
BAB
330
1F
100
AcDbEntity
  8
BUMPER
100
AcDbCircle
 10
29.84289695491197
 20
20.76609658142174
 30
0.0
 40
0.112
100
AcDbArc
 50
137.0260939472913
 51
220.0210044343474
  0
ARC
  5
BAC
330
1F
100
AcDbEntity
  8
BUMPER
100
AcDbCircle
 10
30.20710270841628
 20
21.09980281854417
 30
0.0
 40
0.112
100
AcDbArc
 50
39.96525334896037
 51
128.0044862371337
  0
LINE
  5
BAD
330
1F
100
AcDbEntity
  8
BUMPER
100
AcDbLine
 10
30.60295481229128
 20
20.73553461555051
 30
0.0
 11
30.62445481232385
 21
20.69829552313136
 31
0.0
  0
LINE
  5
BAE
330
1F
100
AcDbEntity
  8
BUMPER
100
AcDbLine
 10
30.58683746617476
 20
20.5472506779075
 30
0.0
 11
30.48926577522409
 21
20.48864980401447
 31
0.0
  0
ARC
  5
BAF
330
1F
100
AcDbEntity
  8
BUMPER
100
AcDbCircle
 10
28.85933377522409
 20
23.31177484089682
 30
0.0
 40
3.259863999999999
100
AcDbArc
 50
301.9774646870486
 51
302.0412763333447
  0
ARC
  5
BB0
330
1F
100
AcDbEntity
  8
BUMPER
100
AcDbCircle
 10
30.52749394576801
 20
20.64223671154262
 30
0.0
 40
0.112
100
AcDbArc
 50
301.9955137628658
 51
30.03474665103922
  0
ARC
  5
BB1
330
1F
100
AcDbEntity
  8
BUMPER
100
AcDbCircle
 10
30.08934695322027
 20
20.41412950757615
 30
0.0
 40
0.112
100
AcDbArc
 50
209.9789955656522
 51
292.9739060527083
  0
ARC
  5
BB2
330
1F
100
AcDbEntity
  8
BUMPER
100
AcDbCircle
 10
28.85462069369387
 20
23.32054634877735
 30
0.0
 40
3.269816903560633
100
AcDbArc
 50
293.0156472625559
 51
299.9946712711333
  0
ARC
  5
BB3
330
1F
100
AcDbEntity
  8
BUMPER
100
AcDbCircle
 10
31.98373377522408
 20
17.90015529772861
 30
0.0
 40
3.259863999999999
100
AcDbArc
 50
117.9587236666549
 51
118.022535312951
  0
LINE
  5
BB4
330
1F
100
AcDbEntity
  8
BUMPER
100
AcDbLine
 10
30.45333746617476
 20
20.77847946071795
 30
0.0
 11
30.35380177522409
 21
20.72328033461098
 31
0.0
  0
ARC
  5
BB5
330
1F
100
AcDbEntity
  8
BUMPER
100
AcDbCircle
 10
31.98897358311299
 20
17.89168789545308
 30
0.0
 40
3.269816903560633
100
AcDbArc
 50
120.0053287288663
 51
126.9843527374436
  0
ARC
  5
BB6
330
1F
100
AcDbEntity
  8
BUMPER
100
AcDbCircle
 10
30.08930589440906
 20
20.41420062352328
 30
0.0
 40
0.112
100
AcDbArc
 50
127.0260939472913
 51
210.0210044343473
  0
ARC
  5
BB7
330
1F
100
AcDbEntity
  8
BUMPER
100
AcDbCircle
 10
30.50592602410413
 20
20.67959344767814
 30
0.0
 40
0.112
100
AcDbArc
 50
29.96525334896038
 51
118.0044862371337
  0
LINE
  5
BB8
330
1F
100
AcDbEntity
  8
BUMPER
100
AcDbLine
 10
30.83250973541458
 20
20.25212030073065
 30
0.0
 11
30.84721660159987
 21
20.21171351797562
 31
0.0
  0
LINE
  5
BB9
330
1F
100
AcDbEntity
  8
BUMPER
100
AcDbLine
 10
30.78394208534538
 20
20.0694955669541
 30
0.0
 11
30.67767679266145
 21
20.02872811833642
 31
0.0
  0
ARC
  5
BBA
330
1F
100
AcDbEntity
  8
BUMPER
100
AcDbCircle
 10
29.56273764015926
 20
23.09199826390205
 30
0.0
 40
3.259863999999999
100
AcDbArc
 50
291.9774646870486
 51
292.0412763333447
  0
ARC
  5
BBB
330
1F
100
AcDbEntity
  8
BUMPER
100
AcDbCircle
 10
30.74199427800233
 20
20.17334344348082
 30
0.0
 40
0.112
100
AcDbArc
 50
291.9955137628658
 51
20.0347466510392
  0
ARC
  5
BBC
330
1F
100
AcDbEntity
  8
BUMPER
100
AcDbCircle
 10
30.27089332250086
 20
20.02478512730287
 30
0.0
 40
0.112
100
AcDbArc
 50
199.9789955656522
 51
282.9739060527082
  0
ARC
  5
BBD
330
1F
100
AcDbEntity
  8
BUMPER
100
AcDbCircle
 10
29.55961931728657
 20
23.10145493088731
 30
0.0
 40
3.269816903560633
100
AcDbArc
 50
283.015647262556
 51
289.9946712711332
  0
ARC
  5
BBE
330
1F
100
AcDbEntity
  8
BUMPER
100
AcDbCircle
 10
31.69995311177268
 20
17.22004701513506
 30
0.0
 40
3.259863999999999
100
AcDbArc
 50
107.9587236666549
 51
108.022535312951
  0
LINE
  5
BBF
330
1F
100
AcDbEntity
  8
BUMPER
100
AcDbLine
 10
30.69262270707743
 20
20.32039349670395
 30
0.0
 11
30.5850139592705
 21
20.2833171607007
 31
0.0
  0
ARC
  5
BC0
330
1F
100
AcDbEntity
  8
BUMPER
100
AcDbCircle
 10
31.70364296623126
 20
17.210798368635
 30
0.0
 40
3.269816903560633
100
AcDbArc
 50
110.0053287288663
 51
116.9843527374437
  0
ARC
  5
BC1
330
1F
100
AcDbEntity
  8
BUMPER
100
AcDbCircle
 10
30.27086523661987
 20
20.0248622926267
 30
0.0
 40
0.112
100
AcDbArc
 50
117.0260939472913
 51
200.0210044343473
  0
ARC
  5
BC2
330
1F
100
AcDbEntity
  8
BUMPER
100
AcDbCircle
 10
30.7272409506849
 20
20.2138778771473
 30
0.0
 40
0.112
100
AcDbArc
 50
19.96525334896039
 51
108.0044862371337
  0
LINE
  5
BC3
330
1F
100
AcDbEntity
  8
BUMPER
100
AcDbLine
 10
30.97463318862195
 20
19.73618834150412
 30
0.0
 11
30.98210006027294
 21
19.69384160806043
 31
0.0
  0
LINE
  5
BC4
330
1F
100
AcDbEntity
  8
BUMPER
100
AcDbLine
 10
30.89509093807102
 20
19.56477177171727
 30
0.0
 11
30.78336086079917
 21
19.54307644667186
 31
0.0
  0
ARC
  5
BC5
330
1F
100
AcDbEntity
  8
BUMPER
100
AcDbCircle
 10
30.21729141775715
 20
22.75341578763725
 30
0.0
 40
3.259863999999999
100
AcDbArc
 50
281.9774646870486
 51
282.0412763333447
  0
ARC
  5
BC6
330
1F
100
AcDbEntity
  8
BUMPER
100
AcDbCircle
 10
30.87181340669117
 20
19.67432612595689
 30
0.0
 40
0.112
100
AcDbArc
 50
281.9955137628658
 51
10.0347466510392
  0
ARC
  5
BC7
330
1F
100
AcDbEntity
  8
BUMPER
100
AcDbCircle
 10
30.38207265238028
 20
19.60983056683038
 30
0.0
 40
0.112
100
AcDbArc
 50
189.9789955656522
 51
272.9739060527084
  0
ARC
  5
BC8
330
1F
100
AcDbEntity
  8
BUMPER
100
AcDbCircle
 10
30.21586260220451
 20
22.76327027768621
 30
0.0
 40
3.269816903560633
100
AcDbArc
 50
273.015647262556
 51
279.9946712711333
  0
ARC
  5
BC9
330
1F
100
AcDbEntity
  8
BUMPER
100
AcDbCircle
 10
31.30238415036224
 20
16.59954910061456
 30
0.0
 40
3.259863999999999
100
AcDbArc
 50
97.95872366665493
 51
98.02253531295113
  0
LINE
  5
BCA
330
1F
100
AcDbEntity
  8
BUMPER
100
AcDbLine
 10
30.84872687463395
 20
19.82771544177153
 30
0.0
 11
30.73631470732022
 21
19.80988844157995
 31
0.0
  0
ARC
  5
BCB
330
1F
100
AcDbEntity
  8
BUMPER
100
AcDbCircle
 10
31.30441193702991
 20
16.58980022533384
 30
0.0
 40
3.269816903560633
100
AcDbArc
 50
100.0053287288664
 51
106.9843527374437
  0
ARC
  5
BCC
330
1F
100
AcDbEntity
  8
BUMPER
100
AcDbCircle
 10
30.38205839280479
 20
19.6099114369016
 30
0.0
 40
0.112
100
AcDbArc
 50
107.0260939472914
 51
190.0210044343474
  0
ARC
  5
BCD
330
1F
100
AcDbEntity
  8
BUMPER
100
AcDbCircle
 10
30.86432294610518
 20
19.71680663889879
 30
0.0
 40
0.112
100
AcDbArc
 50
9.965253348960411
 51
98.00448623713378
  0
LINE
  5
BCE
330
1F
100
AcDbEntity
  8
BUMPER
100
AcDbLine
 10
31.02500682270562
 20
19.20341506937787
 30
0.0
 11
31.02500682270562
 21
19.16041506931272
 31
0.0
  0
LINE
  5
BCF
330
1F
100
AcDbEntity
  8
BUMPER
100
AcDbLine
 10
30.91690682270562
 20
19.04841506931272
 30
0.0
 11
30.80310682270563
 21
19.04645106931272
 31
0.0
  0
ARC
  5
BD0
330
1F
100
AcDbEntity
  8
BUMPER
100
AcDbCircle
 10
30.80310682270563
 20
22.30631506931272
 30
0.0
 40
3.259863999999999
100
AcDbArc
 50
271.9774646870487
 51
272.0412763333448
  0
ARC
  5
BD1
330
1F
100
AcDbEntity
  8
BUMPER
100
AcDbCircle
 10
30.91300684330095
 20
19.16034714764884
 30
0.0
 40
0.112
100
AcDbArc
 50
271.9955137628659
 51
0.0347466510392405
  0
ARC
  5
BD2
330
1F
100
AcDbEntity
  8
BUMPER
100
AcDbCircle
 10
30.41950681517961
 20
19.18187401050151
 30
0.0
 40
0.112
100
AcDbArc
 50
179.9789955656523
 51
262.9739060527084
  0
ARC
  5
BD3
330
1F
100
AcDbEntity
  8
BUMPER
100
AcDbCircle
 10
30.80341092831061
 20
22.31626795873186
 30
0.0
 40
3.269816903560633
100
AcDbArc
 50
263.0156472625559
 51
269.9946712711333
  0
ARC
  5
BD4
330
1F
100
AcDbEntity
  8
BUMPER
100
AcDbCircle
 10
30.80310682270561
 20
16.05751506931272
 30
0.0
 40
3.259863999999999
100
AcDbArc
 50
87.958723666655
 51
88.022535312951
  0
LINE
  5
BD5
330
1F
100
AcDbEntity
  8
BUMPER
100
AcDbLine
 10
30.91690682270562
 20
19.31541506931272
 30
0.0
 11
30.80310682270563
 21
19.31737906931272
 31
0.0
  0
ARC
  5
BD6
330
1F
100
AcDbEntity
  8
BUMPER
100
AcDbCircle
 10
30.80341092831059
 20
16.04756217989358
 30
0.0
 40
3.269816903560633
100
AcDbArc
 50
90.00532872886644
 51
96.98435273744379
  0
ARC
  5
BD7
330
1F
100
AcDbEntity
  8
BUMPER
100
AcDbCircle
 10
30.41950681517961
 20
19.18195612812393
 30
0.0
 40
0.112
100
AcDbArc
 50
97.02609394729137
 51
180.0210044343474
  0
ARC
  5
BD8
330
1F
100
AcDbEntity
  8
BUMPER
100
AcDbCircle
 10
30.91300684330095
 20
19.2034829909766
 30
0.0
 40
0.112
100
AcDbArc
 50
359.9652533489605
 51
88.0044862371338
  0
LINE
  5
BD9
330
1F
100
AcDbEntity
  8
BUMPER
100
AcDbLine
 10
30.98210006028426
 20
18.66998853062917
 30
0.0
 11
30.97463318863326
 21
18.62764179718548
 31
0.0
  0
LINE
  5
BDA
330
1F
100
AcDbEntity
  8
BUMPER
100
AcDbLine
 10
30.84872687463394
 20
18.53611469685391
 30
0.0
 11
30.73631470732022
 21
18.55394169704549
 31
0.0
  0
ARC
  5
BDB
330
1F
100
AcDbEntity
  8
BUMPER
100
AcDbCircle
 10
31.30238415036226
 20
21.76428103801088
 30
0.0
 40
3.259863999999999
100
AcDbArc
 50
261.9774646870487
 51
262.0412763333448
  0
ARC
  5
BDC
330
1F
100
AcDbEntity
  8
BUMPER
100
AcDbCircle
 10
30.86432294610518
 20
18.64702349972665
 30
0.0
 40
0.112
100
AcDbArc
 50
261.9955137628658
 51
350.0347466510393
  0
ARC
  5
BDD
330
1F
100
AcDbEntity
  8
BUMPER
100
AcDbCircle
 10
30.38205839280479
 20
18.75391870172384
 30
0.0
 40
0.112
100
AcDbArc
 50
169.9789955656522
 51
252.9739060527083
  0
ARC
  5
BDE
330
1F
100
AcDbEntity
  8
BUMPER
100
AcDbCircle
 10
31.30441193702993
 20
21.7740299132916
 30
0.0
 40
3.269816903560633
100
AcDbArc
 50
253.015647262556
 51
259.9946712711333
  0
ARC
  5
BDF
330
1F
100
AcDbEntity
  8
BUMPER
100
AcDbCircle
 10
30.21729141775713
 20
15.6104143509882
 30
0.0
 40
3.259863999999999
100
AcDbArc
 50
77.95872366665498
 51
78.02253531295106
  0
LINE
  5
BE0
330
1F
100
AcDbEntity
  8
BUMPER
100
AcDbLine
 10
30.89509093807102
 20
18.79905836690817
 30
0.0
 11
30.78336086079917
 21
18.82075369195359
 31
0.0
  0
ARC
  5
BE1
330
1F
100
AcDbEntity
  8
BUMPER
100
AcDbCircle
 10
30.21586260220449
 20
15.60055986093923
 30
0.0
 40
3.269816903560633
100
AcDbArc
 50
80.0053287288664
 51
86.98435273744371
  0
ARC
  5
BE2
330
1F
100
AcDbEntity
  8
BUMPER
100
AcDbCircle
 10
30.38207265238028
 20
18.75399957179506
 30
0.0
 40
0.112
100
AcDbArc
 50
87.02609394729142
 51
170.0210044343475
  0
ARC
  5
BE3
330
1F
100
AcDbEntity
  8
BUMPER
100
AcDbCircle
 10
30.87181340669117
 20
18.68950401266855
 30
0.0
 40
0.112
100
AcDbArc
 50
349.9652533489603
 51
78.00448623713389
  0
LINE
  5
BE4
330
1F
100
AcDbEntity
  8
BUMPER
100
AcDbLine
 10
30.84721660162215
 20
18.15211662071104
 30
0.0
 11
30.83250973543686
 21
18.11170983795602
 31
0.0
  0
LINE
  5
BE5
330
1F
100
AcDbEntity
  8
BUMPER
100
AcDbLine
 10
30.69262270707743
 20
18.0434366419215
 30
0.0
 11
30.58501395927049
 21
18.08051297792474
 31
0.0
  0
ARC
  5
BE6
330
1F
100
AcDbEntity
  8
BUMPER
100
AcDbCircle
 10
31.69995311177269
 20
21.14378312349038
 30
0.0
 40
3.259863999999999
100
AcDbArc
 50
251.9774646870487
 51
252.0412763333447
  0
ARC
  5
BE7
330
1F
100
AcDbEntity
  8
BUMPER
100
AcDbCircle
 10
30.72724095068489
 20
18.14995226147814
 30
0.0
 40
0.112
100
AcDbArc
 50
251.9955137628659
 51
340.0347466510393
  0
ARC
  5
BE8
330
1F
100
AcDbEntity
  8
BUMPER
100
AcDbCircle
 10
30.27086523661986
 20
18.33896784599874
 30
0.0
 40
0.112
100
AcDbArc
 50
159.9789955656522
 51
242.9739060527084
  0
ARC
  5
BE9
330
1F
100
AcDbEntity
  8
BUMPER
100
AcDbCircle
 10
31.70364296623127
 20
21.15303176999043
 30
0.0
 40
3.269816903560633
100
AcDbArc
 50
243.0156472625559
 51
249.9946712711333
  0
ARC
  5
BEA
330
1F
100
AcDbEntity
  8
BUMPER
100
AcDbCircle
 10
29.56273764015924
 20
15.2718318747234
 30
0.0
 40
3.259863999999999
100
AcDbArc
 50
67.95872366665496
 51
68.02253531295106
  0
LINE
  5
BEB
330
1F
100
AcDbEntity
  8
BUMPER
100
AcDbLine
 10
30.78394208534538
 20
18.29433457167134
 30
0.0
 11
30.67767679266145
 21
18.33510202028903
 31
0.0
  0
ARC
  5
BEC
330
1F
100
AcDbEntity
  8
BUMPER
100
AcDbCircle
 10
29.55961931728655
 20
15.26237520773813
 30
0.0
 40
3.269816903560633
100
AcDbArc
 50
70.00532872886634
 51
76.98435273744371
  0
ARC
  5
BED
330
1F
100
AcDbEntity
  8
BUMPER
100
AcDbCircle
 10
30.27089332250085
 20
18.33904501132257
 30
0.0
 40
0.112
100
AcDbArc
 50
77.02609394729137
 51
160.0210044343475
  0
ARC
  5
BEE
330
1F
100
AcDbEntity
  8
BUMPER
100
AcDbCircle
 10
30.74199427800233
 20
18.19048669514461
 30
0.0
 40
0.112
100
AcDbArc
 50
339.9652533489604
 51
68.00448623713389
  0
LINE
  5
BEF
330
1F
100
AcDbEntity
  8
BUMPER
100
AcDbLine
 10
30.62445481235642
 20
17.66553461555051
 30
0.0
 11
30.60295481232385
 21
17.62829552313135
 31
0.0
  0
LINE
  5
BF0
330
1F
100
AcDbEntity
  8
BUMPER
100
AcDbLine
 10
30.45333746617475
 20
17.5853506779075
 30
0.0
 11
30.35380177522407
 21
17.64054980401447
 31
0.0
  0
ARC
  5
BF1
330
1F
100
AcDbEntity
  8
BUMPER
100
AcDbCircle
 10
31.98373377522409
 20
20.46367484089683
 30
0.0
 40
3.259863999999999
100
AcDbArc
 50
241.9774646870486
 51
242.0412763333447
  0
ARC
  5
BF2
330
1F
100
AcDbEntity
  8
BUMPER
100
AcDbCircle
 10
30.50592602410413
 20
17.68423669094731
 30
0.0
 40
0.112
100
AcDbArc
 50
241.9955137628658
 51
330.0347466510392
  0
ARC
  5
BF3
330
1F
100
AcDbEntity
  8
BUMPER
100
AcDbCircle
 10
30.08930589440905
 20
17.94962951510217
 30
0.0
 40
0.112
100
AcDbArc
 50
149.9789955656522
 51
232.9739060527083
  0
ARC
  5
BF4
330
1F
100
AcDbEntity
  8
BUMPER
100
AcDbCircle
 10
31.988973583113
 20
20.47214224317237
 30
0.0
 40
3.269816903560633
100
AcDbArc
 50
233.015647262556
 51
239.9946712711333
  0
ARC
  5
BF5
330
1F
100
AcDbEntity
  8
BUMPER
100
AcDbCircle
 10
28.85933377522407
 20
15.05205529772863
 30
0.0
 40
3.259863999999999
100
AcDbArc
 50
57.95872366665498
 51
58.02253531295107
  0
LINE
  5
BF6
330
1F
100
AcDbEntity
  8
BUMPER
100
AcDbLine
 10
30.58683746617475
 20
17.81657946071794
 30
0.0
 11
30.48926577522408
 21
17.87518033461098
 31
0.0
  0
ARC
  5
BF7
330
1F
100
AcDbEntity
  8
BUMPER
100
AcDbCircle
 10
28.85462069369385
 20
15.0432837898481
 30
0.0
 40
3.269816903560633
100
AcDbArc
 50
60.0053287288664
 51
66.9843527374437
  0
ARC
  5
BF8
330
1F
100
AcDbEntity
  8
BUMPER
100
AcDbCircle
 10
30.08934695322026
 20
17.94970063104929
 30
0.0
 40
0.112
100
AcDbArc
 50
67.0260939472915
 51
150.0210044343474
  0
ARC
  5
BF9
330
1F
100
AcDbEntity
  8
BUMPER
100
AcDbCircle
 10
30.527493945768
 20
17.72159342708281
 30
0.0
 40
0.112
100
AcDbArc
 50
329.9652533489604
 51
58.00448623713388
  0
LINE
  5
BFA
330
1F
100
AcDbEntity
  8
BUMPER
100
AcDbLine
 10
30.32058319673102
 20
17.22502706315201
 30
0.0
 11
30.29294332947263
 21
17.19208715204799
 31
0.0
  0
LINE
  5
BFB
330
1F
100
AcDbEntity
  8
BUMPER
100
AcDbLine
 10
30.13814171288656
 20
17.17577551502578
 30
0.0
 11
30.0497034203942
 21
17.24742023372182
 31
0.0
  0
ARC
  5
BFC
330
1F
100
AcDbEntity
  8
BUMPER
100
AcDbCircle
 10
32.1451036088574
 20
19.74462093624542
 30
0.0
 40
3.259863999999999
100
AcDbArc
 50
231.9774646870486
 51
232.0412763333448
  0
ARC
  5
BFD
330
1F
100
AcDbEntity
  8
BUMPER
100
AcDbCircle
 10
30.20710270841625
 20
17.26402732008127
 30
0.0
 40
0.112
100
AcDbArc
 50
231.9955137628659
 51
320.0347466510394
  0
ARC
  5
BFE
330
1F
100
AcDbEntity
  8
BUMPER
100
AcDbCircle
 10
29.84289695491196
 20
17.5977335572037
 30
0.0
 40
0.112
100
AcDbArc
 50
139.9789955656523
 51
222.9739060527084
  0
ARC
  5
BFF
330
1F
100
AcDbEntity
  8
BUMPER
100
AcDbCircle
 10
32.15173416126543
 20
19.75204981656301
 30
0.0
 40
3.269816903560633
100
AcDbArc
 50
223.015647262556
 51
229.9946712711333
  0
ARC
  5
C00
330
1F
100
AcDbEntity
  8
BUMPER
100
AcDbCircle
 10
28.12845239344815
 20
14.95776242008355
 30
0.0
 40
3.259863999999999
100
AcDbArc
 50
47.95872366665498
 51
48.02253531295114
  0
LINE
  5
C01
330
1F
100
AcDbEntity
  8
BUMPER
100
AcDbLine
 10
30.30976600467287
 20
17.38030938133854
 30
0.0
 11
30.22385258191136
 21
17.45496312260716
 31
0.0
  0
ARC
  5
C02
330
1F
100
AcDbEntity
  8
BUMPER
100
AcDbCircle
 10
28.12228775785776
 20
14.94994258913613
 30
0.0
 40
3.269816903560633
100
AcDbArc
 50
50.00532872886636
 51
56.98435273744379
  0
ARC
  5
C03
330
1F
100
AcDbEntity
  8
BUMPER
100
AcDbCircle
 10
29.84294973910219
 20
17.59779646295204
 30
0.0
 40
0.112
100
AcDbArc
 50
57.02609394729139
 51
140.0210044343474
  0
ARC
  5
C04
330
1F
100
AcDbEntity
  8
BUMPER
100
AcDbCircle
 10
30.23482989404072
 20
17.29707129316176
 30
0.0
 40
0.112
100
AcDbArc
 50
319.9652533489603
 51
48.00448623713396
  0
LINE
  5
C05
330
1F
100
AcDbEntity
  8
BUMPER
100
AcDbLine
 10
29.94483474002026
 20
16.8439785625876
 30
0.0
 11
29.91189482891623
 21
16.8163386953292
 31
0.0
  0
LINE
  5
C06
330
1F
100
AcDbEntity
  8
BUMPER
100
AcDbLine
 10
29.75661251067979
 20
16.82715588734547
 30
0.0
 11
29.68195876941118
 21
16.91306931010698
 31
0.0
  0
ARC
  5
C07
330
1F
100
AcDbEntity
  8
BUMPER
100
AcDbCircle
 10
32.17915947193481
 20
19.00846949857018
 30
0.0
 40
3.259863999999999
100
AcDbArc
 50
221.9774646870486
 51
222.0412763333448
  0
ARC
  5
C08
330
1F
100
AcDbEntity
  8
BUMPER
100
AcDbCircle
 10
29.83985059885658
 20
16.90209199797763
 30
0.0
 40
0.112
100
AcDbArc
 50
221.9955137628658
 51
310.0347466510393
  0
ARC
  5
C09
330
1F
100
AcDbEntity
  8
BUMPER
100
AcDbCircle
 10
29.5391254290663
 20
17.29397215291615
 30
0.0
 40
0.112
100
AcDbArc
 50
129.9789955656522
 51
212.9739060527082
  0
ARC
  5
C0A
330
1F
100
AcDbEntity
  8
BUMPER
100
AcDbCircle
 10
32.18697930288222
 20
19.01463413416057
 30
0.0
 40
3.269816903560633
100
AcDbArc
 50
213.015647262556
 51
219.9946712711333
  0
ARC
  5
C0B
330
1F
100
AcDbEntity
  8
BUMPER
100
AcDbCircle
 10
27.39230095577291
 20
14.99181828316095
 30
0.0
 40
3.259863999999999
100
AcDbArc
 50
37.95872366665499
 51
38.02253531295107
  0
LINE
  5
C0C
330
1F
100
AcDbEntity
  8
BUMPER
100
AcDbLine
 10
29.96114637699255
 20
16.99878017913178
 30
0.0
 11
29.88950165829651
 21
17.08721847162414
 31
0.0
  0
ARC
  5
C0D
330
1F
100
AcDbEntity
  8
BUMPER
100
AcDbCircle
 10
27.38487207545532
 20
14.98518773075293
 30
0.0
 40
3.269816903560633
100
AcDbArc
 50
40.00532872886641
 51
46.98435273744374
  0
ARC
  5
C0E
330
1F
100
AcDbEntity
  8
BUMPER
100
AcDbCircle
 10
29.53918833481464
 20
17.29402493710638
 30
0.0
 40
0.112
100
AcDbArc
 50
47.02609394729136
 51
130.0210044343473
  0
ARC
  5
C0F
330
1F
100
AcDbEntity
  8
BUMPER
100
AcDbCircle
 10
29.87289457193707
 20
16.92981918360209
 30
0.0
 40
0.112
100
AcDbArc
 50
309.9652533489603
 51
38.00448623713384
  0
LINE
  5
C10
330
1F
100
AcDbEntity
  8
BUMPER
100
AcDbLine
 10
29.50862636894341
 20
16.53396707972708
 30
0.0
 11
29.47138727652425
 21
16.5124670796945
 31
0.0
  0
LINE
  5
C11
330
1F
100
AcDbEntity
  8
BUMPER
100
AcDbLine
 10
29.32034243130039
 20
16.5500844258436
 30
0.0
 11
29.26174155740736
 21
16.64765611679426
 31
0.0
  0
ARC
  5
C12
330
1F
100
AcDbEntity
  8
BUMPER
100
AcDbCircle
 10
32.08486659428972
 20
18.27758811679426
 30
0.0
 40
3.259863999999999
100
AcDbArc
 50
211.9774646870486
 51
212.0412763333448
  0
ARC
  5
C13
330
1F
100
AcDbEntity
  8
BUMPER
100
AcDbCircle
 10
29.41532846493553
 20
16.60942794625034
 30
0.0
 40
0.112
100
AcDbArc
 50
211.9955137628659
 51
300.0347466510394
  0
ARC
  5
C14
330
1F
100
AcDbEntity
  8
BUMPER
100
AcDbCircle
 10
29.18722126096906
 20
17.04757493879809
 30
0.0
 40
0.112
100
AcDbArc
 50
119.9789955656522
 51
202.9739060527083
  0
ARC
  5
C15
330
1F
100
AcDbEntity
  8
BUMPER
100
AcDbCircle
 10
32.09363810217025
 20
18.28230119832448
 30
0.0
 40
3.269816903560633
100
AcDbArc
 50
203.015647262556
 51
209.9946712711334
  0
ARC
  5
C16
330
1F
100
AcDbEntity
  8
BUMPER
100
AcDbCircle
 10
26.67324705112152
 20
15.15318811679427
 30
0.0
 40
3.259863999999999
100
AcDbArc
 50
27.95872366665496
 51
28.02253531295106
  0
LINE
  5
C17
330
1F
100
AcDbEntity
  8
BUMPER
100
AcDbLine
 10
29.55157121411084
 20
16.6835844258436
 30
0.0
 11
29.49637208800388
 21
16.78312011679426
 31
0.0
  0
ARC
  5
C18
330
1F
100
AcDbEntity
  8
BUMPER
100
AcDbCircle
 10
26.66477964884598
 20
15.14794830890536
 30
0.0
 40
3.269816903560633
100
AcDbArc
 50
30.00532872886645
 51
36.98435273744378
  0
ARC
  5
C19
330
1F
100
AcDbEntity
  8
BUMPER
100
AcDbCircle
 10
29.18729237691618
 20
17.0476159976093
 30
0.0
 40
0.112
100
AcDbArc
 50
37.02609394729144
 51
120.0210044343474
  0
ARC
  5
C1A
330
1F
100
AcDbEntity
  8
BUMPER
100
AcDbCircle
 10
29.45268520107104
 20
16.63099586791422
 30
0.0
 40
0.112
100
AcDbArc
 50
299.9652533489605
 51
28.0044862371339
  0
LINE
  5
C1B
330
1F
100
AcDbEntity
  8
BUMPER
100
AcDbLine
 10
29.02521205412354
 20
16.30441215660377
 30
0.0
 11
28.98480527136852
 21
16.28970529041849
 31
0.0
  0
LINE
  5
C1C
330
1F
100
AcDbEntity
  8
BUMPER
100
AcDbLine
 10
28.842587320347
 20
16.35297980667297
 30
0.0
 11
28.80181987172931
 21
16.45924509935691
 31
0.0
  0
ARC
  5
C1D
330
1F
100
AcDbEntity
  8
BUMPER
100
AcDbCircle
 10
31.86509001729495
 20
17.5741842518591
 30
0.0
 40
3.259863999999999
100
AcDbArc
 50
201.9774646870486
 51
202.0412763333447
  0
ARC
  5
C1E
330
1F
100
AcDbEntity
  8
BUMPER
100
AcDbCircle
 10
28.94643519687373
 20
16.39492761401602
 30
0.0
 40
0.112
100
AcDbArc
 50
201.9955137628659
 51
290.0347466510393
  0
ARC
  5
C1F
330
1F
100
AcDbEntity
  8
BUMPER
100
AcDbCircle
 10
28.79787688069577
 20
16.8660285695175
 30
0.0
 40
0.112
100
AcDbArc
 50
109.9789955656522
 51
192.9739060527083
  0
ARC
  5
C20
330
1F
100
AcDbEntity
  8
BUMPER
100
AcDbCircle
 10
31.87454668428022
 20
17.57730257473179
 30
0.0
 40
3.269816903560633
100
AcDbArc
 50
193.0156472625559
 51
199.9946712711333
  0
ARC
  5
C21
330
1F
100
AcDbEntity
  8
BUMPER
100
AcDbCircle
 10
25.99313876852797
 20
15.43696878024567
 30
0.0
 40
3.259863999999999
100
AcDbArc
 50
17.95872366665504
 51
18.0225353129511
  0
LINE
  5
C22
330
1F
100
AcDbEntity
  8
BUMPER
100
AcDbLine
 10
29.09348525009683
 20
16.44429918494092
 30
0.0
 11
29.0564089140936
 21
16.55190793274785
 31
0.0
  0
ARC
  5
C23
330
1F
100
AcDbEntity
  8
BUMPER
100
AcDbCircle
 10
25.9838901220279
 20
15.43327892578709
 30
0.0
 40
3.269816903560633
100
AcDbArc
 50
20.0053287288664
 51
26.98435273744375
  0
ARC
  5
C24
330
1F
100
AcDbEntity
  8
BUMPER
100
AcDbCircle
 10
28.7979540460196
 20
16.86605665539849
 30
0.0
 40
0.112
100
AcDbArc
 50
27.02609394729142
 51
110.0210044343474
  0
ARC
  5
C25
330
1F
100
AcDbEntity
  8
BUMPER
100
AcDbCircle
 10
28.9869696305402
 20
16.40968094133345
 30
0.0
 40
0.112
100
AcDbArc
 50
289.9652533489604
 51
18.00448623713387
  0
LINE
  5
C26
330
1F
100
AcDbEntity
  8
BUMPER
100
AcDbLine
 10
28.50928009489702
 20
16.1622887033964
 30
0.0
 11
28.46693336145333
 21
16.15482183174541
 31
0.0
  0
LINE
  5
C27
330
1F
100
AcDbEntity
  8
BUMPER
100
AcDbLine
 10
28.33786352511017
 20
16.24183095394733
 30
0.0
 11
28.31616820006475
 21
16.35356103121918
 31
0.0
  0
ARC
  5
C28
330
1F
100
AcDbEntity
  8
BUMPER
100
AcDbCircle
 10
31.52650754103015
 20
16.91963047426121
 30
0.0
 40
3.259863999999999
100
AcDbArc
 50
191.9774646870486
 51
192.0412763333448
  0
ARC
  5
C29
330
1F
100
AcDbEntity
  8
BUMPER
100
AcDbCircle
 10
28.44741787934979
 20
16.26510848532719
 30
0.0
 40
0.112
100
AcDbArc
 50
191.9955137628659
 51
280.0347466510393
  0
ARC
  5
C2A
330
1F
100
AcDbEntity
  8
BUMPER
100
AcDbCircle
 10
28.38292232022329
 20
16.75484923963807
 30
0.0
 40
0.112
100
AcDbArc
 50
99.97899556565231
 51
182.9739060527084
  0
ARC
  5
C2B
330
1F
100
AcDbEntity
  8
BUMPER
100
AcDbCircle
 10
31.53636203107911
 20
16.92105928981385
 30
0.0
 40
3.269816903560633
100
AcDbArc
 50
183.0156472625559
 51
189.9946712711333
  0
ARC
  5
C2C
330
1F
100
AcDbEntity
  8
BUMPER
100
AcDbCircle
 10
25.37264085400746
 20
15.83453774165611
 30
0.0
 40
3.259863999999999
100
AcDbArc
 50
7.958723666654996
 51
8.022535312951202
  0
LINE
  5
C2D
330
1F
100
AcDbEntity
  8
BUMPER
100
AcDbLine
 10
28.60080719516443
 20
16.2881950173844
 30
0.0
 11
28.58298019497286
 21
16.40060718469813
 31
0.0
  0
ARC
  5
C2E
330
1F
100
AcDbEntity
  8
BUMPER
100
AcDbCircle
 10
25.36289197872675
 20
15.83250995498843
 30
0.0
 40
3.269816903560633
100
AcDbArc
 50
10.00532872886648
 51
16.98435273744381
  0
ARC
  5
C2F
330
1F
100
AcDbEntity
  8
BUMPER
100
AcDbCircle
 10
28.38300319029452
 20
16.75486349921356
 30
0.0
 40
0.112
100
AcDbArc
 50
17.0260939472914
 51
100.0210044343475
  0
ARC
  5
C30
330
1F
100
AcDbEntity
  8
BUMPER
100
AcDbCircle
 10
28.48989839229169
 20
16.27259894591318
 30
0.0
 40
0.112
100
AcDbArc
 50
279.9652533489604
 51
8.004486237133905
  0
LINE
  5
C31
330
1F
100
AcDbEntity
  8
BUMPER
100
AcDbLine
 10
27.97650682277077
 20
16.11191506931273
 30
0.0
 11
27.93350682270562
 21
16.11191506931273
 31
0.0
  0
LINE
  5
C32
330
1F
100
AcDbEntity
  8
BUMPER
100
AcDbLine
 10
27.82150682270561
 20
16.22001506931273
 30
0.0
 11
27.81954282270561
 21
16.33381506931273
 31
0.0
  0
ARC
  5
C33
330
1F
100
AcDbEntity
  8
BUMPER
100
AcDbCircle
 10
31.07940682270561
 20
16.33381506931273
 30
0.0
 40
3.259863999999999
100
AcDbArc
 50
181.9774646870486
 51
182.0412763333448
  0
ARC
  5
C34
330
1F
100
AcDbEntity
  8
BUMPER
100
AcDbCircle
 10
27.93343890104174
 20
16.2239150487174
 30
0.0
 40
0.112
100
AcDbArc
 50
181.9955137628658
 51
270.0347466510393
  0
ARC
  5
C35
330
1F
100
AcDbEntity
  8
BUMPER
100
AcDbCircle
 10
27.95496576389441
 20
16.71741507683874
 30
0.0
 40
0.112
100
AcDbArc
 50
89.97899556565231
 51
172.9739060527083
  0
ARC
  5
C36
330
1F
100
AcDbEntity
  8
BUMPER
100
AcDbCircle
 10
31.08935971212476
 20
16.33351096370774
 30
0.0
 40
3.269816903560633
100
AcDbArc
 50
173.015647262556
 51
179.9946712711334
  0
ARC
  5
C37
330
1F
100
AcDbEntity
  8
BUMPER
100
AcDbCircle
 10
24.83060682270562
 20
16.33381506931273
 30
0.0
 40
3.259863999999999
100
AcDbArc
 50
357.958723666655
 51
358.0225353129512
  0
LINE
  5
C38
330
1F
100
AcDbEntity
  8
BUMPER
100
AcDbLine
 10
28.08850682270562
 20
16.22001506931273
 30
0.0
 11
28.09047082270562
 21
16.33381506931273
 31
0.0
  0
ARC
  5
C39
330
1F
100
AcDbEntity
  8
BUMPER
100
AcDbCircle
 10
24.82065393328648
 20
16.33351096370775
 30
0.0
 40
3.269816903560633
100
AcDbArc
 50
0.0053287288665433
 51
6.984352737443778
  0
ARC
  5
C3A
330
1F
100
AcDbEntity
  8
BUMPER
100
AcDbCircle
 10
27.95504788151683
 20
16.71741507683874
 30
0.0
 40
0.112
100
AcDbArc
 50
7.026093947291467
 51
90.02100443434747
  0
ARC
  5
C3B
330
1F
100
AcDbEntity
  8
BUMPER
100
AcDbCircle
 10
27.97657474436949
 20
16.2239150487174
 30
0.0
 40
0.112
100
AcDbArc
 50
269.9652533489604
 51
358.0044862371338
  0
LINE
  5
C3C
330
1F
100
AcDbEntity
  8
BUMPER
100
AcDbLine
 10
27.44308028402207
 20
16.1548218317341
 30
0.0
 11
27.40073355057838
 21
16.16228870338509
 31
0.0
  0
LINE
  5
C3D
330
1F
100
AcDbEntity
  8
BUMPER
100
AcDbLine
 10
27.30920645024681
 20
16.28819501738441
 30
0.0
 11
27.32703345043839
 21
16.40060718469813
 31
0.0
  0
ARC
  5
C3E
330
1F
100
AcDbEntity
  8
BUMPER
100
AcDbCircle
 10
30.53737279140377
 20
15.8345377416561
 30
0.0
 40
3.259863999999999
100
AcDbArc
 50
171.9774646870486
 51
172.0412763333448
  0
ARC
  5
C3F
330
1F
100
AcDbEntity
  8
BUMPER
100
AcDbCircle
 10
27.42011525311955
 20
16.27259894591318
 30
0.0
 40
0.112
100
AcDbArc
 50
171.9955137628659
 51
260.0347466510394
  0
ARC
  5
C40
330
1F
100
AcDbEntity
  8
BUMPER
100
AcDbCircle
 10
27.52701045511673
 20
16.75486349921356
 30
0.0
 40
0.112
100
AcDbArc
 50
79.97899556565234
 51
162.9739060527082
  0
ARC
  5
C41
330
1F
100
AcDbEntity
  8
BUMPER
100
AcDbCircle
 10
30.54712166668449
 20
15.83250995498843
 30
0.0
 40
3.269816903560633
100
AcDbArc
 50
163.0156472625561
 51
169.9946712711334
  0
ARC
  5
C42
330
1F
100
AcDbEntity
  8
BUMPER
100
AcDbCircle
 10
24.38350610438109
 20
16.91963047426122
 30
0.0
 40
3.259863999999999
100
AcDbArc
 50
347.958723666655
 51
348.0225353129512
  0
LINE
  5
C43
330
1F
100
AcDbEntity
  8
BUMPER
100
AcDbLine
 10
27.57215012030107
 20
16.24183095394733
 30
0.0
 11
27.59384544534648
 21
16.35356103121918
 31
0.0
  0
ARC
  5
C44
330
1F
100
AcDbEntity
  8
BUMPER
100
AcDbCircle
 10
24.37365161433213
 20
16.92105928981385
 30
0.0
 40
3.269816903560633
100
AcDbArc
 50
350.0053287288665
 51
356.9843527374439
  0
ARC
  5
C45
330
1F
100
AcDbEntity
  8
BUMPER
100
AcDbCircle
 10
27.52709132518795
 20
16.75484923963807
 30
0.0
 40
0.112
100
AcDbArc
 50
357.0260939472914
 51
80.02100443434756
  0
ARC
  5
C46
330
1F
100
AcDbEntity
  8
BUMPER
100
AcDbCircle
 10
27.46259576606144
 20
16.26510848532718
 30
0.0
 40
0.112
100
AcDbArc
 50
259.9652533489605
 51
348.0044862371339
  0
LINE
  5
C47
330
1F
100
AcDbEntity
  8
BUMPER
100
AcDbLine
 10
26.92520837410394
 20
16.2897052903962
 30
0.0
 11
26.88480159134892
 21
16.30441215658149
 31
0.0
  0
LINE
  5
C48
330
1F
100
AcDbEntity
  8
BUMPER
100
AcDbLine
 10
26.8165283953144
 20
16.44429918494092
 30
0.0
 11
26.85360473131764
 21
16.55190793274785
 31
0.0
  0
ARC
  5
C49
330
1F
100
AcDbEntity
  8
BUMPER
100
AcDbCircle
 10
29.91687487688326
 20
15.43696878024566
 30
0.0
 40
3.259863999999999
100
AcDbArc
 50
161.9774646870487
 51
162.0412763333448
  0
ARC
  5
C4A
330
1F
100
AcDbEntity
  8
BUMPER
100
AcDbCircle
 10
26.92304401487103
 20
16.40968094133345
 30
0.0
 40
0.112
100
AcDbArc
 50
161.9955137628659
 51
250.0347466510394
  0
ARC
  5
C4B
330
1F
100
AcDbEntity
  8
BUMPER
100
AcDbCircle
 10
27.11205959939163
 20
16.86605665539849
 30
0.0
 40
0.112
100
AcDbArc
 50
69.97899556565243
 51
152.9739060527084
  0
ARC
  5
C4C
330
1F
100
AcDbEntity
  8
BUMPER
100
AcDbCircle
 10
29.92612352338332
 20
15.43327892578708
 30
0.0
 40
3.269816903560633
100
AcDbArc
 50
153.0156472625561
 51
159.9946712711334
  0
ARC
  5
C4D
330
1F
100
AcDbEntity
  8
BUMPER
100
AcDbCircle
 10
24.04492362811629
 20
17.57418425185911
 30
0.0
 40
3.259863999999999
100
AcDbArc
 50
337.958723666655
 51
338.0225353129512
  0
LINE
  5
C4E
330
1F
100
AcDbEntity
  8
BUMPER
100
AcDbLine
 10
27.06742632506424
 20
16.35297980667297
 30
0.0
 11
27.10819377368193
 21
16.45924509935692
 31
0.0
  0
ARC
  5
C4F
330
1F
100
AcDbEntity
  8
BUMPER
100
AcDbCircle
 10
24.03546696113102
 20
17.57730257473181
 30
0.0
 40
3.269816903560633
100
AcDbArc
 50
340.0053287288666
 51
346.9843527374438
  0
ARC
  5
C50
330
1F
100
AcDbEntity
  8
BUMPER
100
AcDbCircle
 10
27.11213676471546
 20
16.8660285695175
 30
0.0
 40
0.112
100
AcDbArc
 50
347.0260939472915
 51
70.02100443434757
  0
ARC
  5
C51
330
1F
100
AcDbEntity
  8
BUMPER
100
AcDbCircle
 10
26.9635784485375
 20
16.39492761401602
 30
0.0
 40
0.112
100
AcDbArc
 50
249.9652533489606
 51
338.0044862371339
  0
LINE
  5
C52
330
1F
100
AcDbEntity
  8
BUMPER
100
AcDbLine
 10
26.43862636894341
 20
16.51246707966192
 30
0.0
 11
26.40138727652426
 21
16.5339670796945
 31
0.0
  0
LINE
  5
C53
330
1F
100
AcDbEntity
  8
BUMPER
100
AcDbLine
 10
26.3584424313004
 20
16.6835844258436
 30
0.0
 11
26.41364155740737
 21
16.78312011679427
 31
0.0
  0
ARC
  5
C54
330
1F
100
AcDbEntity
  8
BUMPER
100
AcDbCircle
 10
29.23676659428971
 20
15.15318811679427
 30
0.0
 40
3.259863999999999
100
AcDbArc
 50
151.9774646870487
 51
152.0412763333448
  0
ARC
  5
C55
330
1F
100
AcDbEntity
  8
BUMPER
100
AcDbCircle
 10
26.4573284443402
 20
16.63099586791423
 30
0.0
 40
0.112
100
AcDbArc
 50
151.9955137628658
 51
240.0347466510394
  0
ARC
  5
C56
330
1F
100
AcDbEntity
  8
BUMPER
100
AcDbCircle
 10
26.72272126849506
 20
17.0476159976093
 30
0.0
 40
0.112
100
AcDbArc
 50
59.97899556565233
 51
142.9739060527084
  0
ARC
  5
C57
330
1F
100
AcDbEntity
  8
BUMPER
100
AcDbCircle
 10
29.24523399656525
 20
15.14794830890536
 30
0.0
 40
3.269816903560633
100
AcDbArc
 50
143.015647262556
 51
149.9946712711334
  0
ARC
  5
C58
330
1F
100
AcDbEntity
  8
BUMPER
100
AcDbCircle
 10
23.82514705112152
 20
18.27758811679428
 30
0.0
 40
3.259863999999999
100
AcDbArc
 50
327.9587236666551
 51
328.0225353129512
  0
LINE
  5
C59
330
1F
100
AcDbEntity
  8
BUMPER
100
AcDbLine
 10
26.58967121411084
 20
16.5500844258436
 30
0.0
 11
26.64827208800387
 21
16.64765611679427
 31
0.0
  0
ARC
  5
C5A
330
1F
100
AcDbEntity
  8
BUMPER
100
AcDbCircle
 10
23.81637554324099
 20
18.2823011983245
 30
0.0
 40
3.269816903560633
100
AcDbArc
 50
330.0053287288665
 51
336.9843527374438
  0
ARC
  5
C5B
330
1F
100
AcDbEntity
  8
BUMPER
100
AcDbCircle
 10
26.72279238444219
 20
17.04757493879809
 30
0.0
 40
0.112
100
AcDbArc
 50
337.0260939472915
 51
60.02100443434753
  0
ARC
  5
C5C
330
1F
100
AcDbEntity
  8
BUMPER
100
AcDbCircle
 10
26.49468518047572
 20
16.60942794625035
 30
0.0
 40
0.112
100
AcDbArc
 50
239.9652533489605
 51
328.0044862371341
  0
LINE
  5
C5D
330
1F
100
AcDbEntity
  8
BUMPER
100
AcDbLine
 10
25.99811881654491
 20
16.81633869528733
 30
0.0
 11
25.96517890544089
 21
16.84397856254573
 31
0.0
  0
LINE
  5
C5E
330
1F
100
AcDbEntity
  8
BUMPER
100
AcDbLine
 10
25.94886726841868
 20
16.99878017913178
 30
0.0
 11
26.02051198711472
 21
17.08721847162415
 31
0.0
  0
ARC
  5
C5F
330
1F
100
AcDbEntity
  8
BUMPER
100
AcDbCircle
 10
28.51771268963831
 20
14.99181828316095
 30
0.0
 40
3.259863999999999
100
AcDbArc
 50
141.9774646870488
 51
142.0412763333448
  0
ARC
  5
C60
330
1F
100
AcDbEntity
  8
BUMPER
100
AcDbCircle
 10
26.03711907347417
 20
16.92981918360209
 30
0.0
 40
0.112
100
AcDbArc
 50
141.9955137628659
 51
230.0347466510394
  0
ARC
  5
C61
330
1F
100
AcDbEntity
  8
BUMPER
100
AcDbCircle
 10
26.37082531059659
 20
17.29402493710638
 30
0.0
 40
0.112
100
AcDbArc
 50
49.97899556565235
 51
132.9739060527083
  0
ARC
  5
C62
330
1F
100
AcDbEntity
  8
BUMPER
100
AcDbCircle
 10
28.5251415699559
 20
14.98518773075293
 30
0.0
 40
3.269816903560633
100
AcDbArc
 50
133.0156472625559
 51
139.9946712711333
  0
ARC
  5
C63
330
1F
100
AcDbEntity
  8
BUMPER
100
AcDbCircle
 10
23.73085417347644
 20
19.0084694985702
 30
0.0
 40
3.259863999999999
100
AcDbArc
 50
317.958723666655
 51
318.0225353129511
  0
LINE
  5
C64
330
1F
100
AcDbEntity
  8
BUMPER
100
AcDbLine
 10
26.15340113473144
 20
16.82715588734548
 30
0.0
 11
26.22805487600006
 21
16.91306931010699
 31
0.0
  0
ARC
  5
C65
330
1F
100
AcDbEntity
  8
BUMPER
100
AcDbCircle
 10
23.72303434252902
 20
19.01463413416058
 30
0.0
 40
3.269816903560633
100
AcDbArc
 50
320.0053287288664
 51
326.9843527374438
  0
ARC
  5
C66
330
1F
100
AcDbEntity
  8
BUMPER
100
AcDbCircle
 10
26.37088821634493
 20
17.29397215291615
 30
0.0
 40
0.112
100
AcDbArc
 50
327.0260939472915
 51
50.02100443434756
  0
ARC
  5
C67
330
1F
100
AcDbEntity
  8
BUMPER
100
AcDbCircle
 10
26.07016304655465
 20
16.90209199797763
 30
0.0
 40
0.112
100
AcDbArc
 50
229.9652533489605
 51
318.004486237134
  0
LINE
  5
C68
330
1F
100
AcDbEntity
  8
BUMPER
100
AcDbLine
 10
25.61707031598051
 20
17.19208715199808
 30
0.0
 11
25.5894304487221
 21
17.22502706310211
 31
0.0
  0
LINE
  5
C69
330
1F
100
AcDbEntity
  8
BUMPER
100
AcDbLine
 10
25.60024764073837
 20
17.38030938133855
 30
0.0
 11
25.68616106349988
 21
17.45496312260717
 31
0.0
  0
ARC
  5
C6A
330
1F
100
AcDbEntity
  8
BUMPER
100
AcDbCircle
 10
27.78156125196308
 20
14.95776242008356
 30
0.0
 40
3.259863999999999
100
AcDbArc
 50
131.9774646870487
 51
132.0412763333448
  0
ARC
  5
C6B
330
1F
100
AcDbEntity
  8
BUMPER
100
AcDbCircle
 10
25.67518375137052
 20
17.29707129316176
 30
0.0
 40
0.112
100
AcDbArc
 50
131.9955137628659
 51
220.0347466510394
  0
ARC
  5
C6C
330
1F
100
AcDbEntity
  8
BUMPER
100
AcDbCircle
 10
26.06706390630904
 20
17.59779646295205
 30
0.0
 40
0.112
100
AcDbArc
 50
39.97899556565246
 51
122.9739060527083
  0
ARC
  5
C6D
330
1F
100
AcDbEntity
  8
BUMPER
100
AcDbCircle
 10
27.78772588755347
 20
14.94994258913613
 30
0.0
 40
3.269816903560633
100
AcDbArc
 50
123.015647262556
 51
129.9946712711335
  0
ARC
  5
C6E
330
1F
100
AcDbEntity
  8
BUMPER
100
AcDbCircle
 10
23.76491003655385
 20
19.74462093624543
 30
0.0
 40
3.259863999999999
100
AcDbArc
 50
307.958723666655
 51
308.0225353129512
  0
LINE
  5
C6F
330
1F
100
AcDbEntity
  8
BUMPER
100
AcDbLine
 10
25.77187193252467
 20
17.17577551502579
 30
0.0
 11
25.86031022501704
 21
17.24742023372183
 31
0.0
  0
ARC
  5
C70
330
1F
100
AcDbEntity
  8
BUMPER
100
AcDbCircle
 10
23.75827948414583
 20
19.75204981656302
 30
0.0
 40
3.269816903560633
100
AcDbArc
 50
310.0053287288665
 51
316.9843527374438
  0
ARC
  5
C71
330
1F
100
AcDbEntity
  8
BUMPER
100
AcDbCircle
 10
26.06711669049929
 20
17.59773355720371
 30
0.0
 40
0.112
100
AcDbArc
 50
317.0260939472915
 51
40.02100443434764
  0
ARC
  5
C72
330
1F
100
AcDbEntity
  8
BUMPER
100
AcDbCircle
 10
25.70291093699499
 20
17.26402732008128
 30
0.0
 40
0.112
100
AcDbArc
 50
219.9652533489605
 51
308.0044862371338
  0
LINE
  5
C73
330
1F
100
AcDbEntity
  8
BUMPER
100
AcDbLine
 10
25.30705883311997
 20
17.62829552307494
 30
0.0
 11
25.2855588330874
 21
17.66553461549409
 31
0.0
  0
LINE
  5
C74
330
1F
100
AcDbEntity
  8
BUMPER
100
AcDbLine
 10
25.32317617923649
 20
17.81657946071795
 30
0.0
 11
25.42074787018716
 21
17.87518033461099
 31
0.0
  0
ARC
  5
C75
330
1F
100
AcDbEntity
  8
BUMPER
100
AcDbCircle
 10
27.05067987018716
 20
15.05205529772863
 30
0.0
 40
3.259863999999999
100
AcDbArc
 50
121.9774646870487
 51
122.0412763333449
  0
ARC
  5
C76
330
1F
100
AcDbEntity
  8
BUMPER
100
AcDbCircle
 10
25.38251969964324
 20
17.72159342708282
 30
0.0
 40
0.112
100
AcDbArc
 50
121.995513762866
 51
210.0347466510394
  0
ARC
  5
C77
330
1F
100
AcDbEntity
  8
BUMPER
100
AcDbCircle
 10
25.82066669219098
 20
17.94970063104929
 30
0.0
 40
0.112
100
AcDbArc
 50
29.97899556565247
 51
112.9739060527084
  0
ARC
  5
C78
330
1F
100
AcDbEntity
  8
BUMPER
100
AcDbCircle
 10
27.05539295171738
 20
15.0432837898481
 30
0.0
 40
3.269816903560633
100
AcDbArc
 50
113.0156472625561
 51
119.9946712711335
  0
ARC
  5
C79
330
1F
100
AcDbEntity
  8
BUMPER
100
AcDbCircle
 10
23.92627987018716
 20
20.46367484089683
 30
0.0
 40
3.259863999999999
100
AcDbArc
 50
297.9587236666552
 51
298.0225353129512
  0
LINE
  5
C7A
330
1F
100
AcDbEntity
  8
BUMPER
100
AcDbLine
 10
25.45667617923649
 20
17.58535067790751
 30
0.0
 11
25.55621187018716
 21
17.64054980401447
 31
0.0
  0
ARC
  5
C7B
330
1F
100
AcDbEntity
  8
BUMPER
100
AcDbCircle
 10
23.92104006229825
 20
20.47214224317237
 30
0.0
 40
3.269816903560633
100
AcDbArc
 50
300.0053287288666
 51
306.9843527374439
  0
ARC
  5
C7C
330
1F
100
AcDbEntity
  8
BUMPER
100
AcDbCircle
 10
25.82070775100219
 20
17.94962951510218
 30
0.0
 40
0.112
100
AcDbArc
 50
307.0260939472914
 51
30.02100443434768
  0
ARC
  5
C7D
330
1F
100
AcDbEntity
  8
BUMPER
100
AcDbCircle
 10
25.40408762130712
 20
17.68423669094731
 30
0.0
 40
0.112
100
AcDbArc
 50
209.9652533489605
 51
298.004486237134
  0
LINE
  5
C7E
330
1F
100
AcDbEntity
  8
BUMPER
100
AcDbLine
 10
25.07750390999667
 20
18.1117098378948
 30
0.0
 11
25.06279704381138
 21
18.15211662064982
 31
0.0
  0
LINE
  5
C7F
330
1F
100
AcDbEntity
  8
BUMPER
100
AcDbLine
 10
25.12607156006586
 20
18.29433457167135
 30
0.0
 11
25.23233685274981
 21
18.33510202028903
 31
0.0
  0
ARC
  5
C80
330
1F
100
AcDbEntity
  8
BUMPER
100
AcDbCircle
 10
26.347276005252
 20
15.2718318747234
 30
0.0
 40
3.259863999999999
100
AcDbArc
 50
111.9774646870488
 51
112.0412763333448
  0
ARC
  5
C81
330
1F
100
AcDbEntity
  8
BUMPER
100
AcDbCircle
 10
25.16801936740892
 20
18.19048669514462
 30
0.0
 40
0.112
100
AcDbArc
 50
111.9955137628659
 51
200.0347466510394
  0
ARC
  5
C82
330
1F
100
AcDbEntity
  8
BUMPER
100
AcDbCircle
 10
25.63912032291039
 20
18.33904501132257
 30
0.0
 40
0.112
100
AcDbArc
 50
19.97899556565243
 51
102.9739060527084
  0
ARC
  5
C83
330
1F
100
AcDbEntity
  8
BUMPER
100
AcDbCircle
 10
26.35039432812469
 20
15.26237520773813
 30
0.0
 40
3.269816903560633
100
AcDbArc
 50
103.015647262556
 51
109.9946712711334
  0
ARC
  5
C84
330
1F
100
AcDbEntity
  8
BUMPER
100
AcDbCircle
 10
24.21006053363856
 20
21.14378312349038
 30
0.0
 40
3.259863999999999
100
AcDbArc
 50
287.9587236666552
 51
288.0225353129512
  0
LINE
  5
C85
330
1F
100
AcDbEntity
  8
BUMPER
100
AcDbLine
 10
25.21739093833382
 20
18.04343664192151
 30
0.0
 11
25.32499968614074
 21
18.08051297792475
 31
0.0
  0
ARC
  5
C86
330
1F
100
AcDbEntity
  8
BUMPER
100
AcDbCircle
 10
24.20637067917998
 20
21.15303176999044
 30
0.0
 40
3.269816903560633
100
AcDbArc
 50
290.0053287288665
 51
296.9843527374438
  0
ARC
  5
C87
330
1F
100
AcDbEntity
  8
BUMPER
100
AcDbCircle
 10
25.63914840879138
 20
18.33896784599875
 30
0.0
 40
0.112
100
AcDbArc
 50
297.0260939472916
 51
20.02100443434756
  0
ARC
  5
C88
330
1F
100
AcDbEntity
  8
BUMPER
100
AcDbCircle
 10
25.18277269472636
 20
18.14995226147815
 30
0.0
 40
0.112
100
AcDbArc
 50
199.9652533489606
 51
288.004486237134
  0
LINE
  5
C89
330
1F
100
AcDbEntity
  8
BUMPER
100
AcDbLine
 10
24.9353804567893
 20
18.62764179712133
 30
0.0
 11
24.92791358513831
 21
18.66998853056501
 31
0.0
  0
LINE
  5
C8A
330
1F
100
AcDbEntity
  8
BUMPER
100
AcDbLine
 10
25.01492270734023
 20
18.79905836690818
 30
0.0
 11
25.12665278461208
 21
18.82075369195359
 31
0.0
  0
ARC
  5
C8B
330
1F
100
AcDbEntity
  8
BUMPER
100
AcDbCircle
 10
25.69272222765411
 20
15.6104143509882
 30
0.0
 40
3.259863999999999
100
AcDbArc
 50
101.9774646870488
 51
102.0412763333448
  0
ARC
  5
C8C
330
1F
100
AcDbEntity
  8
BUMPER
100
AcDbCircle
 10
25.03820023872008
 20
18.68950401266856
 30
0.0
 40
0.112
100
AcDbArc
 50
101.9955137628659
 51
190.0347466510394
  0
ARC
  5
C8D
330
1F
100
AcDbEntity
  8
BUMPER
100
AcDbCircle
 10
25.52794099303096
 20
18.75399957179507
 30
0.0
 40
0.112
100
AcDbArc
 50
9.978995565652436
 51
92.97390605270839
  0
ARC
  5
C8E
330
1F
100
AcDbEntity
  8
BUMPER
100
AcDbCircle
 10
25.69415104320674
 20
15.60055986093924
 30
0.0
 40
3.269816903560633
100
AcDbArc
 50
93.01564726255604
 51
99.99467127113351
  0
ARC
  5
C8F
330
1F
100
AcDbEntity
  8
BUMPER
100
AcDbCircle
 10
24.60762949504899
 20
21.76428103801089
 30
0.0
 40
3.259863999999999
100
AcDbArc
 50
277.9587236666551
 51
278.0225353129512
  0
LINE
  5
C90
330
1F
100
AcDbEntity
  8
BUMPER
100
AcDbLine
 10
25.0612867707773
 20
18.53611469685392
 30
0.0
 11
25.17369893809102
 21
18.5539416970455
 31
0.0
  0
ARC
  5
C91
330
1F
100
AcDbEntity
  8
BUMPER
100
AcDbCircle
 10
24.60560170838132
 20
21.77402991329161
 30
0.0
 40
3.269816903560633
100
AcDbArc
 50
280.0053287288664
 51
286.9843527374439
  0
ARC
  5
C92
330
1F
100
AcDbEntity
  8
BUMPER
100
AcDbCircle
 10
25.52795525260645
 20
18.75391870172385
 30
0.0
 40
0.112
100
AcDbArc
 50
287.0260939472915
 51
10.02100443434753
  0
ARC
  5
C93
330
1F
100
AcDbEntity
  8
BUMPER
100
AcDbCircle
 10
25.04569069930607
 20
18.64702349972666
 30
0.0
 40
0.112
100
AcDbArc
 50
189.9652533489605
 51
278.004486237134
  0
LINE
  5
C94
330
1F
100
AcDbEntity
  8
BUMPER
100
AcDbLine
 10
24.88500682270562
 20
19.16041506924758
 30
0.0
 11
24.88500682270562
 21
19.20341506931273
 31
0.0
  0
LINE
  5
C95
330
1F
100
AcDbEntity
  8
BUMPER
100
AcDbLine
 10
24.99310682270562
 20
19.31541506931273
 30
0.0
 11
25.10690682270562
 21
19.31737906931273
 31
0.0
  0
ARC
  5
C96
330
1F
100
AcDbEntity
  8
BUMPER
100
AcDbCircle
 10
25.10690682270562
 20
16.05751506931273
 30
0.0
 40
3.259863999999999
100
AcDbArc
 50
91.97746468704876
 51
92.04127633334488
  0
ARC
  5
C97
330
1F
100
AcDbEntity
  8
BUMPER
100
AcDbCircle
 10
24.99700680211029
 20
19.20348299097661
 30
0.0
 40
0.112
100
AcDbArc
 50
91.99551376286594
 51
180.0347466510394
  0
ARC
  5
C98
330
1F
100
AcDbEntity
  8
BUMPER
100
AcDbCircle
 10
25.49050683023163
 20
19.18195612812394
 30
0.0
 40
0.112
100
AcDbArc
 50
359.9789955656524
 51
82.97390605270843
  0
ARC
  5
C99
330
1F
100
AcDbEntity
  8
BUMPER
100
AcDbCircle
 10
25.10660271710064
 20
16.04756217989359
 30
0.0
 40
3.269816903560633
100
AcDbArc
 50
83.01564726255612
 51
89.99467127113346
  0
ARC
  5
C9A
330
1F
100
AcDbEntity
  8
BUMPER
100
AcDbCircle
 10
25.10690682270562
 20
22.30631506931273
 30
0.0
 40
3.259863999999999
100
AcDbArc
 50
267.9587236666551
 51
268.0225353129512
  0
LINE
  5
C9B
330
1F
100
AcDbEntity
  8
BUMPER
100
AcDbLine
 10
24.99310682270562
 20
19.04841506931273
 30
0.0
 11
25.10690682270562
 21
19.04645106931273
 31
0.0
  0
ARC
  5
C9C
330
1F
100
AcDbEntity
  8
BUMPER
100
AcDbCircle
 10
25.10660271710064
 20
22.31626795873187
 30
0.0
 40
3.269816903560633
100
AcDbArc
 50
270.0053287288665
 51
276.9843527374439
  0
ARC
  5
C9D
330
1F
100
AcDbEntity
  8
BUMPER
100
AcDbCircle
 10
25.49050683023163
 20
19.18187401050152
 30
0.0
 40
0.112
100
AcDbArc
 50
277.0260939472915
 51
0.0210044343475967
  0
ARC
  5
C9E
330
1F
100
AcDbEntity
  8
BUMPER
100
AcDbCircle
 10
24.99700680211029
 20
19.16034714764885
 30
0.0
 40
0.112
100
AcDbArc
 50
179.9652533489605
 51
268.004486237134
  0
LINE
  5
C9F
330
1F
100
AcDbEntity
  8
BUMPER
100
AcDbLine
 10
24.92791358512699
 20
19.69384160799627
 30
0.0
 11
24.93538045677798
 21
19.73618834143997
 31
0.0
  0
LINE
  5
CA0
330
1F
100
AcDbEntity
  8
BUMPER
100
AcDbLine
 10
25.0612867707773
 20
19.82771544177154
 30
0.0
 11
25.17369893809102
 21
19.80988844157996
 31
0.0
  0
ARC
  5
CA1
330
1F
100
AcDbEntity
  8
BUMPER
100
AcDbCircle
 10
24.607629495049
 20
16.59954910061457
 30
0.0
 40
3.259863999999999
100
AcDbArc
 50
81.97746468704883
 51
82.04127633334492
  0
ARC
  5
CA2
330
1F
100
AcDbEntity
  8
BUMPER
100
AcDbCircle
 10
25.04569069930607
 20
19.7168066388988
 30
0.0
 40
0.112
100
AcDbArc
 50
81.99551376286597
 51
170.0347466510395
  0
ARC
  5
CA3
330
1F
100
AcDbEntity
  8
BUMPER
100
AcDbCircle
 10
25.52795525260645
 20
19.60991143690161
 30
0.0
 40
0.112
100
AcDbArc
 50
349.9789955656524
 51
72.97390605270847
  0
ARC
  5
CA4
330
1F
100
AcDbEntity
  8
BUMPER
100
AcDbCircle
 10
24.60560170838132
 20
16.58980022533385
 30
0.0
 40
3.269816903560633
100
AcDbArc
 50
73.0156472625561
 51
79.99467127113351
  0
ARC
  5
CA5
330
1F
100
AcDbEntity
  8
BUMPER
100
AcDbCircle
 10
25.69272222765411
 20
22.75341578763725
 30
0.0
 40
3.259863999999999
100
AcDbArc
 50
257.9587236666551
 51
258.0225353129512
  0
LINE
  5
CA6
330
1F
100
AcDbEntity
  8
BUMPER
100
AcDbLine
 10
25.01492270734023
 20
19.56477177171728
 30
0.0
 11
25.12665278461208
 21
19.54307644667187
 31
0.0
  0
ARC
  5
CA7
330
1F
100
AcDbEntity
  8
BUMPER
100
AcDbCircle
 10
25.69415104320674
 20
22.76327027768622
 30
0.0
 40
3.269816903560633
100
AcDbArc
 50
260.0053287288665
 51
266.9843527374439
  0
ARC
  5
CA8
330
1F
100
AcDbEntity
  8
BUMPER
100
AcDbCircle
 10
25.52794099303096
 20
19.60983056683039
 30
0.0
 40
0.112
100
AcDbArc
 50
267.0260939472915
 51
350.0210044343476
  0
ARC
  5
CA9
330
1F
100
AcDbEntity
  8
BUMPER
100
AcDbCircle
 10
25.03820023872008
 20
19.6743261259569
 30
0.0
 40
0.112
100
AcDbArc
 50
169.9652533489606
 51
258.004486237134
  0
LINE
  5
CAA
330
1F
100
AcDbEntity
  8
BUMPER
100
AcDbLine
 10
25.0627970437891
 20
20.21171351791441
 30
0.0
 11
25.07750390997439
 21
20.25212030066943
 31
0.0
  0
LINE
  5
CAB
330
1F
100
AcDbEntity
  8
BUMPER
100
AcDbLine
 10
25.21739093833382
 20
20.32039349670395
 30
0.0
 11
25.32499968614074
 21
20.28331716070071
 31
0.0
  0
ARC
  5
CAC
330
1F
100
AcDbEntity
  8
BUMPER
100
AcDbCircle
 10
24.21006053363856
 20
17.22004701513507
 30
0.0
 40
3.259863999999999
100
AcDbArc
 50
71.97746468704877
 51
72.04127633334484
  0
ARC
  5
CAD
330
1F
100
AcDbEntity
  8
BUMPER
100
AcDbCircle
 10
25.18277269472636
 20
20.21387787714731
 30
0.0
 40
0.112
100
AcDbArc
 50
71.99551376286598
 51
160.0347466510394
  0
ARC
  5
CAE
330
1F
100
AcDbEntity
  8
BUMPER
100
AcDbCircle
 10
25.63914840879138
 20
20.02486229262671
 30
0.0
 40
0.112
100
AcDbArc
 50
339.9789955656523
 51
62.97390605270845
  0
ARC
  5
CAF
330
1F
100
AcDbEntity
  8
BUMPER
100
AcDbCircle
 10
24.20637067917998
 20
17.21079836863501
 30
0.0
 40
3.269816903560633
100
AcDbArc
 50
63.01564726255615
 51
69.9946712711334
  0
ARC
  5
CB0
330
1F
100
AcDbEntity
  8
BUMPER
100
AcDbCircle
 10
26.347276005252
 20
23.09199826390206
 30
0.0
 40
3.259863999999999
100
AcDbArc
 50
247.9587236666552
 51
248.0225353129513
  0
LINE
  5
CB1
330
1F
100
AcDbEntity
  8
BUMPER
100
AcDbLine
 10
25.12607156006586
 20
20.06949556695411
 30
0.0
 11
25.23233685274981
 21
20.02872811833642
 31
0.0
  0
ARC
  5
CB2
330
1F
100
AcDbEntity
  8
BUMPER
100
AcDbCircle
 10
26.35039432812469
 20
23.10145493088732
 30
0.0
 40
3.269816903560633
100
AcDbArc
 50
250.0053287288666
 51
256.9843527374439
  0
ARC
  5
CB3
330
1F
100
AcDbEntity
  8
BUMPER
100
AcDbCircle
 10
25.63912032291039
 20
20.02478512730288
 30
0.0
 40
0.112
100
AcDbArc
 50
257.0260939472916
 51
340.0210044343475
  0
ARC
  5
CB4
330
1F
100
AcDbEntity
  8
BUMPER
100
AcDbCircle
 10
25.16801936740892
 20
20.17334344348084
 30
0.0
 40
0.112
100
AcDbArc
 50
159.9652533489605
 51
248.004486237134
  0
LINE
  5
CB5
330
1F
100
AcDbEntity
  8
BUMPER
100
AcDbLine
 10
25.28555883305481
 20
20.69829552307494
 30
0.0
 11
25.30705883308739
 21
20.7355346154941
 31
0.0
  0
LINE
  5
CB6
330
1F
100
AcDbEntity
  8
BUMPER
100
AcDbLine
 10
25.45667617923649
 20
20.77847946071795
 30
0.0
 11
25.55621187018716
 21
20.72328033461099
 31
0.0
  0
ARC
  5
CB7
330
1F
100
AcDbEntity
  8
BUMPER
100
AcDbCircle
 10
23.92627987018716
 20
17.90015529772863
 30
0.0
 40
3.259863999999999
100
AcDbArc
 50
61.97746468704881
 51
62.04127633334486
  0
ARC
  5
CB8
330
1F
100
AcDbEntity
  8
BUMPER
100
AcDbCircle
 10
25.40408762130712
 20
20.67959344767814
 30
0.0
 40
0.112
100
AcDbArc
 50
61.995513762866
 51
150.0347466510394
  0
ARC
  5
CB9
330
1F
100
AcDbEntity
  8
BUMPER
100
AcDbCircle
 10
25.8207077510022
 20
20.41420062352329
 30
0.0
 40
0.112
100
AcDbArc
 50
329.9789955656524
 51
52.97390605270841
  0
ARC
  5
CBA
330
1F
100
AcDbEntity
  8
BUMPER
100
AcDbCircle
 10
23.92104006229825
 20
17.89168789545309
 30
0.0
 40
3.269816903560633
100
AcDbArc
 50
53.01564726255614
 51
59.99467127113341
  0
ARC
  5
CBB
330
1F
100
AcDbEntity
  8
BUMPER
100
AcDbCircle
 10
27.05067987018716
 20
23.31177484089683
 30
0.0
 40
3.259863999999999
100
AcDbArc
 50
237.9587236666551
 51
238.0225353129512
  0
LINE
  5
CBC
330
1F
100
AcDbEntity
  8
BUMPER
100
AcDbLine
 10
25.32317617923649
 20
20.54725067790752
 30
0.0
 11
25.42074787018716
 21
20.48864980401448
 31
0.0
  0
ARC
  5
CBD
330
1F
100
AcDbEntity
  8
BUMPER
100
AcDbCircle
 10
27.05539295171739
 20
23.32054634877735
 30
0.0
 40
3.269816903560633
100
AcDbArc
 50
240.0053287288665
 51
246.984352737444
  0
ARC
  5
CBE
330
1F
100
AcDbEntity
  8
BUMPER
100
AcDbCircle
 10
25.82066669219098
 20
20.41412950757617
 30
0.0
 40
0.112
100
AcDbArc
 50
247.0260939472915
 51
330.0210044343475
  0
ARC
  5
CBF
330
1F
100
AcDbEntity
  8
BUMPER
100
AcDbCircle
 10
25.38251969964324
 20
20.64223671154264
 30
0.0
 40
0.112
100
AcDbArc
 50
149.9652533489605
 51
238.0044862371339
  0
LINE
  5
CC0
330
1F
100
AcDbEntity
  8
BUMPER
100
AcDbLine
 10
25.58943044868021
 20
21.13880307547344
 30
0.0
 11
25.61707031593862
 21
21.17174298657746
 31
0.0
  0
LINE
  5
CC1
330
1F
100
AcDbEntity
  8
BUMPER
100
AcDbLine
 10
25.77187193252467
 20
21.18805462359968
 30
0.0
 11
25.86031022501704
 21
21.11640990490363
 31
0.0
  0
ARC
  5
CC2
330
1F
100
AcDbEntity
  8
BUMPER
100
AcDbCircle
 10
23.76491003655384
 20
18.61920920238002
 30
0.0
 40
3.259863999999999
100
AcDbArc
 50
51.97746468704877
 51
52.04127633334486
  0
ARC
  5
CC3
330
1F
100
AcDbEntity
  8
BUMPER
100
AcDbCircle
 10
25.70291093699498
 20
21.09980281854417
 30
0.0
 40
0.112
100
AcDbArc
 50
51.99551376286596
 51
140.0347466510392
  0
ARC
  5
CC4
330
1F
100
AcDbEntity
  8
BUMPER
100
AcDbCircle
 10
26.06711669049927
 20
20.76609658142175
 30
0.0
 40
0.112
100
AcDbArc
 50
319.9789955656523
 51
42.97390605270847
  0
ARC
  5
CC5
330
1F
100
AcDbEntity
  8
BUMPER
100
AcDbCircle
 10
23.75827948414583
 20
18.61178032206243
 30
0.0
 40
3.269816903560633
100
AcDbArc
 50
43.01564726255612
 51
49.99467127113343
  0
ARC
  5
CC6
330
1F
100
AcDbEntity
  8
BUMPER
100
AcDbCircle
 10
27.78156125196308
 20
23.4060677185419
 30
0.0
 40
3.259863999999999
100
AcDbArc
 50
227.9587236666551
 51
228.0225353129512
  0
LINE
  5
CC7
330
1F
100
AcDbEntity
  8
BUMPER
100
AcDbLine
 10
25.60024764073836
 20
20.98352075728691
 30
0.0
 11
25.68616106349988
 21
20.9088670160183
 31
0.0
  0
ARC
  5
CC8
330
1F
100
AcDbEntity
  8
BUMPER
100
AcDbCircle
 10
27.78772588755347
 20
23.41388754948932
 30
0.0
 40
3.269816903560633
100
AcDbArc
 50
230.0053287288665
 51
236.984352737444
  0
ARC
  5
CC9
330
1F
100
AcDbEntity
  8
BUMPER
100
AcDbCircle
 10
26.06706390630904
 20
20.76603367567341
 30
0.0
 40
0.112
100
AcDbArc
 50
237.0260939472915
 51
320.0210044343475
  0
ARC
  5
CCA
330
1F
100
AcDbEntity
  8
BUMPER
100
AcDbCircle
 10
25.67518375137052
 20
21.06675884546369
 30
0.0
 40
0.112
100
AcDbArc
 50
139.9652533489605
 51
228.004486237134
  0
LINE
  5
CCB
330
1F
100
AcDbEntity
  8
BUMPER
100
AcDbLine
 10
25.96517890539097
 20
21.51985157603785
 30
0.0
 11
25.998118816495
 21
21.54749144329625
 31
0.0
  0
LINE
  5
CCC
330
1F
100
AcDbEntity
  8
BUMPER
100
AcDbLine
 10
26.15340113473144
 20
21.53667425127999
 30
0.0
 11
26.22805487600006
 21
21.45076082851847
 31
0.0
  0
ARC
  5
CCD
330
1F
100
AcDbEntity
  8
BUMPER
100
AcDbCircle
 10
23.73085417347645
 20
19.35536064005527
 30
0.0
 40
3.259863999999999
100
AcDbArc
 50
41.97746468704872
 51
42.04127633334486
  0
ARC
  5
CCE
330
1F
100
AcDbEntity
  8
BUMPER
100
AcDbCircle
 10
26.07016304655466
 20
21.46173814064783
 30
0.0
 40
0.112
100
AcDbArc
 50
41.99551376286604
 51
130.0347466510394
  0
ARC
  5
CCF
330
1F
100
AcDbEntity
  8
BUMPER
100
AcDbCircle
 10
26.37088821634494
 20
21.06985798570931
 30
0.0
 40
0.112
100
AcDbArc
 50
309.9789955656524
 51
32.97390605270846
  0
ARC
  5
CD0
330
1F
100
AcDbEntity
  8
BUMPER
100
AcDbCircle
 10
23.72303434252903
 20
19.34919600446488
 30
0.0
 40
3.269816903560633
100
AcDbArc
 50
33.01564726255606
 51
39.9946712711335
  0
ARC
  5
CD1
330
1F
100
AcDbEntity
  8
BUMPER
100
AcDbCircle
 10
28.51771268963832
 20
23.37201185546451
 30
0.0
 40
3.259863999999999
100
AcDbArc
 50
217.9587236666551
 51
218.0225353129512
  0
LINE
  5
CD2
330
1F
100
AcDbEntity
  8
BUMPER
100
AcDbLine
 10
25.94886726841868
 20
21.36504995949368
 30
0.0
 11
26.02051198711472
 21
21.27661166700131
 31
0.0
  0
ARC
  5
CD3
330
1F
100
AcDbEntity
  8
BUMPER
100
AcDbCircle
 10
28.52514156995591
 20
23.37864240787253
 30
0.0
 40
3.269816903560633
100
AcDbArc
 50
220.0053287288665
 51
226.9843527374439
  0
ARC
  5
CD4
330
1F
100
AcDbEntity
  8
BUMPER
100
AcDbCircle
 10
26.3708253105966
 20
21.06980520151908
 30
0.0
 40
0.112
100
AcDbArc
 50
227.0260939472915
 51
310.0210044343476
  0
ARC
  5
CD5
330
1F
100
AcDbEntity
  8
BUMPER
100
AcDbCircle
 10
26.03711907347417
 20
21.43401095502337
 30
0.0
 40
0.112
100
AcDbArc
 50
129.9652533489606
 51
218.0044862371341
  0
LINE
  5
CD6
330
1F
100
AcDbEntity
  8
BUMPER
100
AcDbLine
 10
26.40138727646783
 20
21.82986305889838
 30
0.0
 11
26.43862636888699
 21
21.85136305893096
 31
0.0
  0
LINE
  5
CD7
330
1F
100
AcDbEntity
  8
BUMPER
100
AcDbLine
 10
26.58967121411084
 20
21.81374571278186
 30
0.0
 11
26.64827208800387
 21
21.7161740218312
 31
0.0
  0
ARC
  5
CD8
330
1F
100
AcDbEntity
  8
BUMPER
100
AcDbCircle
 10
23.82514705112152
 20
20.08624202183119
 30
0.0
 40
3.259863999999999
100
AcDbArc
 50
31.97746468704878
 51
32.04127633334489
  0
ARC
  5
CD9
330
1F
100
AcDbEntity
  8
BUMPER
100
AcDbCircle
 10
26.49468518047572
 20
21.75440219237511
 30
0.0
 40
0.112
100
AcDbArc
 50
31.99551376286598
 51
120.0347466510393
  0
ARC
  5
CDA
330
1F
100
AcDbEntity
  8
BUMPER
100
AcDbCircle
 10
26.72279238444219
 20
21.31625519982737
 30
0.0
 40
0.112
100
AcDbArc
 50
299.9789955656524
 51
22.97390605270841
  0
ARC
  5
CDB
330
1F
100
AcDbEntity
  8
BUMPER
100
AcDbCircle
 10
23.816375543241
 20
20.08152894030097
 30
0.0
 40
3.269816903560633
100
AcDbArc
 50
23.01564726255617
 51
29.9946712711335
  0
ARC
  5
CDC
330
1F
100
AcDbEntity
  8
BUMPER
100
AcDbCircle
 10
29.23676659428972
 20
23.21064202183119
 30
0.0
 40
3.259863999999999
100
AcDbArc
 50
207.9587236666551
 51
208.0225353129512
  0
LINE
  5
CDD
330
1F
100
AcDbEntity
  8
BUMPER
100
AcDbLine
 10
26.3584424313004
 20
21.68024571278186
 30
0.0
 11
26.41364155740737
 21
21.58071002183119
 31
0.0
  0
ARC
  5
CDE
330
1F
100
AcDbEntity
  8
BUMPER
100
AcDbCircle
 10
29.24523399656526
 20
23.21588182972011
 30
0.0
 40
3.269816903560633
100
AcDbArc
 50
210.0053287288665
 51
216.9843527374438
  0
ARC
  5
CDF
330
1F
100
AcDbEntity
  8
BUMPER
100
AcDbCircle
 10
26.72272126849506
 20
21.31621414101616
 30
0.0
 40
0.112
100
AcDbArc
 50
217.0260939472916
 51
300.0210044343476
  0
ARC
  5
CE0
330
1F
100
AcDbEntity
  8
BUMPER
100
AcDbCircle
 10
26.45732844434021
 20
21.73283427071123
 30
0.0
 40
0.112
100
AcDbArc
 50
119.9652533489606
 51
208.004486237134
  0
LINE
  5
CE1
330
1F
100
AcDbEntity
  8
BUMPER
100
AcDbLine
 10
26.88480159128769
 20
22.05941798202168
 30
0.0
 11
26.92520837404271
 21
22.07412484820697
 31
0.0
  0
LINE
  5
CE2
330
1F
100
AcDbEntity
  8
BUMPER
100
AcDbLine
 10
27.06742632506424
 20
22.01085033195249
 30
0.0
 11
27.10819377368193
 21
21.90458503926855
 31
0.0
  0
ARC
  5
CE3
330
1F
100
AcDbEntity
  8
BUMPER
100
AcDbCircle
 10
24.04492362811629
 20
20.78964588676636
 30
0.0
 40
3.259863999999999
100
AcDbArc
 50
21.97746468704874
 51
22.04127633334486
  0
ARC
  5
CE4
330
1F
100
AcDbEntity
  8
BUMPER
100
AcDbCircle
 10
26.96357844853751
 20
21.96890252460944
 30
0.0
 40
0.112
100
AcDbArc
 50
21.99551376286599
 51
110.0347466510394
  0
ARC
  5
CE5
330
1F
100
AcDbEntity
  8
BUMPER
100
AcDbCircle
 10
27.11213676471547
 20
21.49780156910797
 30
0.0
 40
0.112
100
AcDbArc
 50
289.9789955656523
 51
12.97390605270843
  0
ARC
  5
CE6
330
1F
100
AcDbEntity
  8
BUMPER
100
AcDbCircle
 10
24.03546696113103
 20
20.78652756389366
 30
0.0
 40
3.269816903560633
100
AcDbArc
 50
13.01564726255605
 51
19.99467127113345
  0
ARC
  5
CE7
330
1F
100
AcDbEntity
  8
BUMPER
100
AcDbCircle
 10
29.91687487688329
 20
22.9268613583798
 30
0.0
 40
3.259863999999999
100
AcDbArc
 50
197.958723666655
 51
198.0225353129512
  0
LINE
  5
CE8
330
1F
100
AcDbEntity
  8
BUMPER
100
AcDbLine
 10
26.8165283953144
 20
21.91953095368454
 30
0.0
 11
26.85360473131764
 21
21.81192220587761
 31
0.0
  0
ARC
  5
CE9
330
1F
100
AcDbEntity
  8
BUMPER
100
AcDbCircle
 10
29.92612352338334
 20
22.93055121283837
 30
0.0
 40
3.269816903560633
100
AcDbArc
 50
200.0053287288665
 51
206.9843527374438
  0
ARC
  5
CEA
330
1F
100
AcDbEntity
  8
BUMPER
100
AcDbCircle
 10
27.11205959939164
 20
21.49777348322697
 30
0.0
 40
0.112
100
AcDbArc
 50
207.0260939472914
 51
290.0210044343475
  0
ARC
  5
CEB
330
1F
100
AcDbEntity
  8
BUMPER
100
AcDbCircle
 10
26.92304401487104
 20
21.954149197292
 30
0.0
 40
0.112
100
AcDbArc
 50
109.9652533489605
 51
198.004486237134
  0
LINE
  5
CEC
330
1F
100
AcDbEntity
  8
BUMPER
100
AcDbLine
 10
27.40073355051422
 20
22.20154143522906
 30
0.0
 11
27.44308028395791
 21
22.20900830688005
 31
0.0
  0
LINE
  5
CED
330
1F
100
AcDbEntity
  8
BUMPER
100
AcDbLine
 10
27.57215012030107
 20
22.12199918467812
 30
0.0
 11
27.59384544534648
 21
22.01026910740627
 31
0.0
  0
ARC
  5
CEE
330
1F
100
AcDbEntity
  8
BUMPER
100
AcDbCircle
 10
24.3835061043811
 20
21.44419966436424
 30
0.0
 40
3.259863999999999
100
AcDbArc
 50
11.97746468704882
 51
12.0412763333449
  0
ARC
  5
CEF
330
1F
100
AcDbEntity
  8
BUMPER
100
AcDbCircle
 10
27.46259576606145
 20
22.09872165329827
 30
0.0
 40
0.112
100
AcDbArc
 50
11.99551376286592
 51
100.0347466510394
  0
ARC
  5
CF0
330
1F
100
AcDbEntity
  8
BUMPER
100
AcDbCircle
 10
27.52709132518796
 20
21.60898089898739
 30
0.0
 40
0.112
100
AcDbArc
 50
279.9789955656523
 51
2.973906052708399
  0
ARC
  5
CF1
330
1F
100
AcDbEntity
  8
BUMPER
100
AcDbCircle
 10
24.37365161433213
 20
21.4427708488116
 30
0.0
 40
3.269816903560633
100
AcDbArc
 50
3.015647262556169
 51
9.994671271133405
  0
ARC
  5
CF2
330
1F
100
AcDbEntity
  8
BUMPER
100
AcDbCircle
 10
30.53737279140378
 20
22.52929239696936
 30
0.0
 40
3.259863999999999
100
AcDbArc
 50
187.9587236666551
 51
188.0225353129512
  0
LINE
  5
CF3
330
1F
100
AcDbEntity
  8
BUMPER
100
AcDbLine
 10
27.30920645024681
 20
22.07563512124105
 30
0.0
 11
27.32703345043839
 21
21.96322295392732
 31
0.0
  0
ARC
  5
CF4
330
1F
100
AcDbEntity
  8
BUMPER
100
AcDbCircle
 10
30.5471216666845
 20
22.53132018363703
 30
0.0
 40
3.269816903560633
100
AcDbArc
 50
190.0053287288665
 51
196.9843527374438
  0
ARC
  5
CF5
330
1F
100
AcDbEntity
  8
BUMPER
100
AcDbCircle
 10
27.52701045511674
 20
21.6089666394119
 30
0.0
 40
0.112
100
AcDbArc
 50
197.0260939472915
 51
280.0210044343475
  0
ARC
  5
CF6
330
1F
100
AcDbEntity
  8
BUMPER
100
AcDbCircle
 10
27.42011525311955
 20
22.09123119271228
 30
0.0
 40
0.112
100
AcDbArc
 50
99.96525334896052
 51
188.004486237134
  0
LINE
  5
CF7
330
1F
100
AcDbEntity
  8
BUMPER
100
AcDbLine
 10
27.82150682270562
 20
22.14381506931273
 30
0.0
 11
27.81954282270562
 21
22.03001506931273
 31
0.0
  0
ARC
  5
CF8
330
1F
100
AcDbEntity
  8
BUMPER
100
AcDbCircle
 10
31.07940682270562
 20
22.03001506931273
 30
0.0
 40
3.259863999999999
100
AcDbArc
 50
177.9587236666551
 51
178.0225353129512
  0
ARC
  5
CF9
330
1F
100
AcDbEntity
  8
BUMPER
100
AcDbCircle
 10
27.93343890104174
 20
22.13991508990805
 30
0.0
 40
0.112
100
AcDbArc
 50
89.96525334896055
 51
178.004486237134
  0
ARC
  5
CFA
330
1F
100
AcDbEntity
  8
BUMPER
100
AcDbCircle
 10
27.95496576389441
 20
21.64641506178672
 30
0.0
 40
0.112
100
AcDbArc
 50
187.0260939472915
 51
270.0210044343475
  0
ARC
  5
CFB
330
1F
100
AcDbEntity
  8
BUMPER
100
AcDbCircle
 10
31.08935971212476
 20
22.03031917491771
 30
0.0
 40
3.269816903560633
100
AcDbArc
 50
180.0053287288665
 51
186.9843527374439
  0
ARC
  5
CFC
330
1F
100
AcDbEntity
  8
BUMPER
100
AcDbCircle
 10
24.83060682270562
 20
22.03001506931273
 30
0.0
 40
3.259863999999999
100
AcDbArc
 50
1.977464687048766
 51
2.041276333344888
  0
ARC
  5
CFD
330
1F
100
AcDbEntity
  8
BUMPER
100
AcDbCircle
 10
27.95504788151684
 20
21.64641506178672
 30
0.0
 40
0.112
100
AcDbArc
 50
269.9789955656524
 51
352.9739060527083
  0
ARC
  5
CFE
330
1F
100
AcDbEntity
  8
BUMPER
100
AcDbCircle
 10
24.82065393328648
 20
22.03031917491771
 30
0.0
 40
3.269816903560633
100
AcDbArc
 50
353.0156472625562
 51
359.9946712711334
  0
LINE
  5
CFF
330
1F
100
AcDbEntity
  8
BUMPER
100
AcDbLine
 10
28.08850682270562
 20
22.14381506931273
 30
0.0
 11
28.09047082270562
 21
22.03001506931273
 31
0.0
  0
ARC
  5
D00
330
1F
100
AcDbEntity
  8
BUMPER
100
AcDbCircle
 10
27.9765747443695
 20
22.13991508990805
 30
0.0
 40
0.112
100
AcDbArc
 50
1.99551376286597
 51
90.03474665103942
  0
LINE
  5
D01
330
1F
100
AcDbEntity
  8
BUMPER
100
AcDbLine
 10
27.93350682264047
 20
22.25191506931273
 30
0.0
 11
27.97650682270563
 21
22.25191506931273
 31
0.0
  0
CIRCLE
  5
D02
330
1F
100
AcDbEntity
  8
BUMPER
100
AcDbCircle
 10
27.95500682270562
 20
19.18191506931273
 30
0.0
 40
2.274999999999999
  0
CIRCLE
  5
D03
330
1F
100
AcDbEntity
  8
BUMPER
100
AcDbCircle
 10
27.95500682270562
 20
19.18191506931273
 30
0.0
 40
3.1
  0
CIRCLE
  5
D04
330
1F
100
AcDbEntity
  8
PART
100
AcDbCircle
 10
27.95500682270562
 20
20.55691506931273
 30
0.0
 40
0.09375
  0
CIRCLE
  5
D05
330
1F
100
AcDbEntity
  8
PART
100
AcDbCircle
 10
27.95500682270562
 20
17.80691506931273
 30
0.0
 40
0.09375
  0
LINE
  5
D06
330
1F
100
AcDbEntity
  8
CENTER
 48
0.5
100
AcDbLine
 10
27.95500682270562
 20
17.45697456246691
 30
0.0
 11
27.95500682270562
 21
20.90685557615855
 31
0.0
  0
LINE
  5
D07
330
1F
100
AcDbEntity
  8
CENTER
 48
0.5
100
AcDbLine
 10
26.2300663158598
 20
19.18191506931273
 30
0.0
 11
29.67994732955144
 21
19.18191506931273
 31
0.0
  0
CIRCLE
  5
D08
330
1F
100
AcDbEntity
  8
PART
100
AcDbCircle
 10
27.95500682270562
 20
19.18191506931273
 30
0.0
 40
1.6
  0
LWPOLYLINE
  5
D09
330
1F
100
AcDbEntity
  8
PART
100
AcDbPolyline
 90
        6
 70
   129
 43
0.0
 10
27.88283803905692
 20
19.30691506931273
 10
27.81066925540822
 20
19.18191506931273
 10
27.88283803905692
 20
19.05691506931273
 10
28.02717560635433
 20
19.05691506931273
 10
28.09934439000303
 20
19.18191506931273
 10
28.02717560635433
 20
19.30691506931273
  0
CIRCLE
  5
D0A
330
1F
100
AcDbEntity
  8
PART
100
AcDbCircle
 10
27.95500682270562
 20
19.18191506931273
 30
0.0
 40
0.1989999999999998
  0
CIRCLE
  5
D0B
330
1F
100
AcDbEntity
  8
PART
100
AcDbCircle
 10
27.95500682270562
 20
19.18191506931273
 30
0.0
 40
0.2189999999999994
  0
LINE
  5
D0C
330
1F
100
AcDbEntity
  8
DIM
  6
Continuous
100
AcDbLine
 10
12.25556947324725
 20
21.23233900816311
 30
0.0
 11
12.25556947324725
 21
24.27458926337279
 31
0.0
  0
LINE
  5
D0D
330
1F
100
AcDbEntity
  8
DIM
  6
Continuous
100
AcDbLine
 10
22.20806442836306
 20
22.57638715018403
 30
0.0
 11
22.20806442836306
 21
24.27458926337279
 31
0.0
  0
LINE
  5
D0E
330
1F
100
AcDbEntity
  8
DIM
  6
Continuous
100
AcDbLine
 10
12.45556947324725
 20
24.14858926337279
 30
0.0
 11
16.67086456985277
 21
24.14858926337279
 31
0.0
  0
LINE
  5
D0F
330
1F
100
AcDbEntity
  8
DIM
  6
Continuous
100
AcDbLine
 10
22.00806442836306
 20
24.14858926337279
 30
0.0
 11
17.79276933175753
 21
24.14858926337279
 31
0.0
  0
SOLID
  5
D10
330
1F
100
AcDbEntity
  8
DIM
  6
Continuous
100
AcDbTrace
 10
12.45556947324725
 20
24.18192259670613
 30
0.0
 11
12.45556947324725
 21
24.11525593003946
 31
0.0
 12
12.25556947324725
 22
24.14858926337279
 32
0.0
 13
12.25556947324725
 23
24.14858926337279
 33
0.0
  0
SOLID
  5
D11
330
1F
100
AcDbEntity
  8
DIM
  6
Continuous
100
AcDbTrace
 10
22.00806442836306
 20
24.18192259670613
 30
0.0
 11
22.00806442836306
 21
24.11525593003946
 31
0.0
 12
22.20806442836306
 22
24.14858926337279
 32
0.0
 13
22.20806442836306
 23
24.14858926337279
 33
0.0
  0
MTEXT
  5
D12
330
1F
100
AcDbEntity
  8
DIM
100
AcDbMText
 10
17.23181695080515
 20
24.14858926337279
 30
0.0
 40
0.2
 41
0.0
 71
     5
 72
     5
  1
\A1;10.60
 73
     1
 44
1.0
  0
TEXT
  5
D13
330
1F
100
AcDbEntity
  8
DIM
100
AcDbText
 10
18.00556947324725
 20
24.21108926337279
 30
0.0
 40
0.16
  1
STRAIGHT STREAM
100
AcDbText
  0
LINE
  5
D14
330
1F
100
AcDbEntity
  8
DIM
  6
Continuous
100
AcDbLine
 10
22.20806442836306
 20
22.57638715018403
 30
0.0
 11
22.20806442836306
 21
23.52458926337279
 31
0.0
  0
LINE
  5
D15
330
1F
100
AcDbEntity
  8
DIM
  6
Continuous
100
AcDbLine
 10
20.88306442836306
 20
23.39858926337279
 30
0.0
 11
20.68306442836306
 21
23.39858926337279
 31
0.0
  0
LINE
  5
D16
330
1F
100
AcDbEntity
  8
DIM
  6
Continuous
100
AcDbLine
 10
22.40806442836306
 20
23.39858926337279
 30
0.0
 11
22.60806442836306
 21
23.39858926337279
 31
0.0
  0
SOLID
  5
D17
330
1F
100
AcDbEntity
  8
DIM
  6
Continuous
100
AcDbTrace
 10
20.88306442836306
 20
23.43192259670613
 30
0.0
 11
20.88306442836306
 21
23.36525593003946
 31
0.0
 12
21.08306442836306
 22
23.39858926337279
 32
0.0
 13
21.08306442836306
 23
23.39858926337279
 33
0.0
  0
SOLID
  5
D18
330
1F
100
AcDbEntity
  8
DIM
  6
Continuous
100
AcDbTrace
 10
22.40806442836306
 20
23.43192259670613
 30
0.0
 11
22.40806442836306
 21
23.36525593003946
 31
0.0
 12
22.20806442836306
 22
23.39858926337279
 32
0.0
 13
22.20806442836306
 23
23.39858926337279
 33
0.0
  0
MTEXT
  5
D19
330
1F
100
AcDbEntity
  8
DIM
100
AcDbMText
 10
21.64556442836306
 20
23.39858926337279
 30
0.0
 40
0.2
 41
0.0
 71
     5
 72
     5
  1
{1.125}
 73
     1
 44
1.0
  0
TEXT
  5
D1A
330
1F
100
AcDbEntity
  8
DIM
100
AcDbText
 10
22.75556947324725
 20
23.31858926337279
 30
0.0
 40
0.16
  1
(FULL FOG)
 11
22.75556947324725
 21
23.39858926337279
 31
0.0
100
AcDbText
 73
     2
  0
LINE
  5
D1B
330
1F
100
AcDbEntity
  8
DIM
  6
Continuous
100
AcDbLine
 10
22.40806442836275
 20
16.18703673978239
 30
0.0
 11
23.13156947324725
 21
16.18703673978239
 31
0.0
  0
LINE
  5
D1C
330
1F
100
AcDbEntity
  8
DIM
  6
Continuous
100
AcDbLine
 10
22.40806442836306
 20
22.37638715018403
 30
0.0
 11
23.13156947324725
 21
22.37638715018403
 31
0.0
  0
LINE
  5
D1D
330
1F
100
AcDbEntity
  8
DIM
  6
Continuous
100
AcDbLine
 10
23.00556947324725
 20
16.38703673978239
 30
0.0
 11
23.00556947324725
 21
18.72552146879273
 31
0.0
  0
LINE
  5
D1E
330
1F
100
AcDbEntity
  8
DIM
  6
Continuous
100
AcDbLine
 10
23.00556947324725
 20
22.17638715018403
 30
0.0
 11
23.00556947324725
 21
19.83790242117368
 31
0.0
  0
SOLID
  5
D1F
330
1F
100
AcDbEntity
  8
DIM
  6
Continuous
100
AcDbTrace
 10
22.97223613991392
 20
16.38703673978239
 30
0.0
 11
23.03890280658058
 21
16.38703673978239
 31
0.0
 12
23.00556947324725
 22
16.18703673978239
 32
0.0
 13
23.00556947324725
 23
16.18703673978239
 33
0.0
  0
SOLID
  5
D20
330
1F
100
AcDbEntity
  8
DIM
  6
Continuous
100
AcDbTrace
 10
22.97223613991392
 20
22.17638715018403
 30
0.0
 11
23.03890280658058
 21
22.17638715018403
 31
0.0
 12
23.00556947324725
 22
22.37638715018403
 32
0.0
 13
23.00556947324725
 23
22.37638715018403
 33
0.0
  0
MTEXT
  5
D21
330
1F
100
AcDbEntity
  8
DIM
100
AcDbMText
 10
23.00556947324725
 20
19.28171194498321
 30
0.0
 40
0.2
 41
0.0
 71
     5
 72
     5
  1
\A1;6.19\U+2205
 11
0.0
 21
1.0
 31
0.0
 73
     1
 44
1.0
  0
LINE
  5
D22
330
1F
100
AcDbEntity
  8
DIM
  6
Continuous
100
AcDbLine
 10
32.14000682270562
 20
18.08608926337279
 30
0.0
 11
32.14000682270562
 21
14.02258926337279
 31
0.0
  0
LINE
  5
D23
330
1F
100
AcDbEntity
  8
DIM
  6
Continuous
100
AcDbLine
 10
23.77000682270562
 20
18.08608926337279
 30
0.0
 11
23.77000682270562
 21
14.02258926337279
 31
0.0
  0
LINE
  5
D24
330
1F
100
AcDbEntity
  8
DIM
  6
Continuous
100
AcDbLine
 10
31.94000682270563
 20
14.14858926337279
 30
0.0
 11
28.53024491794372
 21
14.14858926337279
 31
0.0
  0
LINE
  5
D25
330
1F
100
AcDbEntity
  8
DIM
  6
Continuous
100
AcDbLine
 10
23.97000682270562
 20
14.14858926337279
 30
0.0
 11
27.37976872746753
 21
14.14858926337279
 31
0.0
  0
SOLID
  5
D26
330
1F
100
AcDbEntity
  8
DIM
  6
Continuous
100
AcDbTrace
 10
31.94000682270563
 20
14.18192259670612
 30
0.0
 11
31.94000682270563
 21
14.11525593003946
 31
0.0
 12
32.14000682270562
 22
14.14858926337279
 32
0.0
 13
32.14000682270562
 23
14.14858926337279
 33
0.0
  0
SOLID
  5
D27
330
1F
100
AcDbEntity
  8
DIM
  6
Continuous
100
AcDbTrace
 10
23.97000682270562
 20
14.18192259670612
 30
0.0
 11
23.97000682270562
 21
14.11525593003946
 31
0.0
 12
23.77000682270562
 22
14.14858926337279
 32
0.0
 13
23.77000682270562
 23
14.14858926337279
 33
0.0
  0
MTEXT
  5
D28
330
1F
100
AcDbEntity
  8
DIM
100
AcDbMText
 10
27.95500682270562
 20
14.14858926337279
 30
0.0
 40
0.2
 41
0.0
 71
     5
 72
     5
  1
\A1;8.37\U+2205
 73
     1
 44
1.0
  0
TEXT
  5
D29
330
1F
100
AcDbEntity
  8
DIM
100
AcDbText
 10
28.75556947324725
 20
14.21108926337279
 30
0.0
 40
0.16
  1
HALO RING
100
AcDbText
  0
TEXT
  5
D2A
330
1F
100
AcDbEntity
  8
DIM
100
AcDbText
 10
22.94306947324725
 20
20.02358926337279
 30
0.0
 40
0.16
  1
BUMPER
 50
90.0
100
AcDbText
  0
LINE
  5
D2B
330
1F
100
AcDbEntity
  8
DIM
  6
Continuous
100
AcDbLine
 10
21.08306442836306
 20
22.57638715018403
 30
0.0
 11
21.08306442836306
 21
23.52458926337279
 31
0.0
  0
LINE
  5
D2C
330
1F
100
AcDbEntity
  8
PART
 48
0.5
100
AcDbLine
 10
28.48625682270562
 20
18.87519773880574
 30
0.0
 11
28.48625682270562
 21
19.48863239981971
 31
0.0
  0
LINE
  5
D2D
330
1F
100
AcDbEntity
  8
PART
 48
0.5
100
AcDbLine
 10
28.48625682270562
 20
19.48863239981972
 30
0.0
 11
27.95500682270562
 21
19.7953497303267
 31
0.0
  0
LINE
  5
D2E
330
1F
100
AcDbEntity
  8
PART
 48
0.5
100
AcDbLine
 10
27.95500682270562
 20
19.7953497303267
 30
0.0
 11
27.42375682270562
 21
19.48863239981972
 31
0.0
  0
LINE
  5
D2F
330
1F
100
AcDbEntity
  8
PART
 48
0.5
100
AcDbLine
 10
27.42375682270562
 20
19.48863239981972
 30
0.0
 11
27.42375682270562
 21
18.87519773880574
 31
0.0
  0
LINE
  5
D30
330
1F
100
AcDbEntity
  8
PART
 48
0.5
100
AcDbLine
 10
27.42375682270562
 20
18.87519773880574
 30
0.0
 11
27.95500682270562
 21
18.56848040829875
 31
0.0
  0
LINE
  5
D31
330
1F
100
AcDbEntity
  8
PART
 48
0.5
100
AcDbLine
 10
27.95500682270562
 20
18.56848040829875
 30
0.0
 11
28.48625682270562
 21
18.87519773880574
 31
0.0
  0
CIRCLE
  5
D32
330
1F
100
AcDbEntity
  8
PART
100
AcDbCircle
 10
27.95500682270562
 20
19.18191506931273
 30
0.0
 40
0.3125
  0
LINE
  5
D45
330
1F
100
AcDbEntity
  8
PART
100
AcDbLine
 10
16.71788674850217
 20
17.3083302811356
 30
0.0
 11
15.70288674850216
 21
17.3083302811356
 31
0.0
  0
LINE
  5
D46
330
1F
100
AcDbEntity
  8
PART
100
AcDbLine
 10
16.71788674850217
 20
21.20833028113561
 30
0.0
 11
15.70288674850216
 21
21.20833028113561
 31
0.0
  0
LINE
  5
D47
330
1F
100
AcDbEntity
  8
PART
100
AcDbLine
 10
15.70288674850216
 20
17.26895150838782
 30
0.0
 11
15.70288674850216
 21
19.2583302811356
 31
0.0
  0
LINE
  5
D48
330
1F
100
AcDbEntity
  8
PART
100
AcDbLine
 10
15.70288674850216
 20
21.26895150838782
 30
0.0
 11
15.70288674850216
 21
19.2583302811356
 31
0.0
  0
LINE
  5
D49
330
1F
100
AcDbEntity
  8
PART
100
AcDbLine
 10
16.71788674850217
 20
17.3083302811356
 30
0.0
 11
16.71788674850217
 21
19.2583302811356
 31
0.0
  0
LINE
  5
D4A
330
1F
100
AcDbEntity
  8
PART
100
AcDbLine
 10
16.71788674850217
 20
21.20833028113561
 30
0.0
 11
16.71788674850217
 21
19.2583302811356
 31
0.0
  0
ARCALIGNEDTEXT
  5
D4B
330
1F
100
AcDbEntity
  8
PART
 62
     2
 92
     2408
310
680900000F000000A00000000B000000F6DDEEF71CC03C40B4BC09EE47193440000000000000000000000000000000000000000000000000000000000000F03FC0750C34BE56ED3F0077FC853474E9BF00000000000000002000746FFFFFFFFF000000007958A835CD3BCE3F000000000000F03F0000000000000000000000
310
000000F03F000000000000000000000000000000000000000073696D706C65782E7368780000000000A00000000B0000001C818414D5D13C408F633068A6083440000000000000000000000000000000000000000000000000000000000000F03F2051E1788D42EB3FC0DBB01838ABEBBF000000000000000020002057FFFF
310
FFFF000000007958A835CD3BCE3F000000000000F03F0000000000000000000000000000F03F000000000000000000000000000000000000000073696D706C65782E7368780000742B32A00000000B0000008BCA7D9B32E23C4026B9CC6BAFF633400000000000000000000000000000000000000000000000000000000000
310
00F03F00046CECAD03E93FA009DAF7E8B6EDBF000000000000000020003F02FFFFFFFF000000007958A835CD3BCE3F000000000000F03F0000000000000000000000000000F03F000000000000000000000000000000000000000073696D706C65782E7368780000696E65A00000000B000000FC4703ED1BF13C406F8DD419
310
7FE33340000000000000000000000000000000000000000000000000000000000000F03F208D66ADA39DE63FC0B789281394EFBF000000000000000020000000FFFFFFFF000000007958A835CD3BCE3F000000000000F03F0000000000000000000000000000F03F000000000000000000000000000000000000000073696D
310
706C65782E7368780000000000A00000000B00000091C108B079FE3C40D9CFD97D33CF3340000000000000000000000000000000000000000000000000000000000000F03F60DA0E2E3014E43F30759CC4E59FF0BF000000000000000020004620FFFFFFFF000000007958A835CD3BCE3F000000000000F03F000000000000
310
0000000000000000F03F000000000000000000000000000000000000000073696D706C65782E7368780000662900A00000000B00000078EADBF6360A3D40EC51FF5EECB93340000000000000000000000000000000000000000000000000000000000000F03FC01CBF524C6BE13FA003CF31BA5BF1BF000000000000000020
310
000000FFFFFFFF000000007958A835CD3BCE3F000000000000F03F0000000000000000000000000000F03F000000000000000000000000000000000000000073696D706C65782E7368780000000000A00000000B000000564EE95F41143D401004370ECBA33340000000000000000000000000000000000000000000000000
310
000000000000F03F80C26A73444EDD3F8041A5C260FCF1BF000000000000000020006500FFFFFFFF000000007958A835CD3BCE3F000000000000F03F0000000000000000000000000000F03F000000000000000000000000000000000000000073696D706C65782E7368780000000000A00000000B000000D9A9F578281D3D
310
4050941FF8248D3340000000000000000000000000000000000000000000000000000000000000F03F0069FDBAEEC0D23FF06A5DC6ACD8F2BF00000000000000005800736BFFFFFFFF000000007958A835CD3BCE3F000000000000F03F0000000000000000000000000000F03F000000000000000000000000000000000000
310
000073696D706C65782E7368780000646572A00000000B000000D2F8A54E492A3D402E59042BE94D3340000000000000000000000000000000000000000000000000000000000000F03F00E6D6F05465A63FF06450D47E68F3BF00000000000000005800736BFFFFFFFF000000007958A835CD3BCE3F000000000000F03F00
310
00000000000000000000000000F03F000000000000000000000000000000000000000073696D706C65782E7368780000000000A00000000B00000042A7BA93162A3D40025DB83E540D3340000000000000000000000000000000000000000000000000000000000000F03F002437D6DA8CCABF609C3DDE9722F3BF00000000
310
0000000058002064FFFFFFFF000000007958A835CD3BCE3F000000000000F03F0000000000000000000000000000F03F000000000000000000000000000000000000000073696D706C65782E7368780000000000A00000000B00000012C8EE80F31B3D40804A9B1F61CE324000000000000000000000000000000000000000
310
0000000000000000000000F03F80A18333370CD8BF40DDFCD28277F2BF000000000000000020003805FFFFFFFF000000007958A835CD3BCE3F000000000000F03F0000000000000000000000000000F03F000000000000000000000000000000000000000073696D706C65782E7368780000000000A00000000B0000009C2F
310
DBD387133D4091C0F76195B73240000000000000000000000000000000000000000000000000000000000000F03F401D669C26BFDDBFE055C301C8F0F1BF00000000000000002000736BFFFFFFFF000000007958A835CD3BCE3F000000000000F03F0000000000000000000000000000F03F00000000000000000000000000
310
0000000000000073696D706C65782E7368780000000000A00000000B0000000F077CA7EF093D40967BB50F38A13240000000000000000000000000000000000000000000000000000000000000F03FA0E43AAAC8D5E3BF203C05B695B2F0BF000000000000000050000000FFFFFFFF000000007958A835CD3BCE3F00000000
310
0000F03F0000000000000000000000000000F03F000000000000000000000000000000000000000073696D706C65782E7368780000000000A00000000B0000008DCD366CCFE63C4074AE6359066B3240000000000000000000000000000000000000000000000000000000000000F03FC0AFE57D204CEABFC00D9FD9D495EC
310
BF000000000000000053005D61FFFFFFFF000000007958A835CD3BCE3F000000000000F03F0000000000000000000000000000F03F000000000000000000000000000000000000000073696D706C65782E7368780000000000A00000000B0000006CE66407D9B83C4005DEC08ABF3D32400000000000000000000000000000
310
00000000000000000000000000000000F03F20600F354E1AEEBFC085BD74B68BE8BF00000000000000004900EF05FFFFFFFF000000007958A835CD3BCE3F000000000000F03F0000000000000000000000000000F03F000000000000000000000000000000000000000073696D706C65782E7368780000000000
100
AcDbArcAlignedText
  1
       XXX  PSI
  2
SIMPLEX
  3

  7
STANDARD
 10
27.95500682270562
 20
19.18191506931273
 30
0.0
 40
1.55
 41
1.0
 42
0.2362
 43
0.095
 44
0.1
 45
0.0
 46
0.0
 50
-82.81338361938619
 51
81.06274191512772
 70
     0
 71
     1
 72
     4
 73
     2
 74
     0
 75
     0
 76
     0
 77
     1
 78
     0
 79
     1
 90
        2
210
0.0
220
0.0
230
1.0
280
     1
330
0
  0
ARCALIGNEDTEXT
  5
D4C
330
1F
100
AcDbEntity
  8
PART
 62
     2
 92
     2248
310
C80800000E000000A00000000B000000795DD54601363B407A58AF4D10393240000000000000000000000000000000000000000000000000000000000000F03F801140D735B0EEBFA098339D41CFE73F000000000000000020002057FFFFFFFF000000007958A835CD3BCE3F000000000000F03F0000000000000000000000
310
000000F03F000000000000000000000000000000000000000073696D706C65782E7368780000742B32A00000000B000000DA3786E366233B40B84C811CB3483240000000000000000000000000000000000000000000000000000000000000F03FC08901FDDBBBECBF804C18078E22EA3F00000000000000002000746FFFFF
310
FFFF000000007958A835CD3BCE3F000000000000F03F0000000000000000000000000000F03F000000000000000000000000000000000000000073696D706C65782E7368780000000000A00000000B00000085D83EDF13123B4036D912D8BD5932400000000000000000000000000000000000000000000000000000000000
310
00F03F00FACF8A849AEABF20370490EE4CEC3F000000000000000020000000FFFFFFFF000000007958A835CD3BCE3F000000000000F03F0000000000000000000000000000F03F000000000000000000000000000000000000000073696D706C65782E7368780000000000A00000000B0000000812385A23023B40685059D1
310
156C3240000000000000000000000000000000000000000000000000000000000000F03FC0130162854FE8BFC006DD30FF4AEE3F000000000000000020003F02FFFFFFFF000000007958A835CD3BCE3F000000000000F03F0000000000000000000000000000F03F000000000000000000000000000000000000000073696D
310
706C65782E7368780000696E65A00000000B000000B5019B49AEF33A40D786824F9E7F3240000000000000000000000000000000000000000000000000000000000000F03FE045DA9C75DEE5BF90883FA2D00CF03F000000000000000020004620FFFFFFFF000000007958A835CD3BCE3F000000000000F03F000000000000
310
0000000000000000F03F000000000000000000000000000000000000000073696D706C65782E7368780000662900A00000000B000000C1186D50CBE63A4035A9EDBC38943240000000000000000000000000000000000000000000000000000000000000F03F20FA75EF274BE3BFD0171E3500DBF03F000000000000000020
310
000000FFFFFFFF000000007958A835CD3BCE3F000000000000F03F0000000000000000000000000000F03F000000000000000000000000000000000000000073696D706C65782E7368780000000000A00000000B0000001FEA6779F7DA3A4001EFD1647DA93240000000000000000000000000000000000000000000000000
310
000000000000F03FC0706B8BAF95DCBFD0ACDE11E80EF23F000000000000000058006500FFFFFFFF000000007958A835CD3BCE3F000000000000F03F0000000000000000000000000000F03F000000000000000000000000000000000000000073696D706C65782E7368780000000000A00000000B00000031DA5BB291C53A
310
40743710906CE63240000000000000000000000000000000000000000000000000000000000000F03F80386F538D23CABF90F360A4DB24F33F00000000000000005800736BFFFFFFFF000000007958A835CD3BCE3F000000000000F03F0000000000000000000000000000F03F000000000000000000000000000000000000
310
000073696D706C65782E7368780000646572A00000000B000000D8C0EB9633BD3A400C2C633476263340000000000000000000000000000000000000000000000000000000000000F03F00DAE0EE6E10A83FC01C8305FF67F33F00000000000000805800736BFFFFFFFF000000007958A835CD3BCE3F000000000000F03F00
310
00000000000000000000000000F03F000000000000000000000000000000000000000073696D706C65782E7368780000000000A00000000B0000003B9843B7DDC23A405DEE7EECBA663340000000000000000000000000000000000000000000000000000000000000F03F80ABCA0A7814CC3F3020B6C7D919F33F00000000
310
0000008020002064FFFFFFFF000000007958A835CD3BCE3F000000000000F03F0000000000000000000000000000F03F000000000000000000000000000000000000000073696D706C65782E7368780000000000A00000000B0000005218D27D30C83A4016AB5CFC707E334000000000000000000000000000000000000000
310
0000000000000000000000F03F0084D4FCBFF7D33FC01ECE5EADC4F23F000000000000008020003805FFFFFFFF000000007958A835CD3BCE3F000000000000F03F0000000000000000000000000000F03F000000000000000000000000000000000000000073696D706C65782E7368780000000000A00000000B000000589F
310
8A72A4CE3A40350BEDA5E9953340000000000000000000000000000000000000000000000000000000000000F03F003162FFCECADE3F300BFA2778D4F13F00000000000000804700736BFFFFFFFF000000007958A835CD3BCE3F000000000000F03F0000000000000000000000000000F03F00000000000000000000000000
310
0000000000000073696D706C65782E7368780000000000A00000000B0000008464D187DDEB3A40634FB8C2B3D23340000000000000000000000000000000000000000000000000000000000000F03F4023AEBC2C91E63F000419B9FC9CEF3F000000000000008050000000FFFFFFFF000000007958A835CD3BCE3F00000000
310
0000F03F0000000000000000000000000000F03F000000000000000000000000000000000000000073696D706C65782E7368780000000000A00000000B000000FA29592745133B40B303D266E5053440000000000000000000000000000000000000000000000000000000000000F03FA0321BE818D8EC3FE0C1FE6A6003EA
310
3F00000000000000804D005D61FFFFFFFF000000007958A835CD3BCE3F000000000000F03F0000000000000000000000000000F03F000000000000000000000000000000000000000073696D706C65782E7368780000000000
100
AcDbArcAlignedText
  1
      XXX  GPM
  2
SIMPLEX
  3

  7
STANDARD
 10
27.95500682270562
 20
19.18191506931273
 30
0.0
 40
1.55
 41
1.0
 42
0.2362
 43
0.095
 44
0.1
 45
0.0
 46
0.0
 50
90.0
 51
-90.0
 70
     0
 71
     1
 72
     4
 73
     2
 74
     0
 75
     0
 76
     0
 77
     1
 78
     0
 79
     1
 90
        2
210
0.0
220
0.0
230
1.0
280
     1
330
0
  0
CIRCLE
  5
D4D
330
1F
100
AcDbEntity
  8
PART
100
AcDbCircle
 10
27.95500682270562
 20
19.18191506931273
 30
0.0
 40
1.55
  0
MTEXT
  5
D4E
330
1F
100
AcDbEntity
  8
PART
 62
     2
100
AcDbMText
 10
18.63818982431201
 20
14.34778986351755
 30
0.0
 40
0.175
 41
4.79
 71
     1
 72
     5
  1
EACH NOZZLE CALIBRATED TO USER SPECIFIED FLOW AND PRESSURE SETTING. LASER ENGRAVED.\PRANGE OF K FACTORS: 35 TO 125.
  7
COMPLEX
 73
     1
 44
1.0
  0
LEADER
  5
D4F
330
1F
100
AcDbEntity
  8
PART
 62
     2
100
AcDbLeader
  3
Standard
 76
     2
 10
26.56783442601986
 20
18.4677627016379
 30
0.0
 10
23.04707221614231
 20
14.47455828833006
 30
0.0
1001
ACAD
1000
DSTYLE
1002
{
1070
   147
1040
0.09
1070
    77
1070
     0
1002
}
  0
POLYLINE
  5
D5A
330
1F
100
AcDbEntity
  8
0
100
AcDb2dPolyline
 66
     1
 10
0.0
 20
0.0
 30
0.0
  0
VERTEX
  5
D5B
330
D5A
100
AcDbEntity
  8
0
100
AcDbVertex
100
AcDb2dVertex
 10
15.893924706068
 20
18.0510353525026
 30
0.0
  0
VERTEX
  5
D5C
330
D5A
100
AcDbEntity
  8
0
100
AcDbVertex
100
AcDb2dVertex
 10
16.03393388124725
 20
18.0510353525026
 30
0.0
  0
VERTEX
  5
D5D
330
D5A
100
AcDbEntity
  8
0
100
AcDbVertex
100
AcDb2dVertex
 10
16.03393388124725
 20
18.07678416632867
 30
0.0
  0
VERTEX
  5
D5E
330
D5A
100
AcDbEntity
  8
0
100
AcDbVertex
100
AcDb2dVertex
 10
16.0669245489619
 20
18.07678416632867
 30
0.0
  0
VERTEX
  5
D5F
330
D5A
100
AcDbEntity
  8
0
100
AcDbVertex
100
AcDb2dVertex
 10
16.0669245489619
 20
17.98988191966569
 30
0.0
  0
VERTEX
  5
D60
330
D5A
100
AcDbEntity
  8
0
100
AcDbVertex
100
AcDb2dVertex
 10
16.03393388124725
 20
17.98988191966569
 30
0.0
  0
VERTEX
  5
D61
330
D5A
100
AcDbEntity
  8
0
100
AcDbVertex
100
AcDb2dVertex
 10
16.03393388124725
 20
18.01482608305969
 30
0.0
  0
VERTEX
  5
D62
330
D5A
100
AcDbEntity
  8
0
100
AcDbVertex
100
AcDb2dVertex
 10
15.893924706068
 20
18.01482608305969
 30
0.0
  0
VERTEX
  5
D63
330
D5A
100
AcDbEntity
  8
0
100
AcDbVertex
100
AcDb2dVertex
 10
15.893924706068
 20
18.0510353525026
 30
0.0
  0
VERTEX
  5
D64
330
D5A
100
AcDbEntity
  8
0
100
AcDbVertex
100
AcDb2dVertex
 10
15.893924706068
 20
18.0510353525026
 30
0.0
  0
SEQEND
  5
D65
330
D5A
100
AcDbEntity
  8
0
  0
POLYLINE
  5
D66
330
1F
100
AcDbEntity
  8
0
100
AcDb2dPolyline
 66
     1
 10
0.0
 20
0.0
 30
0.0
  0
VERTEX
  5
D67
330
D66
100
AcDbEntity
  8
0
100
AcDbVertex
100
AcDb2dVertex
 10
16.15302214519281
 20
18.02930979083685
 30
0.0
  0
VERTEX
  5
D68
330
D66
100
AcDbEntity
  8
0
100
AcDbVertex
100
AcDb2dVertex
 10
16.47971022061104
 20
18.02930979083685
 30
0.0
  0
VERTEX
  5
D69
330
D66
100
AcDbEntity
  8
0
100
AcDbVertex
100
AcDb2dVertex
 10
16.47971022061104
 20
18.08804927237757
 30
0.0
  0
VERTEX
  5
D6A
330
D66
100
AcDbEntity
  8
0
100
AcDbVertex
100
AcDb2dVertex
 10
16.55615201165718
 20
18.08804927237757
 30
0.0
  0
VERTEX
  5
D6B
330
D66
100
AcDbEntity
  8
0
100
AcDbVertex
100
AcDb2dVertex
 10
16.55615201165718
 20
17.88447271306523
 30
0.0
  0
VERTEX
  5
D6C
330
D66
100
AcDbEntity
  8
0
100
AcDbVertex
100
AcDb2dVertex
 10
16.47971022061104
 20
17.88447271306523
 30
0.0
  0
VERTEX
  5
D6D
330
D66
100
AcDbEntity
  8
0
100
AcDbVertex
100
AcDb2dVertex
 10
16.47971022061104
 20
17.94401684503801
 30
0.0
  0
VERTEX
  5
D6E
330
D66
100
AcDbEntity
  8
0
100
AcDbVertex
100
AcDb2dVertex
 10
16.15302214519281
 20
17.94401684503801
 30
0.0
  0
VERTEX
  5
D6F
330
D66
100
AcDbEntity
  8
0
100
AcDbVertex
100
AcDb2dVertex
 10
16.15302214519281
 20
18.02930979083685
 30
0.0
  0
VERTEX
  5
D70
330
D66
100
AcDbEntity
  8
0
100
AcDbVertex
100
AcDb2dVertex
 10
16.15302214519281
 20
18.02930979083685
 30
0.0
  0
SEQEND
  5
D71
330
D66
100
AcDbEntity
  8
0
  0
POLYLINE
  5
D72
330
1F
100
AcDbEntity
  8
0
100
AcDb2dPolyline
 66
     1
 10
0.0
 20
0.0
 30
0.0
  0
VERTEX
  5
D73
330
D72
100
AcDbEntity
  8
0
100
AcDbVertex
100
AcDb2dVertex
 10
16.15302214519281
 20
17.39926850253027
 30
0.0
  0
VERTEX
  5
D74
330
D72
100
AcDbEntity
  8
0
100
AcDbVertex
100
AcDb2dVertex
 10
16.55615201165718
 20
17.33811506969336
 30
0.0
  0
VERTEX
  5
D75
330
D72
100
AcDbEntity
  8
0
100
AcDbVertex
100
AcDb2dVertex
 10
16.55615201165718
 20
17.3083302811356
 30
0.0
  0
SEQEND
  5
D76
330
D72
100
AcDbEntity
  8
0
  0
POLYLINE
  5
D77
330
1F
100
AcDbEntity
  8
0
100
AcDb2dPolyline
 66
     1
 10
0.0
 20
0.0
 30
0.0
  0
VERTEX
  5
D78
330
D77
100
AcDbEntity
  8
0
100
AcDbVertex
100
AcDb2dVertex
 10
16.15302214519281
 20
17.59801715925022
 30
0.0
  0
VERTEX
  5
D79
330
D77
100
AcDbEntity
  8
0
100
AcDbVertex
100
AcDb2dVertex
 10
16.55615201165718
 20
17.59801715925022
 30
0.0
  0
VERTEX
  5
D7A
330
D77
100
AcDbEntity
  8
0
100
AcDbVertex
100
AcDb2dVertex
 10
16.55615201165718
 20
17.41938476333188
 30
0.0
  0
VERTEX
  5
D7B
330
D77
100
AcDbEntity
  8
0
100
AcDbVertex
100
AcDb2dVertex
 10
16.47971022061104
 20
17.41938476333188
 30
0.0
  0
VERTEX
  5
D7C
330
D77
100
AcDbEntity
  8
0
100
AcDbVertex
100
AcDb2dVertex
 10
16.47971022061104
 20
17.51352886388344
 30
0.0
  0
VERTEX
  5
D7D
330
D77
100
AcDbEntity
  8
0
100
AcDbVertex
100
AcDb2dVertex
 10
16.40487773042903
 20
17.51352886388344
 30
0.0
  0
VERTEX
  5
D7E
330
D77
100
AcDbEntity
  8
0
100
AcDbVertex
100
AcDb2dVertex
 10
16.40487773042903
 20
17.43467312154111
 30
0.0
  0
VERTEX
  5
D7F
330
D77
100
AcDbEntity
  8
0
100
AcDbVertex
100
AcDb2dVertex
 10
16.32924058981496
 20
17.43467312154111
 30
0.0
  0
VERTEX
  5
D80
330
D77
100
AcDbEntity
  8
0
100
AcDbVertex
100
AcDb2dVertex
 10
16.32924058981496
 20
17.51352886388344
 30
0.0
  0
VERTEX
  5
D81
330
D77
100
AcDbEntity
  8
0
100
AcDbVertex
100
AcDb2dVertex
 10
16.22946393623895
 20
17.51352886388344
 30
0.0
  0
VERTEX
  5
D82
330
D77
100
AcDbEntity
  8
0
100
AcDbVertex
100
AcDb2dVertex
 10
16.22946393623895
 20
17.41938476333188
 30
0.0
  0
VERTEX
  5
D83
330
D77
100
AcDbEntity
  8
0
100
AcDbVertex
100
AcDb2dVertex
 10
16.15302214519281
 20
17.41938476333188
 30
0.0
  0
VERTEX
  5
D84
330
D77
100
AcDbEntity
  8
0
100
AcDbVertex
100
AcDb2dVertex
 10
16.15302214519281
 20
17.59801715925022
 30
0.0
  0
VERTEX
  5
D85
330
D77
100
AcDbEntity
  8
0
100
AcDbVertex
100
AcDb2dVertex
 10
16.15302214519281
 20
17.59801715925022
 30
0.0
  0
SEQEND
  5
D86
330
D77
100
AcDbEntity
  8
0
  0
POLYLINE
  5
D87
330
1F
100
AcDbEntity
  8
0
100
AcDb2dPolyline
 66
     1
 10
0.0
 20
0.0
 30
0.0
  0
VERTEX
  5
D88
330
D87
100
AcDbEntity
  8
0
100
AcDbVertex
100
AcDb2dVertex
 10
16.15302214519281
 20
17.8555052975109
 30
0.0
  0
VERTEX
  5
D89
330
D87
100
AcDbEntity
  8
0
100
AcDbVertex
100
AcDb2dVertex
 10
16.55615201165718
 20
17.8555052975109
 30
0.0
  0
VERTEX
  5
D8A
330
D87
100
AcDbEntity
  8
0
100
AcDbVertex
100
AcDb2dVertex
 10
16.55615201165718
 20
17.69457521109798
 30
0.0
  0
VERTEX
  5
D8B
330
D87
100
AcDbEntity
  8
0
100
AcDbVertex
100
AcDb2dVertex
 10
16.50304508314092
 20
17.63744503042139
 30
0.0
  0
VERTEX
  5
D8C
330
D87
100
AcDbEntity
  8
0
100
AcDbVertex
100
AcDb2dVertex
 10
16.39763587654045
 20
17.63744503042139
 30
0.0
  0
VERTEX
  5
D8D
330
D87
100
AcDbEntity
  8
0
100
AcDbVertex
100
AcDb2dVertex
 10
16.35740335493722
 20
17.68250545461701
 30
0.0
  0
VERTEX
  5
D8E
330
D87
100
AcDbEntity
  8
0
100
AcDbVertex
100
AcDb2dVertex
 10
16.31797548376605
 20
17.63100782696487
 30
0.0
  0
VERTEX
  5
D8F
330
D87
100
AcDbEntity
  8
0
100
AcDbVertex
100
AcDb2dVertex
 10
16.15302214519281
 20
17.63100782696487
 30
0.0
  0
VERTEX
  5
D90
330
D87
100
AcDbEntity
  8
0
100
AcDbVertex
100
AcDb2dVertex
 10
16.15302214519281
 20
17.71549612233166
 30
0.0
  0
VERTEX
  5
D91
330
D87
100
AcDbEntity
  8
0
100
AcDbVertex
100
AcDb2dVertex
 10
16.31797548376605
 20
17.71549612233166
 30
0.0
  0
VERTEX
  5
D92
330
D87
100
AcDbEntity
  8
0
100
AcDbVertex
100
AcDb2dVertex
 10
16.31797548376605
 20
17.77101700214412
 30
0.0
  0
VERTEX
  5
D93
330
D87
100
AcDbEntity
  8
0
100
AcDbVertex
100
AcDb2dVertex
 10
16.15302214519281
 20
17.77101700214412
 30
0.0
  0
VERTEX
  5
D94
330
D87
100
AcDbEntity
  8
0
100
AcDbVertex
100
AcDb2dVertex
 10
16.15302214519281
 20
17.8555052975109
 30
0.0
  0
VERTEX
  5
D95
330
D87
100
AcDbEntity
  8
0
100
AcDbVertex
100
AcDb2dVertex
 10
16.15302214519281
 20
17.8555052975109
 30
0.0
  0
SEQEND
  5
D96
330
D87
100
AcDbEntity
  8
0
  0
POLYLINE
  5
D97
330
1F
100
AcDbEntity
  8
0
100
AcDb2dPolyline
 66
     1
 10
0.0
 20
0.0
 30
0.0
  0
VERTEX
  5
D98
330
D97
100
AcDbEntity
  8
0
100
AcDbVertex
100
AcDb2dVertex
 10
16.22865928580688
 20
17.3083302811356
 30
0.0
  0
VERTEX
  5
D99
330
D97
100
AcDbEntity
  8
0
100
AcDbVertex
100
AcDb2dVertex
 10
16.22865928580688
 20
17.30834300370696
 30
0.0
  0
VERTEX
  5
D9A
330
D97
100
AcDbEntity
  8
0
100
AcDbVertex
100
AcDb2dVertex
 10
16.15302214519281
 20
17.31638950802761
 30
0.0
  0
VERTEX
  5
D9B
330
D97
100
AcDbEntity
  8
0
100
AcDbVertex
100
AcDb2dVertex
 10
16.15302214519281
 20
17.39926850253027
 30
0.0
  0
VERTEX
  5
D9C
330
D97
100
AcDbEntity
  8
0
100
AcDbVertex
100
AcDb2dVertex
 10
16.15302214519281
 20
17.39926850253027
 30
0.0
  0
SEQEND
  5
D9D
330
D97
100
AcDbEntity
  8
0
  0
POLYLINE
  5
D9E
330
1F
100
AcDbEntity
  8
0
100
AcDb2dPolyline
 66
     1
 10
0.0
 20
0.0
 30
0.0
  0
VERTEX
  5
D9F
330
D9E
100
AcDbEntity
  8
0
100
AcDbVertex
100
AcDb2dVertex
 10
16.0669245489619
 20
17.4008778033944
 30
0.0
  0
VERTEX
  5
DA0
330
D9E
100
AcDbEntity
  8
0
100
AcDbVertex
100
AcDb2dVertex
 10
16.04278503599996
 20
17.37432433913626
 30
0.0
  0
VERTEX
  5
DA1
330
D9E
100
AcDbEntity
  8
0
100
AcDbVertex
100
AcDb2dVertex
 10
16.0009432135326
 20
17.37432433913626
 30
0.0
  0
VERTEX
  5
DA2
330
D9E
100
AcDbEntity
  8
0
100
AcDbVertex
100
AcDb2dVertex
 10
16.0009432135326
 20
17.41053360857917
 30
0.0
  0
VERTEX
  5
DA3
330
D9E
100
AcDbEntity
  8
0
100
AcDbVertex
100
AcDb2dVertex
 10
16.03393388124725
 20
17.41053360857917
 30
0.0
  0
VERTEX
  5
DA4
330
D9E
100
AcDbEntity
  8
0
100
AcDbVertex
100
AcDb2dVertex
 10
16.03393388124725
 20
17.43467312154111
 30
0.0
  0
VERTEX
  5
DA5
330
D9E
100
AcDbEntity
  8
0
100
AcDbVertex
100
AcDb2dVertex
 10
15.92691537378265
 20
17.43467312154111
 30
0.0
  0
VERTEX
  5
DA6
330
D9E
100
AcDbEntity
  8
0
100
AcDbVertex
100
AcDb2dVertex
 10
15.92691537378265
 20
17.41053360857917
 30
0.0
  0
VERTEX
  5
DA7
330
D9E
100
AcDbEntity
  8
0
100
AcDbVertex
100
AcDb2dVertex
 10
15.96795254581795
 20
17.41053360857917
 30
0.0
  0
VERTEX
  5
DA8
330
D9E
100
AcDbEntity
  8
0
100
AcDbVertex
100
AcDb2dVertex
 10
15.96795254581795
 20
17.37432433913626
 30
0.0
  0
VERTEX
  5
DA9
330
D9E
100
AcDbEntity
  8
0
100
AcDbVertex
100
AcDb2dVertex
 10
15.91806421902995
 20
17.37432433913626
 30
0.0
  0
VERTEX
  5
DAA
330
D9E
100
AcDbEntity
  8
0
100
AcDbVertex
100
AcDb2dVertex
 10
15.893924706068
 20
17.4008778033944
 30
0.0
  0
VERTEX
  5
DAB
330
D9E
100
AcDbEntity
  8
0
100
AcDbVertex
100
AcDb2dVertex
 10
15.893924706068
 20
17.44513357715795
 30
0.0
  0
VERTEX
  5
DAC
330
D9E
100
AcDbEntity
  8
0
100
AcDbVertex
100
AcDb2dVertex
 10
15.91806421902995
 20
17.47168704141608
 30
0.0
  0
VERTEX
  5
DAD
330
D9E
100
AcDbEntity
  8
0
100
AcDbVertex
100
AcDb2dVertex
 10
16.04278503599996
 20
17.47168704141608
 30
0.0
  0
VERTEX
  5
DAE
330
D9E
100
AcDbEntity
  8
0
100
AcDbVertex
100
AcDb2dVertex
 10
16.0669245489619
 20
17.44513357715795
 30
0.0
  0
VERTEX
  5
DAF
330
D9E
100
AcDbEntity
  8
0
100
AcDbVertex
100
AcDb2dVertex
 10
16.0669245489619
 20
17.4008778033944
 30
0.0
  0
VERTEX
  5
DB0
330
D9E
100
AcDbEntity
  8
0
100
AcDbVertex
100
AcDb2dVertex
 10
16.0669245489619
 20
17.4008778033944
 30
0.0
  0
SEQEND
  5
DB1
330
D9E
100
AcDbEntity
  8
0
  0
POLYLINE
  5
DB2
330
1F
100
AcDbEntity
  8
0
100
AcDb2dPolyline
 66
     1
 10
0.0
 20
0.0
 30
0.0
  0
VERTEX
  5
DB3
330
DB2
100
AcDbEntity
  8
0
100
AcDbVertex
100
AcDb2dVertex
 10
15.893924706068
 20
17.52479396993235
 30
0.0
  0
VERTEX
  5
DB4
330
DB2
100
AcDbEntity
  8
0
100
AcDbVertex
100
AcDb2dVertex
 10
16.0669245489619
 20
17.52479396993235
 30
0.0
  0
VERTEX
  5
DB5
330
DB2
100
AcDbEntity
  8
0
100
AcDbVertex
100
AcDb2dVertex
 10
16.0669245489619
 20
17.48858470048944
 30
0.0
  0
VERTEX
  5
DB6
330
DB2
100
AcDbEntity
  8
0
100
AcDbVertex
100
AcDb2dVertex
 10
15.893924706068
 20
17.48858470048944
 30
0.0
  0
VERTEX
  5
DB7
330
DB2
100
AcDbEntity
  8
0
100
AcDbVertex
100
AcDb2dVertex
 10
15.893924706068
 20
17.52479396993235
 30
0.0
  0
VERTEX
  5
DB8
330
DB2
100
AcDbEntity
  8
0
100
AcDbVertex
100
AcDb2dVertex
 10
15.893924706068
 20
17.52479396993235
 30
0.0
  0
SEQEND
  5
DB9
330
DB2
100
AcDbEntity
  8
0
  0
POLYLINE
  5
DBA
330
1F
100
AcDbEntity
  8
0
100
AcDb2dPolyline
 66
     1
 10
0.0
 20
0.0
 30
0.0
  0
VERTEX
  5
DBB
330
DBA
100
AcDbEntity
  8
0
100
AcDbVertex
100
AcDb2dVertex
 10
15.893924706068
 20
17.59962646011436
 30
0.0
  0
VERTEX
  5
DBC
330
DBA
100
AcDbEntity
  8
0
100
AcDbVertex
100
AcDb2dVertex
 10
16.03393388124725
 20
17.59962646011436
 30
0.0
  0
VERTEX
  5
DBD
330
DBA
100
AcDbEntity
  8
0
100
AcDbVertex
100
AcDb2dVertex
 10
16.03393388124725
 20
17.62537527394043
 30
0.0
  0
VERTEX
  5
DBE
330
DBA
100
AcDbEntity
  8
0
100
AcDbVertex
100
AcDb2dVertex
 10
16.0669245489619
 20
17.62537527394043
 30
0.0
  0
VERTEX
  5
DBF
330
DBA
100
AcDbEntity
  8
0
100
AcDbVertex
100
AcDb2dVertex
 10
16.0669245489619
 20
17.53766837684538
 30
0.0
  0
VERTEX
  5
DC0
330
DBA
100
AcDbEntity
  8
0
100
AcDbVertex
100
AcDb2dVertex
 10
16.03393388124725
 20
17.53766837684538
 30
0.0
  0
VERTEX
  5
DC1
330
DBA
100
AcDbEntity
  8
0
100
AcDbVertex
100
AcDb2dVertex
 10
16.03393388124725
 20
17.56341719067145
 30
0.0
  0
VERTEX
  5
DC2
330
DBA
100
AcDbEntity
  8
0
100
AcDbVertex
100
AcDb2dVertex
 10
15.893924706068
 20
17.56341719067145
 30
0.0
  0
VERTEX
  5
DC3
330
DBA
100
AcDbEntity
  8
0
100
AcDbVertex
100
AcDb2dVertex
 10
15.893924706068
 20
17.59962646011436
 30
0.0
  0
VERTEX
  5
DC4
330
DBA
100
AcDbEntity
  8
0
100
AcDbVertex
100
AcDb2dVertex
 10
15.893924706068
 20
17.59962646011436
 30
0.0
  0
SEQEND
  5
DC5
330
DBA
100
AcDbEntity
  8
0
  0
POLYLINE
  5
DC6
330
1F
100
AcDbEntity
  8
0
100
AcDb2dPolyline
 66
     1
 10
0.0
 20
0.0
 30
0.0
  0
VERTEX
  5
DC7
330
DC6
100
AcDbEntity
  8
0
100
AcDbVertex
100
AcDb2dVertex
 10
15.893924706068
 20
17.73239378140501
 30
0.0
  0
VERTEX
  5
DC8
330
DC6
100
AcDbEntity
  8
0
100
AcDbVertex
100
AcDb2dVertex
 10
16.0669245489619
 20
17.70664496757895
 30
0.0
  0
VERTEX
  5
DC9
330
DC6
100
AcDbEntity
  8
0
100
AcDbVertex
100
AcDb2dVertex
 10
16.0669245489619
 20
17.64790548603823
 30
0.0
  0
VERTEX
  5
DCA
330
DC6
100
AcDbEntity
  8
0
100
AcDbVertex
100
AcDb2dVertex
 10
15.893924706068
 20
17.62296132264423
 30
0.0
  0
VERTEX
  5
DCB
330
DC6
100
AcDbEntity
  8
0
100
AcDbVertex
100
AcDb2dVertex
 10
15.893924706068
 20
17.65917059208713
 30
0.0
  0
VERTEX
  5
DCC
330
DC6
100
AcDbEntity
  8
0
100
AcDbVertex
100
AcDb2dVertex
 10
15.92611072335059
 20
17.66319384424746
 30
0.0
  0
VERTEX
  5
DCD
330
DC6
100
AcDbEntity
  8
0
100
AcDbVertex
100
AcDb2dVertex
 10
15.92611072335059
 20
17.69377056066591
 30
0.0
  0
VERTEX
  5
DCE
330
DC6
100
AcDbEntity
  8
0
100
AcDbVertex
100
AcDb2dVertex
 10
15.893924706068
 20
17.69698916239417
 30
0.0
  0
VERTEX
  5
DCF
330
DC6
100
AcDbEntity
  8
0
100
AcDbVertex
100
AcDb2dVertex
 10
15.893924706068
 20
17.73239378140501
 30
0.0
  0
VERTEX
  5
DD0
330
DC6
100
AcDbEntity
  8
0
100
AcDbVertex
100
AcDb2dVertex
 10
15.893924706068
 20
17.73239378140501
 30
0.0
  0
SEQEND
  5
DD1
330
DC6
100
AcDbEntity
  8
0
  0
POLYLINE
  5
DD2
330
1F
100
AcDbEntity
  8
0
100
AcDb2dPolyline
 66
     1
 10
0.0
 20
0.0
 30
0.0
  0
VERTEX
  5
DD3
330
DD2
100
AcDbEntity
  8
0
100
AcDbVertex
100
AcDb2dVertex
 10
15.95910139106524
 20
17.68974730850559
 30
0.0
  0
VERTEX
  5
DD4
330
DD2
100
AcDbEntity
  8
0
100
AcDbVertex
100
AcDb2dVertex
 10
15.95910139106524
 20
17.66721709640778
 30
0.0
  0
VERTEX
  5
DD5
330
DD2
100
AcDbEntity
  8
0
100
AcDbVertex
100
AcDb2dVertex
 10
16.03473853167931
 20
17.67606825116049
 30
0.0
  0
VERTEX
  5
DD6
330
DD2
100
AcDbEntity
  8
0
100
AcDbVertex
100
AcDb2dVertex
 10
16.03473853167931
 20
17.68009150332082
 30
0.0
  0
VERTEX
  5
DD7
330
DD2
100
AcDbEntity
  8
0
100
AcDbVertex
100
AcDb2dVertex
 10
15.95910139106524
 20
17.68974730850559
 30
0.0
  0
VERTEX
  5
DD8
330
DD2
100
AcDbEntity
  8
0
100
AcDbVertex
100
AcDb2dVertex
 10
15.95910139106524
 20
17.68974730850559
 30
0.0
  0
SEQEND
  5
DD9
330
DD2
100
AcDbEntity
  8
0
  0
POLYLINE
  5
DDA
330
1F
100
AcDbEntity
  8
0
100
AcDb2dPolyline
 66
     1
 10
0.0
 20
0.0
 30
0.0
  0
VERTEX
  5
DDB
330
DDA
100
AcDbEntity
  8
0
100
AcDbVertex
100
AcDb2dVertex
 10
15.893924706068
 20
17.86757505399187
 30
0.0
  0
VERTEX
  5
DDC
330
DDA
100
AcDbEntity
  8
0
100
AcDbVertex
100
AcDb2dVertex
 10
16.0669245489619
 20
17.86757505399187
 30
0.0
  0
VERTEX
  5
DDD
330
DDA
100
AcDbEntity
  8
0
100
AcDbVertex
100
AcDb2dVertex
 10
16.0669245489619
 20
17.81929602806799
 30
0.0
  0
VERTEX
  5
DDE
330
DDA
100
AcDbEntity
  8
0
100
AcDbVertex
100
AcDb2dVertex
 10
15.9759990501386
 20
17.80400766985877
 30
0.0
  0
VERTEX
  5
DDF
330
DDA
100
AcDbEntity
  8
0
100
AcDbVertex
100
AcDb2dVertex
 10
16.0669245489619
 20
17.7895239620816
 30
0.0
  0
VERTEX
  5
DE0
330
DDA
100
AcDbEntity
  8
0
100
AcDbVertex
100
AcDb2dVertex
 10
16.0669245489619
 20
17.74124493615772
 30
0.0
  0
VERTEX
  5
DE1
330
DDA
100
AcDbEntity
  8
0
100
AcDbVertex
100
AcDb2dVertex
 10
15.893924706068
 20
17.74124493615772
 30
0.0
  0
VERTEX
  5
DE2
330
DDA
100
AcDbEntity
  8
0
100
AcDbVertex
100
AcDb2dVertex
 10
15.893924706068
 20
17.77423560387237
 30
0.0
  0
VERTEX
  5
DE3
330
DDA
100
AcDbEntity
  8
0
100
AcDbVertex
100
AcDb2dVertex
 10
16.02347342563041
 20
17.77423560387237
 30
0.0
  0
VERTEX
  5
DE4
330
DDA
100
AcDbEntity
  8
0
100
AcDbVertex
100
AcDb2dVertex
 10
15.893924706068
 20
17.79596116553812
 30
0.0
  0
VERTEX
  5
DE5
330
DDA
100
AcDbEntity
  8
0
100
AcDbVertex
100
AcDb2dVertex
 10
15.893924706068
 20
17.81205417417941
 30
0.0
  0
VERTEX
  5
DE6
330
DDA
100
AcDbEntity
  8
0
100
AcDbVertex
100
AcDb2dVertex
 10
16.02508272649454
 20
17.83377973584515
 30
0.0
  0
VERTEX
  5
DE7
330
DDA
100
AcDbEntity
  8
0
100
AcDbVertex
100
AcDb2dVertex
 10
15.893924706068
 20
17.83377973584515
 30
0.0
  0
VERTEX
  5
DE8
330
DDA
100
AcDbEntity
  8
0
100
AcDbVertex
100
AcDb2dVertex
 10
15.893924706068
 20
17.86757505399187
 30
0.0
  0
VERTEX
  5
DE9
330
DDA
100
AcDbEntity
  8
0
100
AcDbVertex
100
AcDb2dVertex
 10
15.893924706068
 20
17.86757505399187
 30
0.0
  0
SEQEND
  5
DEA
330
DDA
100
AcDbEntity
  8
0
  0
POLYLINE
  5
DEB
330
1F
100
AcDbEntity
  8
0
100
AcDb2dPolyline
 66
     1
 10
0.0
 20
0.0
 30
0.0
  0
VERTEX
  5
DEC
330
DEB
100
AcDbEntity
  8
0
100
AcDbVertex
100
AcDb2dVertex
 10
15.91806421902995
 20
17.97781216318472
 30
0.0
  0
VERTEX
  5
DED
330
DEB
100
AcDbEntity
  8
0
100
AcDbVertex
100
AcDb2dVertex
 10
16.04278503599996
 20
17.97781216318472
 30
0.0
  0
VERTEX
  5
DEE
330
DEB
100
AcDbEntity
  8
0
100
AcDbVertex
100
AcDb2dVertex
 10
16.0669245489619
 20
17.95206334935866
 30
0.0
  0
VERTEX
  5
DEF
330
DEB
100
AcDbEntity
  8
0
100
AcDbVertex
100
AcDb2dVertex
 10
16.0669245489619
 20
17.90700292516304
 30
0.0
  0
VERTEX
  5
DF0
330
DEB
100
AcDbEntity
  8
0
100
AcDbVertex
100
AcDb2dVertex
 10
16.04278503599996
 20
17.88205876176904
 30
0.0
  0
VERTEX
  5
DF1
330
DEB
100
AcDbEntity
  8
0
100
AcDbVertex
100
AcDb2dVertex
 10
15.91806421902995
 20
17.88205876176904
 30
0.0
  0
VERTEX
  5
DF2
330
DEB
100
AcDbEntity
  8
0
100
AcDbVertex
100
AcDb2dVertex
 10
15.893924706068
 20
17.90700292516304
 30
0.0
  0
VERTEX
  5
DF3
330
DEB
100
AcDbEntity
  8
0
100
AcDbVertex
100
AcDb2dVertex
 10
15.893924706068
 20
17.95206334935866
 30
0.0
  0
VERTEX
  5
DF4
330
DEB
100
AcDbEntity
  8
0
100
AcDbVertex
100
AcDb2dVertex
 10
15.91806421902995
 20
17.97781216318472
 30
0.0
  0
VERTEX
  5
DF5
330
DEB
100
AcDbEntity
  8
0
100
AcDbVertex
100
AcDb2dVertex
 10
15.91806421902995
 20
17.97781216318472
 30
0.0
  0
SEQEND
  5
DF6
330
DEB
100
AcDbEntity
  8
0
  0
POLYLINE
  5
DF7
330
1F
100
AcDbEntity
  8
0
100
AcDb2dPolyline
 66
     1
 10
0.0
 20
0.0
 30
0.0
  0
VERTEX
  5
DF8
330
DF7
100
AcDbEntity
  8
0
100
AcDbVertex
100
AcDb2dVertex
 10
15.92691537378265
 20
17.94160289374181
 30
0.0
  0
VERTEX
  5
DF9
330
DF7
100
AcDbEntity
  8
0
100
AcDbVertex
100
AcDb2dVertex
 10
15.92691537378265
 20
17.91826803121194
 30
0.0
  0
VERTEX
  5
DFA
330
DF7
100
AcDbEntity
  8
0
100
AcDbVertex
100
AcDb2dVertex
 10
16.03393388124725
 20
17.91826803121194
 30
0.0
  0
VERTEX
  5
DFB
330
DF7
100
AcDbEntity
  8
0
100
AcDbVertex
100
AcDb2dVertex
 10
16.03393388124725
 20
17.94160289374181
 30
0.0
  0
VERTEX
  5
DFC
330
DF7
100
AcDbEntity
  8
0
100
AcDbVertex
100
AcDb2dVertex
 10
15.92691537378265
 20
17.94160289374181
 30
0.0
  0
VERTEX
  5
DFD
330
DF7
100
AcDbEntity
  8
0
100
AcDbVertex
100
AcDb2dVertex
 10
15.92691537378265
 20
17.94160289374181
 30
0.0
  0
SEQEND
  5
DFE
330
DF7
100
AcDbEntity
  8
0
  0
POLYLINE
  5
DFF
330
1F
100
AcDbEntity
  8
0
100
AcDb2dPolyline
 66
     1
 10
0.0
 20
0.0
 30
0.0
  0
VERTEX
  5
E00
330
DFF
100
AcDbEntity
  8
0
100
AcDbVertex
100
AcDb2dVertex
 10
16.39361262438013
 20
17.71549612233166
 30
0.0
  0
VERTEX
  5
E01
330
DFF
100
AcDbEntity
  8
0
100
AcDbVertex
100
AcDb2dVertex
 10
16.47971022061104
 20
17.71549612233166
 30
0.0
  0
VERTEX
  5
E02
330
DFF
100
AcDbEntity
  8
0
100
AcDbVertex
100
AcDb2dVertex
 10
16.47971022061104
 20
17.77101700214412
 30
0.0
  0
VERTEX
  5
E03
330
DFF
100
AcDbEntity
  8
0
100
AcDbVertex
100
AcDb2dVertex
 10
16.39361262438013
 20
17.77101700214412
 30
0.0
  0
VERTEX
  5
E04
330
DFF
100
AcDbEntity
  8
0
100
AcDbVertex
100
AcDb2dVertex
 10
16.39361262438013
 20
17.71549612233166
 30
0.0
  0
VERTEX
  5
E05
330
DFF
100
AcDbEntity
  8
0
100
AcDbVertex
100
AcDb2dVertex
 10
16.39361262438013
 20
17.71549612233166
 30
0.0
  0
SEQEND
  5
E06
330
DFF
100
AcDbEntity
  8
0
  0
POLYLINE
  5
E07
330
1F
100
AcDbEntity
  8
0
100
AcDb2dPolyline
 66
     1
 10
0.0
 20
0.0
 30
0.0
  0
VERTEX
  5
E08
330
E07
100
AcDbEntity
  8
0
100
AcDbVertex
100
AcDb2dVertex
 10
15.89392470606801
 20
19.46802476336838
 30
0.0
  0
VERTEX
  5
E09
330
E07
100
AcDbEntity
  8
0
100
AcDbVertex
100
AcDb2dVertex
 10
16.42982189382304
 20
19.46802476336838
 30
0.0
  0
VERTEX
  5
E0A
330
E07
100
AcDbEntity
  8
0
100
AcDbVertex
100
AcDb2dVertex
 10
16.42982189382304
 20
19.5653874656482
 30
0.0
  0
VERTEX
  5
E0B
330
E07
100
AcDbEntity
  8
0
100
AcDbVertex
100
AcDb2dVertex
 10
16.55615201165718
 20
19.5653874656482
 30
0.0
  0
VERTEX
  5
E0C
330
E07
100
AcDbEntity
  8
0
100
AcDbVertex
100
AcDb2dVertex
 10
16.55615201165718
 20
19.23065288590932
 30
0.0
  0
VERTEX
  5
E0D
330
E07
100
AcDbEntity
  8
0
100
AcDbVertex
100
AcDb2dVertex
 10
16.42982189382303
 20
19.23065288590932
 30
0.0
  0
VERTEX
  5
E0E
330
E07
100
AcDbEntity
  8
0
100
AcDbVertex
100
AcDb2dVertex
 10
16.42982189382303
 20
19.3288202386212
 30
0.0
  0
VERTEX
  5
E0F
330
E07
100
AcDbEntity
  8
0
100
AcDbVertex
100
AcDb2dVertex
 10
15.893924706068
 20
19.3288202386212
 30
0.0
  0
VERTEX
  5
E10
330
E07
100
AcDbEntity
  8
0
100
AcDbVertex
100
AcDb2dVertex
 10
15.89392470606801
 20
19.46802476336838
 30
0.0
  0
VERTEX
  5
E11
330
E07
100
AcDbEntity
  8
0
100
AcDbVertex
100
AcDb2dVertex
 10
15.89392470606801
 20
19.46802476336838
 30
0.0
  0
SEQEND
  5
E12
330
E07
100
AcDbEntity
  8
0
  0
POLYLINE
  5
E13
330
1F
100
AcDbEntity
  8
0
100
AcDb2dPolyline
 66
     1
 10
0.0
 20
0.0
 30
0.0
  0
VERTEX
  5
E14
330
E13
100
AcDbEntity
  8
0
100
AcDbVertex
100
AcDb2dVertex
 10
15.893924706068
 20
18.82913232030908
 30
0.0
  0
VERTEX
  5
E15
330
E13
100
AcDbEntity
  8
0
100
AcDbVertex
100
AcDb2dVertex
 10
16.55615201165718
 20
18.82913232030908
 30
0.0
  0
VERTEX
  5
E16
330
E13
100
AcDbEntity
  8
0
100
AcDbVertex
100
AcDb2dVertex
 10
16.55615201165718
 20
18.56520697859189
 30
0.0
  0
VERTEX
  5
E17
330
E13
100
AcDbEntity
  8
0
100
AcDbVertex
100
AcDb2dVertex
 10
16.46844511456214
 20
18.47186752847239
 30
0.0
  0
VERTEX
  5
E18
330
E13
100
AcDbEntity
  8
0
100
AcDbVertex
100
AcDb2dVertex
 10
16.29544527166824
 20
18.47186752847239
 30
0.0
  0
VERTEX
  5
E19
330
E13
100
AcDbEntity
  8
0
100
AcDbVertex
100
AcDb2dVertex
 10
16.22946393623895
 20
18.54589536822234
 30
0.0
  0
VERTEX
  5
E1A
330
E13
100
AcDbEntity
  8
0
100
AcDbVertex
100
AcDb2dVertex
 10
16.16509190167378
 20
18.46060242242349
 30
0.0
  0
VERTEX
  5
E1B
330
E13
100
AcDbEntity
  8
0
100
AcDbVertex
100
AcDb2dVertex
 10
15.893924706068
 20
18.46060242242349
 30
0.0
  0
VERTEX
  5
E1C
330
E13
100
AcDbEntity
  8
0
100
AcDbVertex
100
AcDb2dVertex
 10
15.893924706068
 20
18.59980694717066
 30
0.0
  0
VERTEX
  5
E1D
330
E13
100
AcDbEntity
  8
0
100
AcDbVertex
100
AcDb2dVertex
 10
16.16509190167378
 20
18.59980694717066
 30
0.0
  0
VERTEX
  5
E1E
330
E13
100
AcDbEntity
  8
0
100
AcDbVertex
100
AcDb2dVertex
 10
16.16509190167378
 20
18.69073244599396
 30
0.0
  0
VERTEX
  5
E1F
330
E13
100
AcDbEntity
  8
0
100
AcDbVertex
100
AcDb2dVertex
 10
15.893924706068
 20
18.69073244599396
 30
0.0
  0
VERTEX
  5
E20
330
E13
100
AcDbEntity
  8
0
100
AcDbVertex
100
AcDb2dVertex
 10
15.893924706068
 20
18.82913232030908
 30
0.0
  0
VERTEX
  5
E21
330
E13
100
AcDbEntity
  8
0
100
AcDbVertex
100
AcDb2dVertex
 10
15.893924706068
 20
18.82913232030908
 30
0.0
  0
SEQEND
  5
E22
330
E13
100
AcDbEntity
  8
0
  0
POLYLINE
  5
E23
330
1F
100
AcDbEntity
  8
0
100
AcDb2dPolyline
 66
     1
 10
0.0
 20
0.0
 30
0.0
  0
VERTEX
  5
E24
330
E23
100
AcDbEntity
  8
0
100
AcDbVertex
100
AcDb2dVertex
 10
15.893924706068
 20
19.1831785104175
 30
0.0
  0
VERTEX
  5
E25
330
E23
100
AcDbEntity
  8
0
100
AcDbVertex
100
AcDb2dVertex
 10
16.55615201165718
 20
19.1831785104175
 30
0.0
  0
VERTEX
  5
E26
330
E23
100
AcDbEntity
  8
0
100
AcDbVertex
100
AcDb2dVertex
 10
16.55615201165718
 20
18.88948110271392
 30
0.0
  0
VERTEX
  5
E27
330
E23
100
AcDbEntity
  8
0
100
AcDbVertex
100
AcDb2dVertex
 10
16.42982189382303
 20
18.88948110271392
 30
0.0
  0
VERTEX
  5
E28
330
E23
100
AcDbEntity
  8
0
100
AcDbVertex
100
AcDb2dVertex
 10
16.42982189382303
 20
19.04397398567033
 30
0.0
  0
VERTEX
  5
E29
330
E23
100
AcDbEntity
  8
0
100
AcDbVertex
100
AcDb2dVertex
 10
16.30831967858128
 20
19.04397398567033
 30
0.0
  0
VERTEX
  5
E2A
330
E23
100
AcDbEntity
  8
0
100
AcDbVertex
100
AcDb2dVertex
 10
16.30831967858128
 20
18.91522991653999
 30
0.0
  0
VERTEX
  5
E2B
330
E23
100
AcDbEntity
  8
0
100
AcDbVertex
100
AcDb2dVertex
 10
16.1827942111792
 20
18.91522991653999
 30
0.0
  0
VERTEX
  5
E2C
330
E23
100
AcDbEntity
  8
0
100
AcDbVertex
100
AcDb2dVertex
 10
16.1827942111792
 20
19.04397398567033
 30
0.0
  0
VERTEX
  5
E2D
330
E23
100
AcDbEntity
  8
0
100
AcDbVertex
100
AcDb2dVertex
 10
16.01945017347009
 20
19.04397398567033
 30
0.0
  0
VERTEX
  5
E2E
330
E23
100
AcDbEntity
  8
0
100
AcDbVertex
100
AcDb2dVertex
 10
16.01945017347009
 20
18.88948110271392
 30
0.0
  0
VERTEX
  5
E2F
330
E23
100
AcDbEntity
  8
0
100
AcDbVertex
100
AcDb2dVertex
 10
15.893924706068
 20
18.88948110271392
 30
0.0
  0
VERTEX
  5
E30
330
E23
100
AcDbEntity
  8
0
100
AcDbVertex
100
AcDb2dVertex
 10
15.893924706068
 20
19.1831785104175
 30
0.0
  0
VERTEX
  5
E31
330
E23
100
AcDbEntity
  8
0
100
AcDbVertex
100
AcDb2dVertex
 10
15.893924706068
 20
19.1831785104175
 30
0.0
  0
SEQEND
  5
E32
330
E23
100
AcDbEntity
  8
0
  0
POLYLINE
  5
E33
330
1F
100
AcDbEntity
  8
0
100
AcDb2dPolyline
 66
     1
 10
0.0
 20
0.0
 30
0.0
  0
VERTEX
  5
E34
330
E33
100
AcDbEntity
  8
0
100
AcDbVertex
100
AcDb2dVertex
 10
16.28257086475521
 20
18.34151415847793
 30
0.0
  0
VERTEX
  5
E35
330
E33
100
AcDbEntity
  8
0
100
AcDbVertex
100
AcDb2dVertex
 10
16.28257086475521
 20
18.25702586311114
 30
0.0
  0
VERTEX
  5
E36
330
E33
100
AcDbEntity
  8
0
100
AcDbVertex
100
AcDb2dVertex
 10
16.22946393623895
 20
18.25702586311114
 30
0.0
  0
VERTEX
  5
E37
330
E33
100
AcDbEntity
  8
0
100
AcDbVertex
100
AcDb2dVertex
 10
16.22946393623895
 20
18.20230963373075
 30
0.0
  0
VERTEX
  5
E38
330
E33
100
AcDbEntity
  8
0
100
AcDbVertex
100
AcDb2dVertex
 10
16.31314758117367
 20
18.20230963373075
 30
0.0
  0
VERTEX
  5
E39
330
E33
100
AcDbEntity
  8
0
100
AcDbVertex
100
AcDb2dVertex
 10
16.31958478463019
 20
18.27714212391276
 30
0.0
  0
VERTEX
  5
E3A
330
E33
100
AcDbEntity
  8
0
100
AcDbVertex
100
AcDb2dVertex
 10
16.3783242661709
 20
18.34151415847793
 30
0.0
  0
VERTEX
  5
E3B
330
E33
100
AcDbEntity
  8
0
100
AcDbVertex
100
AcDb2dVertex
 10
16.50063113184472
 20
18.34151415847793
 30
0.0
  0
VERTEX
  5
E3C
330
E33
100
AcDbEntity
  8
0
100
AcDbVertex
100
AcDb2dVertex
 10
16.55615201165718
 20
18.28197002650514
 30
0.0
  0
VERTEX
  5
E3D
330
E33
100
AcDbEntity
  8
0
100
AcDbVertex
100
AcDb2dVertex
 10
16.55615201165718
 20
18.18541197465739
 30
0.0
  0
VERTEX
  5
E3E
330
E33
100
AcDbEntity
  8
0
100
AcDbVertex
100
AcDb2dVertex
 10
16.50063113184472
 20
18.12506319225255
 30
0.0
  0
VERTEX
  5
E3F
330
E33
100
AcDbEntity
  8
0
100
AcDbVertex
100
AcDb2dVertex
 10
16.42499399123065
 20
18.12506319225255
 30
0.0
  0
VERTEX
  5
E40
330
E33
100
AcDbEntity
  8
0
100
AcDbVertex
100
AcDb2dVertex
 10
16.42499399123065
 20
18.20230963373075
 30
0.0
  0
VERTEX
  5
E41
330
E33
100
AcDbEntity
  8
0
100
AcDbVertex
100
AcDb2dVertex
 10
16.47971022061104
 20
18.20230963373075
 30
0.0
  0
VERTEX
  5
E42
330
E33
100
AcDbEntity
  8
0
100
AcDbVertex
100
AcDb2dVertex
 10
16.47971022061104
 20
18.25702586311114
 30
0.0
  0
VERTEX
  5
E43
330
E33
100
AcDbEntity
  8
0
100
AcDbVertex
100
AcDb2dVertex
 10
16.39844052697252
 20
18.25702586311114
 30
0.0
  0
VERTEX
  5
E44
330
E33
100
AcDbEntity
  8
0
100
AcDbVertex
100
AcDb2dVertex
 10
16.392003323516
 20
18.18219337292913
 30
0.0
  0
VERTEX
  5
E45
330
E33
100
AcDbEntity
  8
0
100
AcDbVertex
100
AcDb2dVertex
 10
16.33245919154322
 20
18.1170166879319
 30
0.0
  0
VERTEX
  5
E46
330
E33
100
AcDbEntity
  8
0
100
AcDbVertex
100
AcDb2dVertex
 10
16.20854302500527
 20
18.1170166879319
 30
0.0
  0
VERTEX
  5
E47
330
E33
100
AcDbEntity
  8
0
100
AcDbVertex
100
AcDb2dVertex
 10
16.15302214519281
 20
18.17656081990468
 30
0.0
  0
VERTEX
  5
E48
330
E33
100
AcDbEntity
  8
0
100
AcDbVertex
100
AcDb2dVertex
 10
16.15302214519281
 20
18.28197002650514
 30
0.0
  0
VERTEX
  5
E49
330
E33
100
AcDbEntity
  8
0
100
AcDbVertex
100
AcDb2dVertex
 10
16.20854302500527
 20
18.34151415847793
 30
0.0
  0
VERTEX
  5
E4A
330
E33
100
AcDbEntity
  8
0
100
AcDbVertex
100
AcDb2dVertex
 10
16.28257086475521
 20
18.34151415847793
 30
0.0
  0
VERTEX
  5
E4B
330
E33
100
AcDbEntity
  8
0
100
AcDbVertex
100
AcDb2dVertex
 10
16.28257086475521
 20
18.34151415847793
 30
0.0
  0
SEQEND
  5
E4C
330
E33
100
AcDbEntity
  8
0
  0
POLYLINE
  5
E4D
330
1F
100
AcDbEntity
  8
0
100
AcDb2dPolyline
 66
     1
 10
0.0
 20
0.0
 30
0.0
  0
VERTEX
  5
E4E
330
E4D
100
AcDbEntity
  8
0
100
AcDbVertex
100
AcDb2dVertex
 10
15.91806421902995
 20
18.18541197465739
 30
0.0
  0
VERTEX
  5
E4F
330
E4D
100
AcDbEntity
  8
0
100
AcDbVertex
100
AcDb2dVertex
 10
16.0669245489619
 20
18.18541197465739
 30
0.0
  0
VERTEX
  5
E50
330
E4D
100
AcDbEntity
  8
0
100
AcDbVertex
100
AcDb2dVertex
 10
16.0669245489619
 20
18.14920270521448
 30
0.0
  0
VERTEX
  5
E51
330
E4D
100
AcDbEntity
  8
0
100
AcDbVertex
100
AcDb2dVertex
 10
15.92691537378265
 20
18.14920270521448
 30
0.0
  0
VERTEX
  5
E52
330
E4D
100
AcDbEntity
  8
0
100
AcDbVertex
100
AcDb2dVertex
 10
15.92691537378265
 20
18.12586784268461
 30
0.0
  0
VERTEX
  5
E53
330
E4D
100
AcDbEntity
  8
0
100
AcDbVertex
100
AcDb2dVertex
 10
16.0669245489619
 20
18.12586784268461
 30
0.0
  0
VERTEX
  5
E54
330
E4D
100
AcDbEntity
  8
0
100
AcDbVertex
100
AcDb2dVertex
 10
16.0669245489619
 20
18.08965857324171
 30
0.0
  0
VERTEX
  5
E55
330
E4D
100
AcDbEntity
  8
0
100
AcDbVertex
100
AcDb2dVertex
 10
15.91806421902995
 20
18.08965857324171
 30
0.0
  0
VERTEX
  5
E56
330
E4D
100
AcDbEntity
  8
0
100
AcDbVertex
100
AcDb2dVertex
 10
15.893924706068
 20
18.1146027366357
 30
0.0
  0
VERTEX
  5
E57
330
E4D
100
AcDbEntity
  8
0
100
AcDbVertex
100
AcDb2dVertex
 10
15.893924706068
 20
18.15966316083132
 30
0.0
  0
VERTEX
  5
E58
330
E4D
100
AcDbEntity
  8
0
100
AcDbVertex
100
AcDb2dVertex
 10
15.91806421902995
 20
18.18541197465739
 30
0.0
  0
VERTEX
  5
E59
330
E4D
100
AcDbEntity
  8
0
100
AcDbVertex
100
AcDb2dVertex
 10
15.91806421902995
 20
18.18541197465739
 30
0.0
  0
SEQEND
  5
E5A
330
E4D
100
AcDbEntity
  8
0
  0
POLYLINE
  5
E5B
330
1F
100
AcDbEntity
  8
0
100
AcDb2dPolyline
 66
     1
 10
0.0
 20
0.0
 30
0.0
  0
VERTEX
  5
E5C
330
E5B
100
AcDbEntity
  8
0
100
AcDbVertex
100
AcDb2dVertex
 10
15.893924706068
 20
18.30610953946708
 30
0.0
  0
VERTEX
  5
E5D
330
E5B
100
AcDbEntity
  8
0
100
AcDbVertex
100
AcDb2dVertex
 10
16.0669245489619
 20
18.27955607520895
 30
0.0
  0
VERTEX
  5
E5E
330
E5B
100
AcDbEntity
  8
0
100
AcDbVertex
100
AcDb2dVertex
 10
16.0669245489619
 20
18.2216212441003
 30
0.0
  0
VERTEX
  5
E5F
330
E5B
100
AcDbEntity
  8
0
100
AcDbVertex
100
AcDb2dVertex
 10
15.893924706068
 20
18.19667708070628
 30
0.0
  0
VERTEX
  5
E60
330
E5B
100
AcDbEntity
  8
0
100
AcDbVertex
100
AcDb2dVertex
 10
15.893924706068
 20
18.2328863501492
 30
0.0
  0
VERTEX
  5
E61
330
E5B
100
AcDbEntity
  8
0
100
AcDbVertex
100
AcDb2dVertex
 10
15.92611072335059
 20
18.23690960230952
 30
0.0
  0
VERTEX
  5
E62
330
E5B
100
AcDbEntity
  8
0
100
AcDbVertex
100
AcDb2dVertex
 10
15.92611072335059
 20
18.26748631872798
 30
0.0
  0
VERTEX
  5
E63
330
E5B
100
AcDbEntity
  8
0
100
AcDbVertex
100
AcDb2dVertex
 10
15.893924706068
 20
18.27070492045624
 30
0.0
  0
VERTEX
  5
E64
330
E5B
100
AcDbEntity
  8
0
100
AcDbVertex
100
AcDb2dVertex
 10
15.893924706068
 20
18.30610953946708
 30
0.0
  0
VERTEX
  5
E65
330
E5B
100
AcDbEntity
  8
0
100
AcDbVertex
100
AcDb2dVertex
 10
15.893924706068
 20
18.30610953946708
 30
0.0
  0
SEQEND
  5
E66
330
E5B
100
AcDbEntity
  8
0
  0
POLYLINE
  5
E67
330
1F
100
AcDbEntity
  8
0
100
AcDb2dPolyline
 66
     1
 10
0.0
 20
0.0
 30
0.0
  0
VERTEX
  5
E68
330
E67
100
AcDbEntity
  8
0
100
AcDbVertex
100
AcDb2dVertex
 10
15.95910139106524
 20
18.26265841613559
 30
0.0
  0
VERTEX
  5
E69
330
E67
100
AcDbEntity
  8
0
100
AcDbVertex
100
AcDb2dVertex
 10
15.95910139106524
 20
18.24093285446984
 30
0.0
  0
VERTEX
  5
E6A
330
E67
100
AcDbEntity
  8
0
100
AcDbVertex
100
AcDb2dVertex
 10
16.03473853167931
 20
18.24978400922256
 30
0.0
  0
VERTEX
  5
E6B
330
E67
100
AcDbEntity
  8
0
100
AcDbVertex
100
AcDb2dVertex
 10
16.03473853167931
 20
18.25380726138288
 30
0.0
  0
VERTEX
  5
E6C
330
E67
100
AcDbEntity
  8
0
100
AcDbVertex
100
AcDb2dVertex
 10
15.95910139106524
 20
18.26265841613559
 30
0.0
  0
VERTEX
  5
E6D
330
E67
100
AcDbEntity
  8
0
100
AcDbVertex
100
AcDb2dVertex
 10
15.95910139106524
 20
18.26265841613559
 30
0.0
  0
SEQEND
  5
E6E
330
E67
100
AcDbEntity
  8
0
  0
POLYLINE
  5
E6F
330
1F
100
AcDbEntity
  8
0
100
AcDb2dPolyline
 66
     1
 10
0.0
 20
0.0
 30
0.0
  0
VERTEX
  5
E70
330
E6F
100
AcDbEntity
  8
0
100
AcDbVertex
100
AcDb2dVertex
 10
16.28900806821173
 20
18.59980694717066
 30
0.0
  0
VERTEX
  5
E71
330
E6F
100
AcDbEntity
  8
0
100
AcDbVertex
100
AcDb2dVertex
 10
16.42982189382303
 20
18.59980694717066
 30
0.0
  0
VERTEX
  5
E72
330
E6F
100
AcDbEntity
  8
0
100
AcDbVertex
100
AcDb2dVertex
 10
16.42982189382303
 20
18.69073244599396
 30
0.0
  0
VERTEX
  5
E73
330
E6F
100
AcDbEntity
  8
0
100
AcDbVertex
100
AcDb2dVertex
 10
16.28900806821173
 20
18.69073244599396
 30
0.0
  0
VERTEX
  5
E74
330
E6F
100
AcDbEntity
  8
0
100
AcDbVertex
100
AcDb2dVertex
 10
16.28900806821173
 20
18.59980694717066
 30
0.0
  0
VERTEX
  5
E75
330
E6F
100
AcDbEntity
  8
0
100
AcDbVertex
100
AcDb2dVertex
 10
16.28900806821173
 20
18.59980694717066
 30
0.0
  0
SEQEND
  5
E76
330
E6F
100
AcDbEntity
  8
0
  0
POLYLINE
  5
E77
330
1F
100
AcDbEntity
  8
0
100
AcDb2dPolyline
 66
     1
 10
0.0
 20
0.0
 30
0.0
  0
VERTEX
  5
E78
330
E77
100
AcDbEntity
  8
0
100
AcDbVertex
100
AcDb2dVertex
 10
16.10715707056513
 20
19.98219638945766
 30
0.0
  0
VERTEX
  5
E79
330
E77
100
AcDbEntity
  8
0
100
AcDbVertex
100
AcDb2dVertex
 10
16.10715707056513
 20
19.84299186471048
 30
0.0
  0
VERTEX
  5
E7A
330
E77
100
AcDbEntity
  8
0
100
AcDbVertex
100
AcDb2dVertex
 10
16.01945017347009
 20
19.84299186471048
 30
0.0
  0
VERTEX
  5
E7B
330
E77
100
AcDbEntity
  8
0
100
AcDbVertex
100
AcDb2dVertex
 10
16.01945017347009
 20
19.75287101631925
 30
0.0
  0
VERTEX
  5
E7C
330
E77
100
AcDbEntity
  8
0
100
AcDbVertex
100
AcDb2dVertex
 10
16.15624074692107
 20
19.75287101631925
 30
0.0
  0
VERTEX
  5
E7D
330
E77
100
AcDbEntity
  8
0
100
AcDbVertex
100
AcDb2dVertex
 10
16.16670120253791
 20
19.87517788199307
 30
0.0
  0
VERTEX
  5
E7E
330
E77
100
AcDbEntity
  8
0
100
AcDbVertex
100
AcDb2dVertex
 10
16.26406390481773
 20
19.98219638945766
 30
0.0
  0
VERTEX
  5
E7F
330
E77
100
AcDbEntity
  8
0
100
AcDbVertex
100
AcDb2dVertex
 10
16.46522651283388
 20
19.98219638945766
 30
0.0
  0
VERTEX
  5
E80
330
E77
100
AcDbEntity
  8
0
100
AcDbVertex
100
AcDb2dVertex
 10
16.55615201165718
 20
19.88483368717784
 30
0.0
  0
VERTEX
  5
E81
330
E77
100
AcDbEntity
  8
0
100
AcDbVertex
100
AcDb2dVertex
 10
16.55615201165718
 20
19.72551290162905
 30
0.0
  0
VERTEX
  5
E82
330
E77
100
AcDbEntity
  8
0
100
AcDbVertex
100
AcDb2dVertex
 10
16.46522651283388
 20
19.62654089848511
 30
0.0
  0
VERTEX
  5
E83
330
E77
100
AcDbEntity
  8
0
100
AcDbVertex
100
AcDb2dVertex
 10
16.34131034629593
 20
19.62654089848511
 30
0.0
  0
VERTEX
  5
E84
330
E77
100
AcDbEntity
  8
0
100
AcDbVertex
100
AcDb2dVertex
 10
16.34131034629593
 20
19.75287101631925
 30
0.0
  0
VERTEX
  5
E85
330
E77
100
AcDbEntity
  8
0
100
AcDbVertex
100
AcDb2dVertex
 10
16.42982189382304
 20
19.75287101631925
 30
0.0
  0
VERTEX
  5
E86
330
E77
100
AcDbEntity
  8
0
100
AcDbVertex
100
AcDb2dVertex
 10
16.42982189382304
 20
19.84299186471048
 30
0.0
  0
VERTEX
  5
E87
330
E77
100
AcDbEntity
  8
0
100
AcDbVertex
100
AcDb2dVertex
 10
16.29705457253238
 20
19.84299186471048
 30
0.0
  0
VERTEX
  5
E88
330
E77
100
AcDbEntity
  8
0
100
AcDbVertex
100
AcDb2dVertex
 10
16.28659411691554
 20
19.72068499903667
 30
0.0
  0
VERTEX
  5
E89
330
E77
100
AcDbEntity
  8
0
100
AcDbVertex
100
AcDb2dVertex
 10
16.18923141463572
 20
19.61366649157207
 30
0.0
  0
VERTEX
  5
E8A
330
E77
100
AcDbEntity
  8
0
100
AcDbVertex
100
AcDb2dVertex
 10
15.98485020489131
 20
19.61366649157207
 30
0.0
  0
VERTEX
  5
E8B
330
E77
100
AcDbEntity
  8
0
100
AcDbVertex
100
AcDb2dVertex
 10
15.89392470606801
 20
19.71102919385189
 30
0.0
  0
VERTEX
  5
E8C
330
E77
100
AcDbEntity
  8
0
100
AcDbVertex
100
AcDb2dVertex
 10
15.89392470606801
 20
19.88483368717784
 30
0.0
  0
VERTEX
  5
E8D
330
E77
100
AcDbEntity
  8
0
100
AcDbVertex
100
AcDb2dVertex
 10
15.98485020489131
 20
19.98219638945766
 30
0.0
  0
VERTEX
  5
E8E
330
E77
100
AcDbEntity
  8
0
100
AcDbVertex
100
AcDb2dVertex
 10
16.10715707056513
 20
19.98219638945766
 30
0.0
  0
VERTEX
  5
E8F
330
E77
100
AcDbEntity
  8
0
100
AcDbVertex
100
AcDb2dVertex
 10
16.10715707056513
 20
19.98219638945766
 30
0.0
  0
SEQEND
  5
E90
330
E77
100
AcDbEntity
  8
0
  0
POLYLINE
  5
E91
330
1F
100
AcDbEntity
  8
0
100
AcDb2dPolyline
 66
     1
 10
0.0
 20
0.0
 30
0.0
  0
VERTEX
  5
E92
330
E91
100
AcDbEntity
  8
0
100
AcDbVertex
100
AcDb2dVertex
 10
15.89392470606801
 20
20.44567503832688
 30
0.0
  0
VERTEX
  5
E93
330
E91
100
AcDbEntity
  8
0
100
AcDbVertex
100
AcDb2dVertex
 10
16.55615201165718
 20
20.34428908388674
 30
0.0
  0
VERTEX
  5
E94
330
E91
100
AcDbEntity
  8
0
100
AcDbVertex
100
AcDb2dVertex
 10
16.55615201165718
 20
20.12140091420484
 30
0.0
  0
VERTEX
  5
E95
330
E91
100
AcDbEntity
  8
0
100
AcDbVertex
100
AcDb2dVertex
 10
15.89392470606801
 20
20.02403821192503
 30
0.0
  0
VERTEX
  5
E96
330
E91
100
AcDbEntity
  8
0
100
AcDbVertex
100
AcDb2dVertex
 10
15.89392470606801
 20
20.16485203753633
 30
0.0
  0
VERTEX
  5
E97
330
E91
100
AcDbEntity
  8
0
100
AcDbVertex
100
AcDb2dVertex
 10
16.01784087260596
 20
20.18014039574556
 30
0.0
  0
VERTEX
  5
E98
330
E91
100
AcDbEntity
  8
0
100
AcDbVertex
100
AcDb2dVertex
 10
16.01784087260596
 20
20.2952054075308
 30
0.0
  0
VERTEX
  5
E99
330
E91
100
AcDbEntity
  8
0
100
AcDbVertex
100
AcDb2dVertex
 10
15.89392470606801
 20
20.30968911530796
 30
0.0
  0
VERTEX
  5
E9A
330
E91
100
AcDbEntity
  8
0
100
AcDbVertex
100
AcDb2dVertex
 10
15.89392470606801
 20
20.44567503832688
 30
0.0
  0
VERTEX
  5
E9B
330
E91
100
AcDbEntity
  8
0
100
AcDbVertex
100
AcDb2dVertex
 10
15.89392470606801
 20
20.44567503832688
 30
0.0
  0
SEQEND
  5
E9C
330
E91
100
AcDbEntity
  8
0
  0
POLYLINE
  5
E9D
330
1F
100
AcDbEntity
  8
0
100
AcDb2dPolyline
 66
     1
 10
0.0
 20
0.0
 30
0.0
  0
VERTEX
  5
E9E
330
E9D
100
AcDbEntity
  8
0
100
AcDbVertex
100
AcDb2dVertex
 10
16.14336634000803
 20
20.27911239888951
 30
0.0
  0
VERTEX
  5
E9F
330
E9D
100
AcDbEntity
  8
0
100
AcDbVertex
100
AcDb2dVertex
 10
16.14336634000803
 20
20.19542875395479
 30
0.0
  0
VERTEX
  5
EA0
330
E9D
100
AcDbEntity
  8
0
100
AcDbVertex
100
AcDb2dVertex
 10
16.43223584511923
 20
20.23002872253357
 30
0.0
  0
VERTEX
  5
EA1
330
E9D
100
AcDbEntity
  8
0
100
AcDbVertex
100
AcDb2dVertex
 10
16.43223584511923
 20
20.24370777987866
 30
0.0
  0
VERTEX
  5
EA2
330
E9D
100
AcDbEntity
  8
0
100
AcDbVertex
100
AcDb2dVertex
 10
16.14336634000803
 20
20.27911239888951
 30
0.0
  0
VERTEX
  5
EA3
330
E9D
100
AcDbEntity
  8
0
100
AcDbVertex
100
AcDb2dVertex
 10
16.14336634000803
 20
20.27911239888951
 30
0.0
  0
SEQEND
  5
EA4
330
E9D
100
AcDbEntity
  8
0
  0
POLYLINE
  5
EA5
330
1F
100
AcDbEntity
  8
0
100
AcDb2dPolyline
 66
     1
 10
0.0
 20
0.0
 30
0.0
  0
VERTEX
  5
EA6
330
EA5
100
AcDbEntity
  8
0
100
AcDbVertex
100
AcDb2dVertex
 10
15.89392470606801
 20
20.96065131484823
 30
0.0
  0
VERTEX
  5
EA7
330
EA5
100
AcDbEntity
  8
0
100
AcDbVertex
100
AcDb2dVertex
 10
16.55615201165718
 20
20.96065131484823
 30
0.0
  0
VERTEX
  5
EA8
330
EA5
100
AcDbEntity
  8
0
100
AcDbVertex
100
AcDb2dVertex
 10
16.55615201165718
 20
20.77638636590544
 30
0.0
  0
VERTEX
  5
EA9
330
EA5
100
AcDbEntity
  8
0
100
AcDbVertex
100
AcDb2dVertex
 10
16.20854302500527
 20
20.72006083566091
 30
0.0
  0
VERTEX
  5
EAA
330
EA5
100
AcDbEntity
  8
0
100
AcDbVertex
100
AcDb2dVertex
 10
16.55615201165718
 20
20.66212600455227
 30
0.0
  0
VERTEX
  5
EAB
330
EA5
100
AcDbEntity
  8
0
100
AcDbVertex
100
AcDb2dVertex
 10
16.55615201165718
 20
20.4770564051774
 30
0.0
  0
VERTEX
  5
EAC
330
EA5
100
AcDbEntity
  8
0
100
AcDbVertex
100
AcDb2dVertex
 10
15.89392470606801
 20
20.4770564051774
 30
0.0
  0
VERTEX
  5
EAD
330
EA5
100
AcDbEntity
  8
0
100
AcDbVertex
100
AcDb2dVertex
 10
15.89392470606801
 20
20.60499582387568
 30
0.0
  0
VERTEX
  5
EAE
330
EA5
100
AcDbEntity
  8
0
100
AcDbVertex
100
AcDb2dVertex
 10
16.38878472178774
 20
20.60499582387568
 30
0.0
  0
VERTEX
  5
EAF
330
EA5
100
AcDbEntity
  8
0
100
AcDbVertex
100
AcDb2dVertex
 10
15.89392470606801
 20
20.68867946881039
 30
0.0
  0
VERTEX
  5
EB0
330
EA5
100
AcDbEntity
  8
0
100
AcDbVertex
100
AcDb2dVertex
 10
15.89392470606801
 20
20.7498329016473
 30
0.0
  0
VERTEX
  5
EB1
330
EA5
100
AcDbEntity
  8
0
100
AcDbVertex
100
AcDb2dVertex
 10
16.39522192524426
 20
20.83351654658203
 30
0.0
  0
VERTEX
  5
EB2
330
EA5
100
AcDbEntity
  8
0
100
AcDbVertex
100
AcDb2dVertex
 10
15.89392470606801
 20
20.83351654658203
 30
0.0
  0
VERTEX
  5
EB3
330
EA5
100
AcDbEntity
  8
0
100
AcDbVertex
100
AcDb2dVertex
 10
15.89392470606801
 20
20.96065131484823
 30
0.0
  0
VERTEX
  5
EB4
330
EA5
100
AcDbEntity
  8
0
100
AcDbVertex
100
AcDb2dVertex
 10
15.89392470606801
 20
20.96065131484823
 30
0.0
  0
SEQEND
  5
EB5
330
EA5
100
AcDbEntity
  8
0
  0
POLYLINE
  5
EB6
330
1F
100
AcDbEntity
  8
0
100
AcDb2dPolyline
 66
     1
 10
0.0
 20
0.0
 30
0.0
  0
VERTEX
  5
EB7
330
EB6
100
AcDbEntity
  8
0
100
AcDbVertex
100
AcDb2dVertex
 10
14.04338659312819
 20
18.94600541536881
 30
0.0
  0
VERTEX
  5
EB8
330
EB6
100
AcDbEntity
  8
0
100
AcDbVertex
100
AcDb2dVertex
 10
14.71524104850899
 20
18.28897127885672
 30
0.0
  0
VERTEX
  5
EB9
330
EB6
100
AcDbEntity
  8
0
100
AcDbVertex
100
AcDb2dVertex
 10
14.71524104850899
 20
17.89180262627906
 30
0.0
  0
VERTEX
  5
EBA
330
EB6
100
AcDbEntity
  8
0
100
AcDbVertex
100
AcDb2dVertex
 10
14.04338659312819
 20
18.23480200613136
 30
0.0
  0
SEQEND
  5
EBB
330
EB6
100
AcDbEntity
  8
0
  0
POLYLINE
  5
EBC
330
1F
100
AcDbEntity
  8
0
100
AcDb2dPolyline
 66
     1
 10
0.0
 20
0.0
 30
0.0
  0
VERTEX
  5
EBD
330
EBC
100
AcDbEntity
  8
0
100
AcDbVertex
100
AcDb2dVertex
 10
14.04338659312819
 20
18.94600541536881
 30
0.0
 40
0.0027018275685555
 41
0.0027018275685555
  0
VERTEX
  5
EBE
330
EBC
100
AcDbEntity
  8
0
100
AcDbVertex
100
AcDb2dVertex
 10
14.71524104850899
 20
18.28897127885672
 30
0.0
 40
0.0027018275685555
 41
0.0027018275685555
  0
VERTEX
  5
EBF
330
EBC
100
AcDbEntity
  8
0
100
AcDbVertex
100
AcDb2dVertex
 10
14.71524104850899
 20
17.89180262627906
 30
0.0
 40
0.0027018275685555
 41
0.0027018275685555
  0
VERTEX
  5
EC0
330
EBC
100
AcDbEntity
  8
0
100
AcDbVertex
100
AcDb2dVertex
 10
14.04338659312819
 20
18.23480200613136
 30
0.0
 40
0.0027018275685555
 41
0.0027018275685555
  0
SEQEND
  5
EC1
330
EBC
100
AcDbEntity
  8
0
  0
POLYLINE
  5
EC2
330
1F
100
AcDbEntity
  8
0
100
AcDb2dPolyline
 66
     1
 10
0.0
 20
0.0
 30
0.0
  0
VERTEX
  5
EC3
330
EC2
100
AcDbEntity
  8
0
100
AcDbVertex
100
AcDb2dVertex
 10
14.70803617499284
 20
21.03579785149056
 30
0.0
 40
0.0027018275685555
 41
0.0027018275685555
  0
VERTEX
  5
EC4
330
EC2
100
AcDbEntity
  8
0
100
AcDbVertex
100
AcDb2dVertex
 10
14.70803617499284
 20
17.53719785149056
 30
0.0
 40
0.0027018275685555
 41
0.0027018275685555
  0
SEQEND
  5
EC5
330
EC2
100
AcDbEntity
  8
0
  0
POLYLINE
  5
EC6
330
1F
100
AcDbEntity
  8
0
100
AcDb2dPolyline
 66
     1
 10
0.0
 20
0.0
 30
0.0
  0
VERTEX
  5
EC7
330
EC6
100
AcDbEntity
  8
0
100
AcDbVertex
100
AcDb2dVertex
 10
14.70803617499284
 20
21.03579785149056
 30
0.0
  0
VERTEX
  5
EC8
330
EC6
100
AcDbEntity
  8
0
100
AcDbVertex
100
AcDb2dVertex
 10
14.70803617499284
 20
17.53719785149056
 30
0.0
  0
SEQEND
  5
EC9
330
EC6
100
AcDbEntity
  8
0
  0
POLYLINE
  5
ECA
330
1F
100
AcDbEntity
  8
0
100
AcDb2dPolyline
 66
     1
 10
0.0
 20
0.0
 30
0.0
  0
VERTEX
  5
ECB
330
ECA
100
AcDbEntity
  8
0
100
AcDbVertex
100
AcDb2dVertex
 10
15.4028810163429
 20
17.6117617791776
 30
0.0
  0
VERTEX
  5
ECC
330
ECA
100
AcDbEntity
  8
0
100
AcDbVertex
100
AcDb2dVertex
 10
14.04338659312819
 20
18.94751253731621
 30
0.0
  0
SEQEND
  5
ECD
330
ECA
100
AcDbEntity
  8
0
  0
POLYLINE
  5
ECE
330
1F
100
AcDbEntity
  8
0
100
AcDb2dPolyline
 66
     1
 10
0.0
 20
0.0
 30
0.0
  0
VERTEX
  5
ECF
330
ECE
100
AcDbEntity
  8
0
100
AcDbVertex
100
AcDb2dVertex
 10
14.9205799437192
 20
18.82663496499926
 30
0.0
  0
VERTEX
  5
ED0
330
ECE
100
AcDbEntity
  8
0
100
AcDbVertex
100
AcDb2dVertex
 10
15.16734686164727
 20
18.78340572390237
 30
0.0
  0
VERTEX
  5
ED1
330
ECE
100
AcDbEntity
  8
0
100
AcDbVertex
100
AcDb2dVertex
 10
15.16734686164727
 20
18.70775455198281
 30
0.0
  0
VERTEX
  5
ED2
330
ECE
100
AcDbEntity
  8
0
100
AcDbVertex
100
AcDb2dVertex
 10
14.98992685131212
 20
18.68974236819244
 30
0.0
  0
VERTEX
  5
ED3
330
ECE
100
AcDbEntity
  8
0
100
AcDbVertex
100
AcDb2dVertex
 10
15.16734686164727
 20
18.60778693194626
 30
0.0
  0
VERTEX
  5
ED4
330
ECE
100
AcDbEntity
  8
0
100
AcDbVertex
100
AcDb2dVertex
 10
15.16734686164727
 20
18.53393697840575
 30
0.0
  0
VERTEX
  5
ED5
330
ECE
100
AcDbEntity
  8
0
100
AcDbVertex
100
AcDb2dVertex
 10
14.9205799437192
 20
18.57806682869215
 30
0.0
  0
VERTEX
  5
ED6
330
ECE
100
AcDbEntity
  8
0
100
AcDbVertex
100
AcDb2dVertex
 10
14.9205799437192
 20
18.62669972492614
 30
0.0
  0
VERTEX
  5
ED7
330
ECE
100
AcDbEntity
  8
0
100
AcDbVertex
100
AcDb2dVertex
 10
15.12141579298183
 20
18.58797352977686
 30
0.0
  0
VERTEX
  5
ED8
330
ECE
100
AcDbEntity
  8
0
100
AcDbVertex
100
AcDb2dVertex
 10
14.9205799437192
 20
18.6780344487287
 30
0.0
  0
VERTEX
  5
ED9
330
ECE
100
AcDbEntity
  8
0
100
AcDbVertex
100
AcDb2dVertex
 10
14.9205799437192
 20
18.72576673577318
 30
0.0
  0
VERTEX
  5
EDA
330
ECE
100
AcDbEntity
  8
0
100
AcDbVertex
100
AcDb2dVertex
 10
15.11691274703423
 20
18.74467952875307
 30
0.0
  0
VERTEX
  5
EDB
330
ECE
100
AcDbEntity
  8
0
100
AcDbVertex
100
AcDb2dVertex
 10
14.9205799437192
 20
18.77890267795477
 30
0.0
  0
VERTEX
  5
EDC
330
ECE
100
AcDbEntity
  8
0
100
AcDbVertex
100
AcDb2dVertex
 10
14.9205799437192
 20
18.82663496499926
 30
0.0
  0
VERTEX
  5
EDD
330
ECE
100
AcDbEntity
  8
0
100
AcDbVertex
100
AcDb2dVertex
 10
14.9205799437192
 20
18.82663496499926
 30
0.0
  0
SEQEND
  5
EDE
330
ECE
100
AcDbEntity
  8
0
  0
POLYLINE
  5
EDF
330
1F
100
AcDbEntity
  8
0
100
AcDb2dPolyline
 66
     1
 10
0.0
 20
0.0
 30
0.0
  0
VERTEX
  5
EE0
330
EDF
100
AcDbEntity
  8
0
100
AcDbVertex
100
AcDb2dVertex
 10
14.04338659312819
 20
18.23503539438104
 30
0.0
  0
VERTEX
  5
EE1
330
EDF
100
AcDbEntity
  8
0
100
AcDbVertex
100
AcDb2dVertex
 10
15.40288561873076
 20
17.55189391794303
 30
0.0
  0
SEQEND
  5
EE2
330
EDF
100
AcDbEntity
  8
0
  0
POLYLINE
  5
EE3
330
1F
100
AcDbEntity
  8
0
100
AcDb2dPolyline
 66
     1
 10
0.0
 20
0.0
 30
0.0
  0
VERTEX
  5
EE4
330
EE3
100
AcDbEntity
  8
0
100
AcDbVertex
100
AcDb2dVertex
 10
14.30726508565711
 20
20.04425858922825
 30
0.0
  0
VERTEX
  5
EE5
330
EE3
100
AcDbEntity
  8
0
100
AcDbVertex
100
AcDb2dVertex
 10
14.55403200358518
 20
19.99922812975233
 30
0.0
  0
VERTEX
  5
EE6
330
EE3
100
AcDbEntity
  8
0
100
AcDbVertex
100
AcDb2dVertex
 10
14.55403200358518
 20
19.8515282226713
 30
0.0
  0
VERTEX
  5
EE7
330
EE3
100
AcDbEntity
  8
0
100
AcDbVertex
100
AcDb2dVertex
 10
14.50900154410925
 20
19.85963370537696
 30
0.0
  0
VERTEX
  5
EE8
330
EE3
100
AcDbEntity
  8
0
100
AcDbVertex
100
AcDb2dVertex
 10
14.50900154410925
 20
19.95509827946592
 30
0.0
  0
VERTEX
  5
EE9
330
EE3
100
AcDbEntity
  8
0
100
AcDbVertex
100
AcDb2dVertex
 10
14.45226316516959
 20
19.96590558974014
 30
0.0
  0
VERTEX
  5
EEA
330
EE3
100
AcDbEntity
  8
0
100
AcDbVertex
100
AcDb2dVertex
 10
14.45226316516959
 20
19.8767452799778
 30
0.0
  0
VERTEX
  5
EEB
330
EE3
100
AcDbEntity
  8
0
100
AcDbVertex
100
AcDb2dVertex
 10
14.40813331488319
 20
19.88485076268348
 30
0.0
  0
VERTEX
  5
EEC
330
EE3
100
AcDbEntity
  8
0
100
AcDbVertex
100
AcDb2dVertex
 10
14.40813331488319
 20
19.97491168163533
 30
0.0
  0
VERTEX
  5
EED
330
EE3
100
AcDbEntity
  8
0
100
AcDbVertex
100
AcDb2dVertex
 10
14.30726508565711
 20
19.9929238654257
 30
0.0
  0
VERTEX
  5
EEE
330
EE3
100
AcDbEntity
  8
0
100
AcDbVertex
100
AcDb2dVertex
 10
14.30726508565711
 20
20.04425858922825
 30
0.0
  0
VERTEX
  5
EEF
330
EE3
100
AcDbEntity
  8
0
100
AcDbVertex
100
AcDb2dVertex
 10
14.30726508565711
 20
20.04425858922825
 30
0.0
  0
SEQEND
  5
EF0
330
EE3
100
AcDbEntity
  8
0
  0
POLYLINE
  5
EF1
330
1F
100
AcDbEntity
  8
0
100
AcDb2dPolyline
 66
     1
 10
0.0
 20
0.0
 30
0.0
  0
VERTEX
  5
EF2
330
EF1
100
AcDbEntity
  8
0
100
AcDbVertex
100
AcDb2dVertex
 10
14.30726508565711
 20
19.39942240953302
 30
0.0
  0
VERTEX
  5
EF3
330
EF1
100
AcDbEntity
  8
0
100
AcDbVertex
100
AcDb2dVertex
 10
14.33338275215315
 20
19.39942240953302
 30
0.0
  0
VERTEX
  5
EF4
330
EF1
100
AcDbEntity
  8
0
100
AcDbVertex
100
AcDb2dVertex
 10
14.326177878637
 20
19.40662728304916
 30
0.0
  0
VERTEX
  5
EF5
330
EF1
100
AcDbEntity
  8
0
100
AcDbVertex
100
AcDb2dVertex
 10
14.31897300512085
 20
19.41473276575482
 30
0.0
  0
VERTEX
  5
EF6
330
EF1
100
AcDbEntity
  8
0
100
AcDbVertex
100
AcDb2dVertex
 10
14.31356934998374
 20
19.42283824846049
 30
0.0
  0
VERTEX
  5
EF7
330
EF1
100
AcDbEntity
  8
0
100
AcDbVertex
100
AcDb2dVertex
 10
14.30906630403615
 20
19.43184434035568
 30
0.0
  0
VERTEX
  5
EF8
330
EF1
100
AcDbEntity
  8
0
100
AcDbVertex
100
AcDb2dVertex
 10
14.30456325808856
 20
19.44175104144038
 30
0.0
  0
VERTEX
  5
EF9
330
EF1
100
AcDbEntity
  8
0
100
AcDbVertex
100
AcDb2dVertex
 10
14.30186143052
 20
19.45255835171461
 30
0.0
  0
VERTEX
  5
EFA
330
EF1
100
AcDbEntity
  8
0
100
AcDbVertex
100
AcDb2dVertex
 10
14.30096082133048
 20
19.46336566198883
 30
0.0
  0
VERTEX
  5
EFB
330
EF1
100
AcDbEntity
  8
0
100
AcDbVertex
100
AcDb2dVertex
 10
14.30006021214096
 20
19.47507358145257
 30
0.0
  0
VERTEX
  5
EFC
330
EF1
100
AcDbEntity
  8
0
100
AcDbVertex
100
AcDb2dVertex
 10
14.30096082133048
 20
19.48588089172679
 30
0.0
  0
VERTEX
  5
EFD
330
EF1
100
AcDbEntity
  8
0
100
AcDbVertex
100
AcDb2dVertex
 10
14.30186143052
 20
19.49668820200101
 30
0.0
  0
VERTEX
  5
EFE
330
EF1
100
AcDbEntity
  8
0
100
AcDbVertex
100
AcDb2dVertex
 10
14.30456325808856
 20
19.5056942938962
 30
0.0
  0
VERTEX
  5
EFF
330
EF1
100
AcDbEntity
  8
0
100
AcDbVertex
100
AcDb2dVertex
 10
14.30726508565711
 20
19.5156009949809
 30
0.0
  0
VERTEX
  5
F00
330
EF1
100
AcDbEntity
  8
0
100
AcDbVertex
100
AcDb2dVertex
 10
14.31176813160471
 20
19.52460708687608
 30
0.0
  0
VERTEX
  5
F01
330
EF1
100
AcDbEntity
  8
0
100
AcDbVertex
100
AcDb2dVertex
 10
14.31717178674182
 20
19.53271256958175
 30
0.0
  0
VERTEX
  5
F02
330
EF1
100
AcDbEntity
  8
0
100
AcDbVertex
100
AcDb2dVertex
 10
14.32347605106845
 20
19.5399174430979
 30
0.0
  0
VERTEX
  5
F03
330
EF1
100
AcDbEntity
  8
0
100
AcDbVertex
100
AcDb2dVertex
 10
14.32978031539508
 20
19.54712231661405
 30
0.0
  0
VERTEX
  5
F04
330
EF1
100
AcDbEntity
  8
0
100
AcDbVertex
100
AcDb2dVertex
 10
14.33788579810074
 20
19.55342658094068
 30
0.0
  0
VERTEX
  5
F05
330
EF1
100
AcDbEntity
  8
0
100
AcDbVertex
100
AcDb2dVertex
 10
14.34599128080641
 20
19.5597308452673
 30
0.0
  0
VERTEX
  5
F06
330
EF1
100
AcDbEntity
  8
0
100
AcDbVertex
100
AcDb2dVertex
 10
14.35499737270159
 20
19.56423389121489
 30
0.0
  0
VERTEX
  5
F07
330
EF1
100
AcDbEntity
  8
0
100
AcDbVertex
100
AcDb2dVertex
 10
14.3649040737863
 20
19.56783632797296
 30
0.0
  0
VERTEX
  5
F08
330
EF1
100
AcDbEntity
  8
0
100
AcDbVertex
100
AcDb2dVertex
 10
14.374810774871
 20
19.57053815554153
 30
0.0
  0
VERTEX
  5
F09
330
EF1
100
AcDbEntity
  8
0
100
AcDbVertex
100
AcDb2dVertex
 10
14.38561808514522
 20
19.57323998311007
 30
0.0
  0
VERTEX
  5
F0A
330
EF1
100
AcDbEntity
  8
0
100
AcDbVertex
100
AcDb2dVertex
 10
14.39642539541944
 20
19.5741405922996
 30
0.0
  0
VERTEX
  5
F0B
330
EF1
100
AcDbEntity
  8
0
100
AcDbVertex
100
AcDb2dVertex
 10
14.40813331488319
 20
19.57504120148912
 30
0.0
  0
VERTEX
  5
F0C
330
EF1
100
AcDbEntity
  8
0
100
AcDbVertex
100
AcDb2dVertex
 10
14.423443671105
 20
19.5741405922996
 30
0.0
  0
VERTEX
  5
F0D
330
EF1
100
AcDbEntity
  8
0
100
AcDbVertex
100
AcDb2dVertex
 10
14.4378534181373
 20
19.57233937392055
 30
0.0
  0
VERTEX
  5
F0E
330
EF1
100
AcDbEntity
  8
0
100
AcDbVertex
100
AcDb2dVertex
 10
14.45136255598007
 20
19.56963754635201
 30
0.0
  0
VERTEX
  5
F0F
330
EF1
100
AcDbEntity
  8
0
100
AcDbVertex
100
AcDb2dVertex
 10
14.46577230301237
 20
19.56513450040442
 30
0.0
  0
VERTEX
  5
F10
330
EF1
100
AcDbEntity
  8
0
100
AcDbVertex
100
AcDb2dVertex
 10
14.47928144085515
 20
19.5597308452673
 30
0.0
  0
VERTEX
  5
F11
330
EF1
100
AcDbEntity
  8
0
100
AcDbVertex
100
AcDb2dVertex
 10
14.4918899695084
 20
19.55342658094068
 30
0.0
  0
VERTEX
  5
F12
330
EF1
100
AcDbEntity
  8
0
100
AcDbVertex
100
AcDb2dVertex
 10
14.50359788897214
 20
19.54622170742453
 30
0.0
  0
VERTEX
  5
F13
330
EF1
100
AcDbEntity
  8
0
100
AcDbVertex
100
AcDb2dVertex
 10
14.51530580843589
 20
19.53811622471886
 30
0.0
  0
VERTEX
  5
F14
330
EF1
100
AcDbEntity
  8
0
100
AcDbVertex
100
AcDb2dVertex
 10
14.52521250952059
 20
19.52911013282367
 30
0.0
  0
VERTEX
  5
F15
330
EF1
100
AcDbEntity
  8
0
100
AcDbVertex
100
AcDb2dVertex
 10
14.53421860141577
 20
19.51920343173897
 30
0.0
  0
VERTEX
  5
F16
330
EF1
100
AcDbEntity
  8
0
100
AcDbVertex
100
AcDb2dVertex
 10
14.54142347493192
 20
19.50839612146475
 30
0.0
  0
VERTEX
  5
F17
330
EF1
100
AcDbEntity
  8
0
100
AcDbVertex
100
AcDb2dVertex
 10
14.54772773925855
 20
19.49668820200101
 30
0.0
  0
VERTEX
  5
F18
330
EF1
100
AcDbEntity
  8
0
100
AcDbVertex
100
AcDb2dVertex
 10
14.55223078520614
 20
19.48407967334775
 30
0.0
  0
VERTEX
  5
F19
330
EF1
100
AcDbEntity
  8
0
100
AcDbVertex
100
AcDb2dVertex
 10
14.55583322196422
 20
19.47147114469449
 30
0.0
  0
VERTEX
  5
F1A
330
EF1
100
AcDbEntity
  8
0
100
AcDbVertex
100
AcDb2dVertex
 10
14.55763444034325
 20
19.4570613976622
 30
0.0
  0
VERTEX
  5
F1B
330
EF1
100
AcDbEntity
  8
0
100
AcDbVertex
100
AcDb2dVertex
 10
14.55853504953276
 20
19.4426516506299
 30
0.0
  0
VERTEX
  5
F1C
330
EF1
100
AcDbEntity
  8
0
100
AcDbVertex
100
AcDb2dVertex
 10
14.55853504953276
 20
19.43184434035568
 30
0.0
  0
VERTEX
  5
F1D
330
EF1
100
AcDbEntity
  8
0
100
AcDbVertex
100
AcDb2dVertex
 10
14.55763444034325
 20
19.42103703008146
 30
0.0
  0
VERTEX
  5
F1E
330
EF1
100
AcDbEntity
  8
0
100
AcDbVertex
100
AcDb2dVertex
 10
14.55583322196422
 20
19.41113032899675
 30
0.0
  0
VERTEX
  5
F1F
330
EF1
100
AcDbEntity
  8
0
100
AcDbVertex
100
AcDb2dVertex
 10
14.55313139439566
 20
19.40122362791205
 30
0.0
  0
VERTEX
  5
F20
330
EF1
100
AcDbEntity
  8
0
100
AcDbVertex
100
AcDb2dVertex
 10
14.54952895763758
 20
19.39221753601686
 30
0.0
  0
VERTEX
  5
F21
330
EF1
100
AcDbEntity
  8
0
100
AcDbVertex
100
AcDb2dVertex
 10
14.54502591168999
 20
19.3841120533112
 30
0.0
  0
VERTEX
  5
F22
330
EF1
100
AcDbEntity
  8
0
100
AcDbVertex
100
AcDb2dVertex
 10
14.5405228657424
 20
19.37690717979505
 30
0.0
  0
VERTEX
  5
F23
330
EF1
100
AcDbEntity
  8
0
100
AcDbVertex
100
AcDb2dVertex
 10
14.53511921060529
 20
19.3697023062789
 30
0.0
  0
VERTEX
  5
F24
330
EF1
100
AcDbEntity
  8
0
100
AcDbVertex
100
AcDb2dVertex
 10
14.52881494627866
 20
19.36339804195227
 30
0.0
  0
VERTEX
  5
F25
330
EF1
100
AcDbEntity
  8
0
100
AcDbVertex
100
AcDb2dVertex
 10
14.52161007276252
 20
19.35799438681516
 30
0.0
  0
VERTEX
  5
F26
330
EF1
100
AcDbEntity
  8
0
100
AcDbVertex
100
AcDb2dVertex
 10
14.51440519924637
 20
19.35349134086757
 30
0.0
  0
VERTEX
  5
F27
330
EF1
100
AcDbEntity
  8
0
100
AcDbVertex
100
AcDb2dVertex
 10
14.5062997165407
 20
19.3498889041095
 30
0.0
  0
VERTEX
  5
F28
330
EF1
100
AcDbEntity
  8
0
100
AcDbVertex
100
AcDb2dVertex
 10
14.49819423383504
 20
19.34718707654094
 30
0.0
  0
VERTEX
  5
F29
330
EF1
100
AcDbEntity
  8
0
100
AcDbVertex
100
AcDb2dVertex
 10
14.48918814193985
 20
19.34448524897239
 30
0.0
  0
VERTEX
  5
F2A
330
EF1
100
AcDbEntity
  8
0
100
AcDbVertex
100
AcDb2dVertex
 10
14.47928144085515
 20
19.34358463978287
 30
0.0
  0
VERTEX
  5
F2B
330
EF1
100
AcDbEntity
  8
0
100
AcDbVertex
100
AcDb2dVertex
 10
14.46937473977044
 20
19.34268403059335
 30
0.0
  0
VERTEX
  5
F2C
330
EF1
100
AcDbEntity
  8
0
100
AcDbVertex
100
AcDb2dVertex
 10
14.46937473977044
 20
19.3940187543959
 30
0.0
  0
VERTEX
  5
F2D
330
EF1
100
AcDbEntity
  8
0
100
AcDbVertex
100
AcDb2dVertex
 10
14.48018205004466
 20
19.39491936358542
 30
0.0
  0
VERTEX
  5
F2E
330
EF1
100
AcDbEntity
  8
0
100
AcDbVertex
100
AcDb2dVertex
 10
14.48918814193985
 20
19.39762119115398
 30
0.0
  0
VERTEX
  5
F2F
330
EF1
100
AcDbEntity
  8
0
100
AcDbVertex
100
AcDb2dVertex
 10
14.49279057869792
 20
19.39942240953302
 30
0.0
  0
VERTEX
  5
F30
330
EF1
100
AcDbEntity
  8
0
100
AcDbVertex
100
AcDb2dVertex
 10
14.49639301545599
 20
19.40212423710157
 30
0.0
  0
VERTEX
  5
F31
330
EF1
100
AcDbEntity
  8
0
100
AcDbVertex
100
AcDb2dVertex
 10
14.49999545221407
 20
19.40482606467012
 30
0.0
  0
VERTEX
  5
F32
330
EF1
100
AcDbEntity
  8
0
100
AcDbVertex
100
AcDb2dVertex
 10
14.50269727978263
 20
19.40752789223868
 30
0.0
  0
VERTEX
  5
F33
330
EF1
100
AcDbEntity
  8
0
100
AcDbVertex
100
AcDb2dVertex
 10
14.5062997165407
 20
19.41113032899675
 30
0.0
  0
VERTEX
  5
F34
330
EF1
100
AcDbEntity
  8
0
100
AcDbVertex
100
AcDb2dVertex
 10
14.50810093491974
 20
19.41473276575482
 30
0.0
  0
VERTEX
  5
F35
330
EF1
100
AcDbEntity
  8
0
100
AcDbVertex
100
AcDb2dVertex
 10
14.50990215329877
 20
19.4183352025129
 30
0.0
  0
VERTEX
  5
F36
330
EF1
100
AcDbEntity
  8
0
100
AcDbVertex
100
AcDb2dVertex
 10
14.51170337167781
 20
19.42283824846049
 30
0.0
  0
VERTEX
  5
F37
330
EF1
100
AcDbEntity
  8
0
100
AcDbVertex
100
AcDb2dVertex
 10
14.51440519924637
 20
19.4327449495452
 30
0.0
  0
VERTEX
  5
F38
330
EF1
100
AcDbEntity
  8
0
100
AcDbVertex
100
AcDb2dVertex
 10
14.51440519924637
 20
19.44355225981942
 30
0.0
  0
VERTEX
  5
F39
330
EF1
100
AcDbEntity
  8
0
100
AcDbVertex
100
AcDb2dVertex
 10
14.51440519924637
 20
19.45165774252508
 30
0.0
  0
VERTEX
  5
F3A
330
EF1
100
AcDbEntity
  8
0
100
AcDbVertex
100
AcDb2dVertex
 10
14.51260398086733
 20
19.45976322523075
 30
0.0
  0
VERTEX
  5
F3B
330
EF1
100
AcDbEntity
  8
0
100
AcDbVertex
100
AcDb2dVertex
 10
14.51080276248829
 20
19.46786870793642
 30
0.0
  0
VERTEX
  5
F3C
330
EF1
100
AcDbEntity
  8
0
100
AcDbVertex
100
AcDb2dVertex
 10
14.50720032573022
 20
19.47507358145257
 30
0.0
  0
VERTEX
  5
F3D
330
EF1
100
AcDbEntity
  8
0
100
AcDbVertex
100
AcDb2dVertex
 10
14.50359788897214
 20
19.48227845496871
 30
0.0
  0
VERTEX
  5
F3E
330
EF1
100
AcDbEntity
  8
0
100
AcDbVertex
100
AcDb2dVertex
 10
14.49819423383504
 20
19.48858271929534
 30
0.0
  0
VERTEX
  5
F3F
330
EF1
100
AcDbEntity
  8
0
100
AcDbVertex
100
AcDb2dVertex
 10
14.4918899695084
 20
19.49398637443245
 30
0.0
  0
VERTEX
  5
F40
330
EF1
100
AcDbEntity
  8
0
100
AcDbVertex
100
AcDb2dVertex
 10
14.48468509599226
 20
19.49939002956957
 30
0.0
  0
VERTEX
  5
F41
330
EF1
100
AcDbEntity
  8
0
100
AcDbVertex
100
AcDb2dVertex
 10
14.47657961328659
 20
19.50389307551716
 30
0.0
  0
VERTEX
  5
F42
330
EF1
100
AcDbEntity
  8
0
100
AcDbVertex
100
AcDb2dVertex
 10
14.46847413058092
 20
19.50839612146475
 30
0.0
  0
VERTEX
  5
F43
330
EF1
100
AcDbEntity
  8
0
100
AcDbVertex
100
AcDb2dVertex
 10
14.45946803868574
 20
19.51199855822282
 30
0.0
  0
VERTEX
  5
F44
330
EF1
100
AcDbEntity
  8
0
100
AcDbVertex
100
AcDb2dVertex
 10
14.44956133760103
 20
19.5156009949809
 30
0.0
  0
VERTEX
  5
F45
330
EF1
100
AcDbEntity
  8
0
100
AcDbVertex
100
AcDb2dVertex
 10
14.43875402732681
 20
19.51740221335994
 30
0.0
  0
VERTEX
  5
F46
330
EF1
100
AcDbEntity
  8
0
100
AcDbVertex
100
AcDb2dVertex
 10
14.42884732624211
 20
19.51920343173897
 30
0.0
  0
VERTEX
  5
F47
330
EF1
100
AcDbEntity
  8
0
100
AcDbVertex
100
AcDb2dVertex
 10
14.41894062515741
 20
19.52100465011801
 30
0.0
  0
VERTEX
  5
F48
330
EF1
100
AcDbEntity
  8
0
100
AcDbVertex
100
AcDb2dVertex
 10
14.40813331488319
 20
19.52100465011801
 30
0.0
  0
VERTEX
  5
F49
330
EF1
100
AcDbEntity
  8
0
100
AcDbVertex
100
AcDb2dVertex
 10
14.40092844136704
 20
19.52100465011801
 30
0.0
  0
VERTEX
  5
F4A
330
EF1
100
AcDbEntity
  8
0
100
AcDbVertex
100
AcDb2dVertex
 10
14.39372356785089
 20
19.52010404092849
 30
0.0
  0
VERTEX
  5
F4B
330
EF1
100
AcDbEntity
  8
0
100
AcDbVertex
100
AcDb2dVertex
 10
14.38741930352426
 20
19.51920343173897
 30
0.0
  0
VERTEX
  5
F4C
330
EF1
100
AcDbEntity
  8
0
100
AcDbVertex
100
AcDb2dVertex
 10
14.38111503919763
 20
19.51740221335994
 30
0.0
  0
VERTEX
  5
F4D
330
EF1
100
AcDbEntity
  8
0
100
AcDbVertex
100
AcDb2dVertex
 10
14.374810774871
 20
19.5156009949809
 30
0.0
  0
VERTEX
  5
F4E
330
EF1
100
AcDbEntity
  8
0
100
AcDbVertex
100
AcDb2dVertex
 10
14.36940711973389
 20
19.51289916741234
 30
0.0
  0
VERTEX
  5
F4F
330
EF1
100
AcDbEntity
  8
0
100
AcDbVertex
100
AcDb2dVertex
 10
14.3649040737863
 20
19.50929673065427
 30
0.0
  0
VERTEX
  5
F50
330
EF1
100
AcDbEntity
  8
0
100
AcDbVertex
100
AcDb2dVertex
 10
14.3604010278387
 20
19.50659490308571
 30
0.0
  0
VERTEX
  5
F51
330
EF1
100
AcDbEntity
  8
0
100
AcDbVertex
100
AcDb2dVertex
 10
14.35589798189111
 20
19.50209185713812
 30
0.0
  0
VERTEX
  5
F52
330
EF1
100
AcDbEntity
  8
0
100
AcDbVertex
100
AcDb2dVertex
 10
14.35229554513304
 20
19.49848942038005
 30
0.0
  0
VERTEX
  5
F53
330
EF1
100
AcDbEntity
  8
0
100
AcDbVertex
100
AcDb2dVertex
 10
14.34959371756448
 20
19.49308576524294
 30
0.0
  0
VERTEX
  5
F54
330
EF1
100
AcDbEntity
  8
0
100
AcDbVertex
100
AcDb2dVertex
 10
14.34689188999593
 20
19.48858271929534
 30
0.0
  0
VERTEX
  5
F55
330
EF1
100
AcDbEntity
  8
0
100
AcDbVertex
100
AcDb2dVertex
 10
14.34509067161689
 20
19.48317906415823
 30
0.0
  0
VERTEX
  5
F56
330
EF1
100
AcDbEntity
  8
0
100
AcDbVertex
100
AcDb2dVertex
 10
14.34419006242737
 20
19.47777540902112
 30
0.0
  0
VERTEX
  5
F57
330
EF1
100
AcDbEntity
  8
0
100
AcDbVertex
100
AcDb2dVertex
 10
14.34328945323785
 20
19.47147114469449
 30
0.0
  0
VERTEX
  5
F58
330
EF1
100
AcDbEntity
  8
0
100
AcDbVertex
100
AcDb2dVertex
 10
14.34328945323785
 20
19.46516688036787
 30
0.0
  0
VERTEX
  5
F59
330
EF1
100
AcDbEntity
  8
0
100
AcDbVertex
100
AcDb2dVertex
 10
14.34328945323785
 20
19.45886261604124
 30
0.0
  0
VERTEX
  5
F5A
330
EF1
100
AcDbEntity
  8
0
100
AcDbVertex
100
AcDb2dVertex
 10
14.34419006242737
 20
19.45345896090412
 30
0.0
  0
VERTEX
  5
F5B
330
EF1
100
AcDbEntity
  8
0
100
AcDbVertex
100
AcDb2dVertex
 10
14.34509067161689
 20
19.44715469657749
 30
0.0
  0
VERTEX
  5
F5C
330
EF1
100
AcDbEntity
  8
0
100
AcDbVertex
100
AcDb2dVertex
 10
14.34689188999593
 20
19.44175104144038
 30
0.0
  0
VERTEX
  5
F5D
330
EF1
100
AcDbEntity
  8
0
100
AcDbVertex
100
AcDb2dVertex
 10
14.34869310837497
 20
19.43724799549279
 30
0.0
  0
VERTEX
  5
F5E
330
EF1
100
AcDbEntity
  8
0
100
AcDbVertex
100
AcDb2dVertex
 10
14.35139493594352
 20
19.43184434035568
 30
0.0
  0
VERTEX
  5
F5F
330
EF1
100
AcDbEntity
  8
0
100
AcDbVertex
100
AcDb2dVertex
 10
14.35409676351208
 20
19.42734129440809
 30
0.0
  0
VERTEX
  5
F60
330
EF1
100
AcDbEntity
  8
0
100
AcDbVertex
100
AcDb2dVertex
 10
14.35679859108063
 20
19.42193763927098
 30
0.0
  0
VERTEX
  5
F61
330
EF1
100
AcDbEntity
  8
0
100
AcDbVertex
100
AcDb2dVertex
 10
14.36130163702822
 20
19.4183352025129
 30
0.0
  0
VERTEX
  5
F62
330
EF1
100
AcDbEntity
  8
0
100
AcDbVertex
100
AcDb2dVertex
 10
14.3649040737863
 20
19.41383215656531
 30
0.0
  0
VERTEX
  5
F63
330
EF1
100
AcDbEntity
  8
0
100
AcDbVertex
100
AcDb2dVertex
 10
14.36940711973389
 20
19.41022971980723
 30
0.0
  0
VERTEX
  5
F64
330
EF1
100
AcDbEntity
  8
0
100
AcDbVertex
100
AcDb2dVertex
 10
14.37391016568148
 20
19.40752789223868
 30
0.0
  0
VERTEX
  5
F65
330
EF1
100
AcDbEntity
  8
0
100
AcDbVertex
100
AcDb2dVertex
 10
14.37841321162907
 20
19.40482606467012
 30
0.0
  0
VERTEX
  5
F66
330
EF1
100
AcDbEntity
  8
0
100
AcDbVertex
100
AcDb2dVertex
 10
14.38291625757667
 20
19.40302484629109
 30
0.0
  0
VERTEX
  5
F67
330
EF1
100
AcDbEntity
  8
0
100
AcDbVertex
100
AcDb2dVertex
 10
14.38831991271378
 20
19.40122362791205
 30
0.0
  0
VERTEX
  5
F68
330
EF1
100
AcDbEntity
  8
0
100
AcDbVertex
100
AcDb2dVertex
 10
14.39372356785089
 20
19.39942240953302
 30
0.0
  0
VERTEX
  5
F69
330
EF1
100
AcDbEntity
  8
0
100
AcDbVertex
100
AcDb2dVertex
 10
14.39372356785089
 20
19.46156444360979
 30
0.0
  0
VERTEX
  5
F6A
330
EF1
100
AcDbEntity
  8
0
100
AcDbVertex
100
AcDb2dVertex
 10
14.43425098137922
 20
19.45435957009364
 30
0.0
  0
VERTEX
  5
F6B
330
EF1
100
AcDbEntity
  8
0
100
AcDbVertex
100
AcDb2dVertex
 10
14.43425098137922
 20
19.34268403059335
 30
0.0
  0
VERTEX
  5
F6C
330
EF1
100
AcDbEntity
  8
0
100
AcDbVertex
100
AcDb2dVertex
 10
14.30726508565711
 20
19.36519926033131
 30
0.0
  0
VERTEX
  5
F6D
330
EF1
100
AcDbEntity
  8
0
100
AcDbVertex
100
AcDb2dVertex
 10
14.30726508565711
 20
19.39942240953302
 30
0.0
  0
VERTEX
  5
F6E
330
EF1
100
AcDbEntity
  8
0
100
AcDbVertex
100
AcDb2dVertex
 10
14.30726508565711
 20
19.39942240953302
 30
0.0
  0
SEQEND
  5
F6F
330
EF1
100
AcDbEntity
  8
0
  0
POLYLINE
  5
F70
330
1F
100
AcDbEntity
  8
0
100
AcDb2dPolyline
 66
     1
 10
0.0
 20
0.0
 30
0.0
  0
VERTEX
  5
F71
330
F70
100
AcDbEntity
  8
0
100
AcDbVertex
100
AcDb2dVertex
 10
14.5162064176254
 20
19.71373501667496
 30
0.0
  0
VERTEX
  5
F72
330
F70
100
AcDbEntity
  8
0
100
AcDbVertex
100
AcDb2dVertex
 10
14.51530580843589
 20
19.72274110857014
 30
0.0
  0
VERTEX
  5
F73
330
F70
100
AcDbEntity
  8
0
100
AcDbVertex
100
AcDb2dVertex
 10
14.51440519924637
 20
19.73084659127582
 30
0.0
  0
VERTEX
  5
F74
330
F70
100
AcDbEntity
  8
0
100
AcDbVertex
100
AcDb2dVertex
 10
14.51170337167781
 20
19.73805146479196
 30
0.0
  0
VERTEX
  5
F75
330
F70
100
AcDbEntity
  8
0
100
AcDbVertex
100
AcDb2dVertex
 10
14.50810093491974
 20
19.74525633830811
 30
0.0
  0
VERTEX
  5
F76
330
F70
100
AcDbEntity
  8
0
100
AcDbVertex
100
AcDb2dVertex
 10
14.50449849816166
 20
19.75246121182426
 30
0.0
  0
VERTEX
  5
F77
330
F70
100
AcDbEntity
  8
0
100
AcDbVertex
100
AcDb2dVertex
 10
14.49909484302455
 20
19.75876547615089
 30
0.0
  0
VERTEX
  5
F78
330
F70
100
AcDbEntity
  8
0
100
AcDbVertex
100
AcDb2dVertex
 10
14.49279057869792
 20
19.76506974047752
 30
0.0
  0
VERTEX
  5
F79
330
F70
100
AcDbEntity
  8
0
100
AcDbVertex
100
AcDb2dVertex
 10
14.48648631437129
 20
19.77047339561463
 30
0.0
  0
VERTEX
  5
F7A
330
F70
100
AcDbEntity
  8
0
100
AcDbVertex
100
AcDb2dVertex
 10
14.47838083166563
 20
19.77497644156222
 30
0.0
  0
VERTEX
  5
F7B
330
F70
100
AcDbEntity
  8
0
100
AcDbVertex
100
AcDb2dVertex
 10
14.47027534895996
 20
19.77947948750982
 30
0.0
  0
VERTEX
  5
F7C
330
F70
100
AcDbEntity
  8
0
100
AcDbVertex
100
AcDb2dVertex
 10
14.46126925706478
 20
19.78308192426789
 30
0.0
  0
VERTEX
  5
F7D
330
F70
100
AcDbEntity
  8
0
100
AcDbVertex
100
AcDb2dVertex
 10
14.45226316516959
 20
19.78668436102596
 30
0.0
  0
VERTEX
  5
F7E
330
F70
100
AcDbEntity
  8
0
100
AcDbVertex
100
AcDb2dVertex
 10
14.44235646408489
 20
19.788485579405
 30
0.0
  0
VERTEX
  5
F7F
330
F70
100
AcDbEntity
  8
0
100
AcDbVertex
100
AcDb2dVertex
 10
14.43244976300018
 20
19.79028679778404
 30
0.0
  0
VERTEX
  5
F80
330
F70
100
AcDbEntity
  8
0
100
AcDbVertex
100
AcDb2dVertex
 10
14.42164245272596
 20
19.79118740697355
 30
0.0
  0
VERTEX
  5
F81
330
F70
100
AcDbEntity
  8
0
100
AcDbVertex
100
AcDb2dVertex
 10
14.40993453326222
 20
19.79208801616308
 30
0.0
  0
VERTEX
  5
F82
330
F70
100
AcDbEntity
  8
0
100
AcDbVertex
100
AcDb2dVertex
 10
14.40182905055656
 20
19.79118740697355
 30
0.0
  0
VERTEX
  5
F83
330
F70
100
AcDbEntity
  8
0
100
AcDbVertex
100
AcDb2dVertex
 10
14.39552478622992
 20
19.79118740697355
 30
0.0
  0
VERTEX
  5
F84
330
F70
100
AcDbEntity
  8
0
100
AcDbVertex
100
AcDb2dVertex
 10
14.38831991271378
 20
19.78938618859452
 30
0.0
  0
VERTEX
  5
F85
330
F70
100
AcDbEntity
  8
0
100
AcDbVertex
100
AcDb2dVertex
 10
14.38201564838715
 20
19.78758497021548
 30
0.0
  0
VERTEX
  5
F86
330
F70
100
AcDbEntity
  8
0
100
AcDbVertex
100
AcDb2dVertex
 10
14.37661199325004
 20
19.78578375183644
 30
0.0
  0
VERTEX
  5
F87
330
F70
100
AcDbEntity
  8
0
100
AcDbVertex
100
AcDb2dVertex
 10
14.37120833811293
 20
19.78308192426789
 30
0.0
  0
VERTEX
  5
F88
330
F70
100
AcDbEntity
  8
0
100
AcDbVertex
100
AcDb2dVertex
 10
14.36580468297582
 20
19.77947948750982
 30
0.0
  0
VERTEX
  5
F89
330
F70
100
AcDbEntity
  8
0
100
AcDbVertex
100
AcDb2dVertex
 10
14.36130163702822
 20
19.77587705075174
 30
0.0
  0
VERTEX
  5
F8A
330
F70
100
AcDbEntity
  8
0
100
AcDbVertex
100
AcDb2dVertex
 10
14.35769920027015
 20
19.77227461399367
 30
0.0
  0
VERTEX
  5
F8B
330
F70
100
AcDbEntity
  8
0
100
AcDbVertex
100
AcDb2dVertex
 10
14.35409676351208
 20
19.76777156804607
 30
0.0
  0
VERTEX
  5
F8C
330
F70
100
AcDbEntity
  8
0
100
AcDbVertex
100
AcDb2dVertex
 10
14.35139493594352
 20
19.76236791290896
 30
0.0
  0
VERTEX
  5
F8D
330
F70
100
AcDbEntity
  8
0
100
AcDbVertex
100
AcDb2dVertex
 10
14.34869310837497
 20
19.75696425777185
 30
0.0
  0
VERTEX
  5
F8E
330
F70
100
AcDbEntity
  8
0
100
AcDbVertex
100
AcDb2dVertex
 10
14.34689188999593
 20
19.75156060263473
 30
0.0
  0
VERTEX
  5
F8F
330
F70
100
AcDbEntity
  8
0
100
AcDbVertex
100
AcDb2dVertex
 10
14.34509067161689
 20
19.74525633830811
 30
0.0
  0
VERTEX
  5
F90
330
F70
100
AcDbEntity
  8
0
100
AcDbVertex
100
AcDb2dVertex
 10
14.34419006242737
 20
19.73895207398149
 30
0.0
  0
VERTEX
  5
F91
330
F70
100
AcDbEntity
  8
0
100
AcDbVertex
100
AcDb2dVertex
 10
14.34419006242737
 20
19.73174720046533
 30
0.0
  0
VERTEX
  5
F92
330
F70
100
AcDbEntity
  8
0
100
AcDbVertex
100
AcDb2dVertex
 10
14.34509067161689
 20
19.72364171775967
 30
0.0
  0
VERTEX
  5
F93
330
F70
100
AcDbEntity
  8
0
100
AcDbVertex
100
AcDb2dVertex
 10
14.34599128080641
 20
19.715536235054
 30
0.0
  0
VERTEX
  5
F94
330
F70
100
AcDbEntity
  8
0
100
AcDbVertex
100
AcDb2dVertex
 10
14.34869310837497
 20
19.70833136153786
 30
0.0
  0
VERTEX
  5
F95
330
F70
100
AcDbEntity
  8
0
100
AcDbVertex
100
AcDb2dVertex
 10
14.35139493594352
 20
19.70112648802171
 30
0.0
  0
VERTEX
  5
F96
330
F70
100
AcDbEntity
  8
0
100
AcDbVertex
100
AcDb2dVertex
 10
14.35589798189111
 20
19.69482222369508
 30
0.0
  0
VERTEX
  5
F97
330
F70
100
AcDbEntity
  8
0
100
AcDbVertex
100
AcDb2dVertex
 10
14.3604010278387
 20
19.68851795936845
 30
0.0
  0
VERTEX
  5
F98
330
F70
100
AcDbEntity
  8
0
100
AcDbVertex
100
AcDb2dVertex
 10
14.36580468297582
 20
19.68311430423134
 30
0.0
  0
VERTEX
  5
F99
330
F70
100
AcDbEntity
  8
0
100
AcDbVertex
100
AcDb2dVertex
 10
14.37210894730245
 20
19.67771064909423
 30
0.0
  0
VERTEX
  5
F9A
330
F70
100
AcDbEntity
  8
0
100
AcDbVertex
100
AcDb2dVertex
 10
14.38111503919763
 20
19.67320760314663
 30
0.0
  0
VERTEX
  5
F9B
330
F70
100
AcDbEntity
  8
0
100
AcDbVertex
100
AcDb2dVertex
 10
14.39012113109281
 20
19.66870455719904
 30
0.0
  0
VERTEX
  5
F9C
330
F70
100
AcDbEntity
  8
0
100
AcDbVertex
100
AcDb2dVertex
 10
14.399127222988
 20
19.66420151125145
 30
0.0
  0
VERTEX
  5
F9D
330
F70
100
AcDbEntity
  8
0
100
AcDbVertex
100
AcDb2dVertex
 10
14.40993453326222
 20
19.66059907449337
 30
0.0
  0
VERTEX
  5
F9E
330
F70
100
AcDbEntity
  8
0
100
AcDbVertex
100
AcDb2dVertex
 10
14.42074184353644
 20
19.65789724692482
 30
0.0
  0
VERTEX
  5
F9F
330
F70
100
AcDbEntity
  8
0
100
AcDbVertex
100
AcDb2dVertex
 10
14.43154915381066
 20
19.65609602854578
 30
0.0
  0
VERTEX
  5
FA0
330
F70
100
AcDbEntity
  8
0
100
AcDbVertex
100
AcDb2dVertex
 10
14.44145585489537
 20
19.65519541935627
 30
0.0
  0
VERTEX
  5
FA1
330
F70
100
AcDbEntity
  8
0
100
AcDbVertex
100
AcDb2dVertex
 10
14.45226316516959
 20
19.65429481016674
 30
0.0
  0
VERTEX
  5
FA2
330
F70
100
AcDbEntity
  8
0
100
AcDbVertex
100
AcDb2dVertex
 10
14.46036864787526
 20
19.65519541935627
 30
0.0
  0
VERTEX
  5
FA3
330
F70
100
AcDbEntity
  8
0
100
AcDbVertex
100
AcDb2dVertex
 10
14.46667291220189
 20
19.65519541935627
 30
0.0
  0
VERTEX
  5
FA4
330
F70
100
AcDbEntity
  8
0
100
AcDbVertex
100
AcDb2dVertex
 10
14.47387778571803
 20
19.6569966377353
 30
0.0
  0
VERTEX
  5
FA5
330
F70
100
AcDbEntity
  8
0
100
AcDbVertex
100
AcDb2dVertex
 10
14.47928144085515
 20
19.65879785611434
 30
0.0
  0
VERTEX
  5
FA6
330
F70
100
AcDbEntity
  8
0
100
AcDbVertex
100
AcDb2dVertex
 10
14.48558570518178
 20
19.66059907449337
 30
0.0
  0
VERTEX
  5
FA7
330
F70
100
AcDbEntity
  8
0
100
AcDbVertex
100
AcDb2dVertex
 10
14.49098936031889
 20
19.66330090206193
 30
0.0
  0
VERTEX
  5
FA8
330
F70
100
AcDbEntity
  8
0
100
AcDbVertex
100
AcDb2dVertex
 10
14.49549240626648
 20
19.66600272963048
 30
0.0
  0
VERTEX
  5
FA9
330
F70
100
AcDbEntity
  8
0
100
AcDbVertex
100
AcDb2dVertex
 10
14.49999545221407
 20
19.66960516638856
 30
0.0
  0
VERTEX
  5
FAA
330
F70
100
AcDbEntity
  8
0
100
AcDbVertex
100
AcDb2dVertex
 10
14.50359788897214
 20
19.67410821233615
 30
0.0
  0
VERTEX
  5
FAB
330
F70
100
AcDbEntity
  8
0
100
AcDbVertex
100
AcDb2dVertex
 10
14.50720032573022
 20
19.67861125828374
 30
0.0
  0
VERTEX
  5
FAC
330
F70
100
AcDbEntity
  8
0
100
AcDbVertex
100
AcDb2dVertex
 10
14.50990215329877
 20
19.68311430423134
 30
0.0
  0
VERTEX
  5
FAD
330
F70
100
AcDbEntity
  8
0
100
AcDbVertex
100
AcDb2dVertex
 10
14.51170337167781
 20
19.68851795936845
 30
0.0
  0
VERTEX
  5
FAE
330
F70
100
AcDbEntity
  8
0
100
AcDbVertex
100
AcDb2dVertex
 10
14.51350459005685
 20
19.69392161450556
 30
0.0
  0
VERTEX
  5
FAF
330
F70
100
AcDbEntity
  8
0
100
AcDbVertex
100
AcDb2dVertex
 10
14.51530580843589
 20
19.70022587883219
 30
0.0
  0
VERTEX
  5
FB0
330
F70
100
AcDbEntity
  8
0
100
AcDbVertex
100
AcDb2dVertex
 10
14.51530580843589
 20
19.70743075234834
 30
0.0
  0
VERTEX
  5
FB1
330
F70
100
AcDbEntity
  8
0
100
AcDbVertex
100
AcDb2dVertex
 10
14.5162064176254
 20
19.71373501667496
 30
0.0
  0
VERTEX
  5
FB2
330
F70
100
AcDbEntity
  8
0
100
AcDbVertex
100
AcDb2dVertex
 10
14.5162064176254
 20
19.71373501667496
 30
0.0
  0
SEQEND
  5
FB3
330
F70
100
AcDbEntity
  8
0
  0
POLYLINE
  5
FB4
330
1F
100
AcDbEntity
  8
0
100
AcDb2dPolyline
 66
     1
 10
0.0
 20
0.0
 30
0.0
  0
VERTEX
  5
FB5
330
FB4
100
AcDbEntity
  8
0
100
AcDbVertex
100
AcDb2dVertex
 10
14.40993453326222
 20
19.84342273996563
 30
0.0
  0
VERTEX
  5
FB6
330
FB4
100
AcDbEntity
  8
0
100
AcDbVertex
100
AcDb2dVertex
 10
14.42614549867355
 20
19.84342273996563
 30
0.0
  0
VERTEX
  5
FB7
330
FB4
100
AcDbEntity
  8
0
100
AcDbVertex
100
AcDb2dVertex
 10
14.44145585489537
 20
19.84072091239707
 30
0.0
  0
VERTEX
  5
FB8
330
FB4
100
AcDbEntity
  8
0
100
AcDbVertex
100
AcDb2dVertex
 10
14.45676621111718
 20
19.837118475639
 30
0.0
  0
VERTEX
  5
FB9
330
FB4
100
AcDbEntity
  8
0
100
AcDbVertex
100
AcDb2dVertex
 10
14.472076567339
 20
19.83261542969141
 30
0.0
  0
VERTEX
  5
FBA
330
FB4
100
AcDbEntity
  8
0
100
AcDbVertex
100
AcDb2dVertex
 10
14.48648631437129
 20
19.82631116536478
 30
0.0
  0
VERTEX
  5
FBB
330
FB4
100
AcDbEntity
  8
0
100
AcDbVertex
100
AcDb2dVertex
 10
14.49999545221407
 20
19.81910629184863
 30
0.0
  0
VERTEX
  5
FBC
330
FB4
100
AcDbEntity
  8
0
100
AcDbVertex
100
AcDb2dVertex
 10
14.51170337167781
 20
19.81010019995344
 30
0.0
  0
VERTEX
  5
FBD
330
FB4
100
AcDbEntity
  8
0
100
AcDbVertex
100
AcDb2dVertex
 10
14.52341129114155
 20
19.80019349886873
 30
0.0
  0
VERTEX
  5
FBE
330
FB4
100
AcDbEntity
  8
0
100
AcDbVertex
100
AcDb2dVertex
 10
14.53151677384722
 20
19.79118740697355
 30
0.0
  0
VERTEX
  5
FBF
330
FB4
100
AcDbEntity
  8
0
100
AcDbVertex
100
AcDb2dVertex
 10
14.53962225655288
 20
19.78218131507837
 30
0.0
  0
VERTEX
  5
FC0
330
FB4
100
AcDbEntity
  8
0
100
AcDbVertex
100
AcDb2dVertex
 10
14.54592652087951
 20
19.77137400480415
 30
0.0
  0
VERTEX
  5
FC1
330
FB4
100
AcDbEntity
  8
0
100
AcDbVertex
100
AcDb2dVertex
 10
14.55133017601663
 20
19.75966608534041
 30
0.0
  0
VERTEX
  5
FC2
330
FB4
100
AcDbEntity
  8
0
100
AcDbVertex
100
AcDb2dVertex
 10
14.5549326127747
 20
19.74795816587667
 30
0.0
  0
VERTEX
  5
FC3
330
FB4
100
AcDbEntity
  8
0
100
AcDbVertex
100
AcDb2dVertex
 10
14.55763444034325
 20
19.73625024641293
 30
0.0
  0
VERTEX
  5
FC4
330
FB4
100
AcDbEntity
  8
0
100
AcDbVertex
100
AcDb2dVertex
 10
14.55943565872229
 20
19.72364171775967
 30
0.0
  0
VERTEX
  5
FC5
330
FB4
100
AcDbEntity
  8
0
100
AcDbVertex
100
AcDb2dVertex
 10
14.56033626791181
 20
19.71103318910641
 30
0.0
  0
VERTEX
  5
FC6
330
FB4
100
AcDbEntity
  8
0
100
AcDbVertex
100
AcDb2dVertex
 10
14.56033626791181
 20
19.69842466045315
 30
0.0
  0
VERTEX
  5
FC7
330
FB4
100
AcDbEntity
  8
0
100
AcDbVertex
100
AcDb2dVertex
 10
14.55853504953276
 20
19.68671674098941
 30
0.0
  0
VERTEX
  5
FC8
330
FB4
100
AcDbEntity
  8
0
100
AcDbVertex
100
AcDb2dVertex
 10
14.55583322196422
 20
19.67500882152567
 30
0.0
  0
VERTEX
  5
FC9
330
FB4
100
AcDbEntity
  8
0
100
AcDbVertex
100
AcDb2dVertex
 10
14.55313139439566
 20
19.66510212044097
 30
0.0
  0
VERTEX
  5
FCA
330
FB4
100
AcDbEntity
  8
0
100
AcDbVertex
100
AcDb2dVertex
 10
14.54862834844807
 20
19.65519541935627
 30
0.0
  0
VERTEX
  5
FCB
330
FB4
100
AcDbEntity
  8
0
100
AcDbVertex
100
AcDb2dVertex
 10
14.54322469331096
 20
19.64618932746107
 30
0.0
  0
VERTEX
  5
FCC
330
FB4
100
AcDbEntity
  8
0
100
AcDbVertex
100
AcDb2dVertex
 10
14.53782103817385
 20
19.63808384475541
 30
0.0
  0
VERTEX
  5
FCD
330
FB4
100
AcDbEntity
  8
0
100
AcDbVertex
100
AcDb2dVertex
 10
14.5306161646577
 20
19.63087897123926
 30
0.0
  0
VERTEX
  5
FCE
330
FB4
100
AcDbEntity
  8
0
100
AcDbVertex
100
AcDb2dVertex
 10
14.52251068195202
 20
19.62367409772312
 30
0.0
  0
VERTEX
  5
FCF
330
FB4
100
AcDbEntity
  8
0
100
AcDbVertex
100
AcDb2dVertex
 10
14.51440519924637
 20
19.61827044258601
 30
0.0
  0
VERTEX
  5
FD0
330
FB4
100
AcDbEntity
  8
0
100
AcDbVertex
100
AcDb2dVertex
 10
14.50449849816166
 20
19.61376739663841
 30
0.0
  0
VERTEX
  5
FD1
330
FB4
100
AcDbEntity
  8
0
100
AcDbVertex
100
AcDb2dVertex
 10
14.49459179707696
 20
19.60926435069082
 30
0.0
  0
VERTEX
  5
FD2
330
FB4
100
AcDbEntity
  8
0
100
AcDbVertex
100
AcDb2dVertex
 10
14.48378448680274
 20
19.60656252312226
 30
0.0
  0
VERTEX
  5
FD3
330
FB4
100
AcDbEntity
  8
0
100
AcDbVertex
100
AcDb2dVertex
 10
14.472076567339
 20
19.60386069555371
 30
0.0
  0
VERTEX
  5
FD4
330
FB4
100
AcDbEntity
  8
0
100
AcDbVertex
100
AcDb2dVertex
 10
14.45946803868574
 20
19.60296008636419
 30
0.0
  0
VERTEX
  5
FD5
330
FB4
100
AcDbEntity
  8
0
100
AcDbVertex
100
AcDb2dVertex
 10
14.44685951003248
 20
19.60205947717468
 30
0.0
  0
VERTEX
  5
FD6
330
FB4
100
AcDbEntity
  8
0
100
AcDbVertex
100
AcDb2dVertex
 10
14.43244976300018
 20
19.60296008636419
 30
0.0
  0
VERTEX
  5
FD7
330
FB4
100
AcDbEntity
  8
0
100
AcDbVertex
100
AcDb2dVertex
 10
14.41713940677837
 20
19.60476130474322
 30
0.0
  0
VERTEX
  5
FD8
330
FB4
100
AcDbEntity
  8
0
100
AcDbVertex
100
AcDb2dVertex
 10
14.40272965974607
 20
19.6083637415013
 30
0.0
  0
VERTEX
  5
FD9
330
FB4
100
AcDbEntity
  8
0
100
AcDbVertex
100
AcDb2dVertex
 10
14.3892205219033
 20
19.61286678744889
 30
0.0
  0
VERTEX
  5
FDA
330
FB4
100
AcDbEntity
  8
0
100
AcDbVertex
100
AcDb2dVertex
 10
14.374810774871
 20
19.61917105177552
 30
0.0
  0
VERTEX
  5
FDB
330
FB4
100
AcDbEntity
  8
0
100
AcDbVertex
100
AcDb2dVertex
 10
14.36220224621774
 20
19.62637592529167
 30
0.0
  0
VERTEX
  5
FDC
330
FB4
100
AcDbEntity
  8
0
100
AcDbVertex
100
AcDb2dVertex
 10
14.350494326754
 20
19.63448140799734
 30
0.0
  0
VERTEX
  5
FDD
330
FB4
100
AcDbEntity
  8
0
100
AcDbVertex
100
AcDb2dVertex
 10
14.33968701647978
 20
19.64348749989252
 30
0.0
  0
VERTEX
  5
FDE
330
FB4
100
AcDbEntity
  8
0
100
AcDbVertex
100
AcDb2dVertex
 10
14.32978031539508
 20
19.65249359178771
 30
0.0
  0
VERTEX
  5
FDF
330
FB4
100
AcDbEntity
  8
0
100
AcDbVertex
100
AcDb2dVertex
 10
14.32257544187893
 20
19.66240029287241
 30
0.0
  0
VERTEX
  5
FE0
330
FB4
100
AcDbEntity
  8
0
100
AcDbVertex
100
AcDb2dVertex
 10
14.31537056836278
 20
19.67320760314663
 30
0.0
  0
VERTEX
  5
FE1
330
FB4
100
AcDbEntity
  8
0
100
AcDbVertex
100
AcDb2dVertex
 10
14.30996691322567
 20
19.68491552261037
 30
0.0
  0
VERTEX
  5
FE2
330
FB4
100
AcDbEntity
  8
0
100
AcDbVertex
100
AcDb2dVertex
 10
14.30546386727808
 20
19.69662344207412
 30
0.0
  0
VERTEX
  5
FE3
330
FB4
100
AcDbEntity
  8
0
100
AcDbVertex
100
AcDb2dVertex
 10
14.30186143052
 20
19.70923197072737
 30
0.0
  0
VERTEX
  5
FE4
330
FB4
100
AcDbEntity
  8
0
100
AcDbVertex
100
AcDb2dVertex
 10
14.30006021214096
 20
19.72184049938063
 30
0.0
  0
VERTEX
  5
FE5
330
FB4
100
AcDbEntity
  8
0
100
AcDbVertex
100
AcDb2dVertex
 10
14.30006021214096
 20
19.73534963722341
 30
0.0
  0
VERTEX
  5
FE6
330
FB4
100
AcDbEntity
  8
0
100
AcDbVertex
100
AcDb2dVertex
 10
14.30006021214096
 20
19.74795816587667
 30
0.0
  0
VERTEX
  5
FE7
330
FB4
100
AcDbEntity
  8
0
100
AcDbVertex
100
AcDb2dVertex
 10
14.30186143052
 20
19.75966608534041
 30
0.0
  0
VERTEX
  5
FE8
330
FB4
100
AcDbEntity
  8
0
100
AcDbVertex
100
AcDb2dVertex
 10
14.30366264889904
 20
19.77047339561463
 30
0.0
  0
VERTEX
  5
FE9
330
FB4
100
AcDbEntity
  8
0
100
AcDbVertex
100
AcDb2dVertex
 10
14.30726508565711
 20
19.78128070588885
 30
0.0
  0
VERTEX
  5
FEA
330
FB4
100
AcDbEntity
  8
0
100
AcDbVertex
100
AcDb2dVertex
 10
14.31086752241519
 20
19.79028679778404
 30
0.0
  0
VERTEX
  5
FEB
330
FB4
100
AcDbEntity
  8
0
100
AcDbVertex
100
AcDb2dVertex
 10
14.3162711775523
 20
19.79929288967922
 30
0.0
  0
VERTEX
  5
FEC
330
FB4
100
AcDbEntity
  8
0
100
AcDbVertex
100
AcDb2dVertex
 10
14.32257544187893
 20
19.80739837238489
 30
0.0
  0
VERTEX
  5
FED
330
FB4
100
AcDbEntity
  8
0
100
AcDbVertex
100
AcDb2dVertex
 10
14.32887970620556
 20
19.81550385509055
 30
0.0
  0
VERTEX
  5
FEE
330
FB4
100
AcDbEntity
  8
0
100
AcDbVertex
100
AcDb2dVertex
 10
14.33698518891122
 20
19.82180811941718
 30
0.0
  0
VERTEX
  5
FEF
330
FB4
100
AcDbEntity
  8
0
100
AcDbVertex
100
AcDb2dVertex
 10
14.34509067161689
 20
19.82811238374381
 30
0.0
  0
VERTEX
  5
FF0
330
FB4
100
AcDbEntity
  8
0
100
AcDbVertex
100
AcDb2dVertex
 10
14.35409676351208
 20
19.83261542969141
 30
0.0
  0
VERTEX
  5
FF1
330
FB4
100
AcDbEntity
  8
0
100
AcDbVertex
100
AcDb2dVertex
 10
14.36400346459678
 20
19.837118475639
 30
0.0
  0
VERTEX
  5
FF2
330
FB4
100
AcDbEntity
  8
0
100
AcDbVertex
100
AcDb2dVertex
 10
14.37391016568148
 20
19.83982030320755
 30
0.0
  0
VERTEX
  5
FF3
330
FB4
100
AcDbEntity
  8
0
100
AcDbVertex
100
AcDb2dVertex
 10
14.38561808514522
 20
19.84252213077611
 30
0.0
  0
VERTEX
  5
FF4
330
FB4
100
AcDbEntity
  8
0
100
AcDbVertex
100
AcDb2dVertex
 10
14.39732600460896
 20
19.84342273996563
 30
0.0
  0
VERTEX
  5
FF5
330
FB4
100
AcDbEntity
  8
0
100
AcDbVertex
100
AcDb2dVertex
 10
14.40993453326222
 20
19.84342273996563
 30
0.0
  0
VERTEX
  5
FF6
330
FB4
100
AcDbEntity
  8
0
100
AcDbVertex
100
AcDb2dVertex
 10
14.40993453326222
 20
19.84342273996563
 30
0.0
  0
SEQEND
  5
FF7
330
FB4
100
AcDbEntity
  8
0
  0
POLYLINE
  5
FF8
330
1F
100
AcDbEntity
  8
0
100
AcDb2dPolyline
 66
     1
 10
0.0
 20
0.0
 30
0.0
  0
VERTEX
  5
FF9
330
FF8
100
AcDbEntity
  8
0
100
AcDbVertex
100
AcDb2dVertex
 10
14.9205799437192
 20
19.25892737596813
 30
0.0
  0
VERTEX
  5
FFA
330
FF8
100
AcDbEntity
  8
0
100
AcDbVertex
100
AcDb2dVertex
 10
15.16734686164727
 20
19.21389691649221
 30
0.0
  0
VERTEX
  5
FFB
330
FF8
100
AcDbEntity
  8
0
100
AcDbVertex
100
AcDb2dVertex
 10
15.16734686164727
 20
19.05178726237888
 30
0.0
  0
VERTEX
  5
FFC
330
FF8
100
AcDbEntity
  8
0
100
AcDbVertex
100
AcDb2dVertex
 10
15.12411762055038
 20
19.05989274508455
 30
0.0
  0
VERTEX
  5
FFD
330
FF8
100
AcDbEntity
  8
0
100
AcDbVertex
100
AcDb2dVertex
 10
15.12411762055038
 20
19.17066767539532
 30
0.0
  0
VERTEX
  5
FFE
330
FF8
100
AcDbEntity
  8
0
100
AcDbVertex
100
AcDb2dVertex
 10
15.07188228755831
 20
19.18147498566954
 30
0.0
  0
VERTEX
  5
FFF
330
FF8
100
AcDbEntity
  8
0
100
AcDbVertex
100
AcDb2dVertex
 10
15.07188228755831
 20
19.0770043196854
 30
0.0
  0
VERTEX
  5
1000
330
FF8
100
AcDbEntity
  8
0
100
AcDbVertex
100
AcDb2dVertex
 10
15.0277524372719
 20
19.08510980239106
 30
0.0
  0
VERTEX
  5
1001
330
FF8
100
AcDbEntity
  8
0
100
AcDbVertex
100
AcDb2dVertex
 10
15.0277524372719
 20
19.18867985918569
 30
0.0
  0
VERTEX
  5
1002
330
FF8
100
AcDbEntity
  8
0
100
AcDbVertex
100
AcDb2dVertex
 10
14.96380918481609
 20
19.19948716945991
 30
0.0
  0
VERTEX
  5
1003
330
FF8
100
AcDbEntity
  8
0
100
AcDbVertex
100
AcDb2dVertex
 10
14.96380918481609
 20
19.08060675644347
 30
0.0
  0
VERTEX
  5
1004
330
FF8
100
AcDbEntity
  8
0
100
AcDbVertex
100
AcDb2dVertex
 10
14.9205799437192
 20
19.08871223914914
 30
0.0
  0
VERTEX
  5
1005
330
FF8
100
AcDbEntity
  8
0
100
AcDbVertex
100
AcDb2dVertex
 10
14.9205799437192
 20
19.25892737596813
 30
0.0
  0
VERTEX
  5
1006
330
FF8
100
AcDbEntity
  8
0
100
AcDbVertex
100
AcDb2dVertex
 10
14.9205799437192
 20
19.25892737596813
 30
0.0
  0
SEQEND
  5
1007
330
FF8
100
AcDbEntity
  8
0
  0
POLYLINE
  5
1008
330
1F
100
AcDbEntity
  8
0
100
AcDb2dPolyline
 66
     1
 10
0.0
 20
0.0
 30
0.0
  0
VERTEX
  5
1009
330
1008
100
AcDbEntity
  8
0
100
AcDbVertex
100
AcDb2dVertex
 10
15.01154147186057
 20
18.97703669964884
 30
0.0
  0
VERTEX
  5
100A
330
1008
100
AcDbEntity
  8
0
100
AcDbVertex
100
AcDb2dVertex
 10
15.01154147186057
 20
18.91219283800351
 30
0.0
  0
VERTEX
  5
100B
330
1008
100
AcDbEntity
  8
0
100
AcDbVertex
100
AcDb2dVertex
 10
15.11601213784471
 20
18.92480136665677
 30
0.0
  0
VERTEX
  5
100C
330
1008
100
AcDbEntity
  8
0
100
AcDbVertex
100
AcDb2dVertex
 10
15.01154147186057
 20
18.97703669964884
 30
0.0
  0
VERTEX
  5
100D
330
1008
100
AcDbEntity
  8
0
100
AcDbVertex
100
AcDb2dVertex
 10
15.01154147186057
 20
18.97703669964884
 30
0.0
  0
SEQEND
  5
100E
330
1008
100
AcDbEntity
  8
0
  0
POLYLINE
  5
100F
330
1F
100
AcDbEntity
  8
0
100
AcDb2dPolyline
 66
     1
 10
0.0
 20
0.0
 30
0.0
  0
VERTEX
  5
1010
330
100F
100
AcDbEntity
  8
0
100
AcDbVertex
100
AcDb2dVertex
 10
14.9205799437192
 20
19.0770043196854
 30
0.0
  0
VERTEX
  5
1011
330
100F
100
AcDbEntity
  8
0
100
AcDbVertex
100
AcDb2dVertex
 10
15.16734686164727
 20
18.94821720558425
 30
0.0
  0
VERTEX
  5
1012
330
100F
100
AcDbEntity
  8
0
100
AcDbVertex
100
AcDb2dVertex
 10
15.16734686164727
 20
18.88877699907603
 30
0.0
  0
VERTEX
  5
1013
330
100F
100
AcDbEntity
  8
0
100
AcDbVertex
100
AcDb2dVertex
 10
14.9205799437192
 20
18.84915019473722
 30
0.0
  0
VERTEX
  5
1014
330
100F
100
AcDbEntity
  8
0
100
AcDbVertex
100
AcDb2dVertex
 10
14.9205799437192
 20
18.90048491853977
 30
0.0
  0
VERTEX
  5
1015
330
100F
100
AcDbEntity
  8
0
100
AcDbVertex
100
AcDb2dVertex
 10
14.9692128399532
 20
18.9067891828664
 30
0.0
  0
VERTEX
  5
1016
330
100F
100
AcDbEntity
  8
0
100
AcDbVertex
100
AcDb2dVertex
 10
14.9692128399532
 20
18.99775071100776
 30
0.0
  0
VERTEX
  5
1017
330
100F
100
AcDbEntity
  8
0
100
AcDbVertex
100
AcDb2dVertex
 10
14.9205799437192
 20
19.02206715912477
 30
0.0
  0
VERTEX
  5
1018
330
100F
100
AcDbEntity
  8
0
100
AcDbVertex
100
AcDb2dVertex
 10
14.9205799437192
 20
19.0770043196854
 30
0.0
  0
VERTEX
  5
1019
330
100F
100
AcDbEntity
  8
0
100
AcDbVertex
100
AcDb2dVertex
 10
14.9205799437192
 20
19.0770043196854
 30
0.0
  0
SEQEND
  5
101A
330
100F
100
AcDbEntity
  8
0
  0
POLYLINE
  5
101B
330
1F
100
AcDbEntity
  8
0
100
AcDb2dPolyline
 66
     1
 10
0.0
 20
0.0
 30
0.0
  0
VERTEX
  5
101C
330
101B
100
AcDbEntity
  8
0
100
AcDbVertex
100
AcDb2dVertex
 10
14.99893294320731
 20
19.90196233728433
 30
0.0
  0
VERTEX
  5
101D
330
101B
100
AcDbEntity
  8
0
100
AcDbVertex
100
AcDb2dVertex
 10
14.99893294320731
 20
19.85242883186081
 30
0.0
  0
VERTEX
  5
101E
330
101B
100
AcDbEntity
  8
0
100
AcDbVertex
100
AcDb2dVertex
 10
14.99713172482828
 20
19.85242883186081
 30
0.0
  0
VERTEX
  5
101F
330
101B
100
AcDbEntity
  8
0
100
AcDbVertex
100
AcDb2dVertex
 10
14.98812563293309
 20
19.8515282226713
 30
0.0
  0
VERTEX
  5
1020
330
101B
100
AcDbEntity
  8
0
100
AcDbVertex
100
AcDb2dVertex
 10
14.98002015022742
 20
19.84882639510274
 30
0.0
  0
VERTEX
  5
1021
330
101B
100
AcDbEntity
  8
0
100
AcDbVertex
100
AcDb2dVertex
 10
14.97641771346935
 20
19.84792578591322
 30
0.0
  0
VERTEX
  5
1022
330
101B
100
AcDbEntity
  8
0
100
AcDbVertex
100
AcDb2dVertex
 10
14.97371588590079
 20
19.84522395834467
 30
0.0
  0
VERTEX
  5
1023
330
101B
100
AcDbEntity
  8
0
100
AcDbVertex
100
AcDb2dVertex
 10
14.97101405833224
 20
19.84342273996563
 30
0.0
  0
VERTEX
  5
1024
330
101B
100
AcDbEntity
  8
0
100
AcDbVertex
100
AcDb2dVertex
 10
14.96831223076368
 20
19.84072091239707
 30
0.0
  0
VERTEX
  5
1025
330
101B
100
AcDbEntity
  8
0
100
AcDbVertex
100
AcDb2dVertex
 10
14.96380918481609
 20
19.83441664807044
 30
0.0
  0
VERTEX
  5
1026
330
101B
100
AcDbEntity
  8
0
100
AcDbVertex
100
AcDb2dVertex
 10
14.96110735724754
 20
19.82631116536478
 30
0.0
  0
VERTEX
  5
1027
330
101B
100
AcDbEntity
  8
0
100
AcDbVertex
100
AcDb2dVertex
 10
14.95840552967898
 20
19.81730507346959
 30
0.0
  0
VERTEX
  5
1028
330
101B
100
AcDbEntity
  8
0
100
AcDbVertex
100
AcDb2dVertex
 10
14.95840552967898
 20
19.80739837238489
 30
0.0
  0
VERTEX
  5
1029
330
101B
100
AcDbEntity
  8
0
100
AcDbVertex
100
AcDb2dVertex
 10
14.95840552967898
 20
19.79839228048971
 30
0.0
  0
VERTEX
  5
102A
330
101B
100
AcDbEntity
  8
0
100
AcDbVertex
100
AcDb2dVertex
 10
14.96020674805802
 20
19.79028679778404
 30
0.0
  0
VERTEX
  5
102B
330
101B
100
AcDbEntity
  8
0
100
AcDbVertex
100
AcDb2dVertex
 10
14.96290857562657
 20
19.78398253345741
 30
0.0
  0
VERTEX
  5
102C
330
101B
100
AcDbEntity
  8
0
100
AcDbVertex
100
AcDb2dVertex
 10
14.96651101238465
 20
19.77767826913078
 30
0.0
  0
VERTEX
  5
102D
330
101B
100
AcDbEntity
  8
0
100
AcDbVertex
100
AcDb2dVertex
 10
14.97101405833224
 20
19.77317522318319
 30
0.0
  0
VERTEX
  5
102E
330
101B
100
AcDbEntity
  8
0
100
AcDbVertex
100
AcDb2dVertex
 10
14.97641771346935
 20
19.77047339561463
 30
0.0
  0
VERTEX
  5
102F
330
101B
100
AcDbEntity
  8
0
100
AcDbVertex
100
AcDb2dVertex
 10
14.9836225869855
 20
19.76867217723559
 30
0.0
  0
VERTEX
  5
1030
330
101B
100
AcDbEntity
  8
0
100
AcDbVertex
100
AcDb2dVertex
 10
14.99082746050165
 20
19.76777156804607
 30
0.0
  0
VERTEX
  5
1031
330
101B
100
AcDbEntity
  8
0
100
AcDbVertex
100
AcDb2dVertex
 10
14.99533050644924
 20
19.76777156804607
 30
0.0
  0
VERTEX
  5
1032
330
101B
100
AcDbEntity
  8
0
100
AcDbVertex
100
AcDb2dVertex
 10
14.99983355239683
 20
19.76957278642511
 30
0.0
  0
VERTEX
  5
1033
330
101B
100
AcDbEntity
  8
0
100
AcDbVertex
100
AcDb2dVertex
 10
15.0034359891549
 20
19.77137400480415
 30
0.0
  0
VERTEX
  5
1034
330
101B
100
AcDbEntity
  8
0
100
AcDbVertex
100
AcDb2dVertex
 10
15.00703842591298
 20
19.77497644156222
 30
0.0
  0
VERTEX
  5
1035
330
101B
100
AcDbEntity
  8
0
100
AcDbVertex
100
AcDb2dVertex
 10
15.01064086267105
 20
19.77947948750982
 30
0.0
  0
VERTEX
  5
1036
330
101B
100
AcDbEntity
  8
0
100
AcDbVertex
100
AcDb2dVertex
 10
15.01424329942913
 20
19.78578375183644
 30
0.0
  0
VERTEX
  5
1037
330
101B
100
AcDbEntity
  8
0
100
AcDbVertex
100
AcDb2dVertex
 10
15.01964695456624
 20
19.79478984373163
 30
0.0
  0
VERTEX
  5
1038
330
101B
100
AcDbEntity
  8
0
100
AcDbVertex
100
AcDb2dVertex
 10
15.02415000051383
 20
19.80649776319537
 30
0.0
  0
VERTEX
  5
1039
330
101B
100
AcDbEntity
  8
0
100
AcDbVertex
100
AcDb2dVertex
 10
15.03495731078805
 20
19.82811238374381
 30
0.0
  0
VERTEX
  5
103A
330
101B
100
AcDbEntity
  8
0
100
AcDbVertex
100
AcDb2dVertex
 10
15.04396340268324
 20
19.84522395834467
 30
0.0
  0
VERTEX
  5
103B
330
101B
100
AcDbEntity
  8
0
100
AcDbVertex
100
AcDb2dVertex
 10
15.04846644863083
 20
19.85242883186081
 30
0.0
  0
VERTEX
  5
103C
330
101B
100
AcDbEntity
  8
0
100
AcDbVertex
100
AcDb2dVertex
 10
15.05296949457842
 20
19.85873309618744
 30
0.0
  0
VERTEX
  5
103D
330
101B
100
AcDbEntity
  8
0
100
AcDbVertex
100
AcDb2dVertex
 10
15.0565719313365
 20
19.86323614213503
 30
0.0
  0
VERTEX
  5
103E
330
101B
100
AcDbEntity
  8
0
100
AcDbVertex
100
AcDb2dVertex
 10
15.06017436809457
 20
19.86773918808262
 30
0.0
  0
VERTEX
  5
103F
330
101B
100
AcDbEntity
  8
0
100
AcDbVertex
100
AcDb2dVertex
 10
15.06467741404216
 20
19.87044101565118
 30
0.0
  0
VERTEX
  5
1040
330
101B
100
AcDbEntity
  8
0
100
AcDbVertex
100
AcDb2dVertex
 10
15.06827985080024
 20
19.87314284321974
 30
0.0
  0
VERTEX
  5
1041
330
101B
100
AcDbEntity
  8
0
100
AcDbVertex
100
AcDb2dVertex
 10
15.07278289674783
 20
19.8758446707883
 30
0.0
  0
VERTEX
  5
1042
330
101B
100
AcDbEntity
  8
0
100
AcDbVertex
100
AcDb2dVertex
 10
15.07818655188494
 20
19.87764588916733
 30
0.0
  0
VERTEX
  5
1043
330
101B
100
AcDbEntity
  8
0
100
AcDbVertex
100
AcDb2dVertex
 10
15.08268959783253
 20
19.87854649835685
 30
0.0
  0
VERTEX
  5
1044
330
101B
100
AcDbEntity
  8
0
100
AcDbVertex
100
AcDb2dVertex
 10
15.08809325296964
 20
19.88034771673589
 30
0.0
  0
VERTEX
  5
1045
330
101B
100
AcDbEntity
  8
0
100
AcDbVertex
100
AcDb2dVertex
 10
15.09349690810675
 20
19.88034771673589
 30
0.0
  0
VERTEX
  5
1046
330
101B
100
AcDbEntity
  8
0
100
AcDbVertex
100
AcDb2dVertex
 10
15.09890056324386
 20
19.88124832592539
 30
0.0
  0
VERTEX
  5
1047
330
101B
100
AcDbEntity
  8
0
100
AcDbVertex
100
AcDb2dVertex
 10
15.10790665513905
 20
19.88034771673589
 30
0.0
  0
VERTEX
  5
1048
330
101B
100
AcDbEntity
  8
0
100
AcDbVertex
100
AcDb2dVertex
 10
15.1151115286552
 20
19.87944710754637
 30
0.0
  0
VERTEX
  5
1049
330
101B
100
AcDbEntity
  8
0
100
AcDbVertex
100
AcDb2dVertex
 10
15.12321701136086
 20
19.87764588916733
 30
0.0
  0
VERTEX
  5
104A
330
101B
100
AcDbEntity
  8
0
100
AcDbVertex
100
AcDb2dVertex
 10
15.12952127568749
 20
19.87494406159877
 30
0.0
  0
VERTEX
  5
104B
330
101B
100
AcDbEntity
  8
0
100
AcDbVertex
100
AcDb2dVertex
 10
15.13672614920364
 20
19.87224223403021
 30
0.0
  0
VERTEX
  5
104C
330
101B
100
AcDbEntity
  8
0
100
AcDbVertex
100
AcDb2dVertex
 10
15.14303041353027
 20
19.86773918808262
 30
0.0
  0
VERTEX
  5
104D
330
101B
100
AcDbEntity
  8
0
100
AcDbVertex
100
AcDb2dVertex
 10
15.14843406866738
 20
19.86323614213503
 30
0.0
  0
VERTEX
  5
104E
330
101B
100
AcDbEntity
  8
0
100
AcDbVertex
100
AcDb2dVertex
 10
15.15383772380449
 20
19.85783248699792
 30
0.0
  0
VERTEX
  5
104F
330
101B
100
AcDbEntity
  8
0
100
AcDbVertex
100
AcDb2dVertex
 10
15.15834076975209
 20
19.8515282226713
 30
0.0
  0
VERTEX
  5
1050
330
101B
100
AcDbEntity
  8
0
100
AcDbVertex
100
AcDb2dVertex
 10
15.16284381569968
 20
19.84522395834467
 30
0.0
  0
VERTEX
  5
1051
330
101B
100
AcDbEntity
  8
0
100
AcDbVertex
100
AcDb2dVertex
 10
15.16644625245775
 20
19.83801908482852
 30
0.0
  0
VERTEX
  5
1052
330
101B
100
AcDbEntity
  8
0
100
AcDbVertex
100
AcDb2dVertex
 10
15.16914808002631
 20
19.83081421131237
 30
0.0
  0
VERTEX
  5
1053
330
101B
100
AcDbEntity
  8
0
100
AcDbVertex
100
AcDb2dVertex
 10
15.17094929840534
 20
19.8227087286067
 30
0.0
  0
VERTEX
  5
1054
330
101B
100
AcDbEntity
  8
0
100
AcDbVertex
100
AcDb2dVertex
 10
15.17275051678438
 20
19.81370263671152
 30
0.0
  0
VERTEX
  5
1055
330
101B
100
AcDbEntity
  8
0
100
AcDbVertex
100
AcDb2dVertex
 10
15.1736511259739
 20
19.80469654481632
 30
0.0
  0
VERTEX
  5
1056
330
101B
100
AcDbEntity
  8
0
100
AcDbVertex
100
AcDb2dVertex
 10
15.1736511259739
 20
19.79478984373163
 30
0.0
  0
VERTEX
  5
1057
330
101B
100
AcDbEntity
  8
0
100
AcDbVertex
100
AcDb2dVertex
 10
15.1736511259739
 20
19.78488314264692
 30
0.0
  0
VERTEX
  5
1058
330
101B
100
AcDbEntity
  8
0
100
AcDbVertex
100
AcDb2dVertex
 10
15.17275051678438
 20
19.77497644156222
 30
0.0
  0
VERTEX
  5
1059
330
101B
100
AcDbEntity
  8
0
100
AcDbVertex
100
AcDb2dVertex
 10
15.17094929840534
 20
19.76597034966704
 30
0.0
  0
VERTEX
  5
105A
330
101B
100
AcDbEntity
  8
0
100
AcDbVertex
100
AcDb2dVertex
 10
15.16914808002631
 20
19.75696425777185
 30
0.0
  0
VERTEX
  5
105B
330
101B
100
AcDbEntity
  8
0
100
AcDbVertex
100
AcDb2dVertex
 10
15.16644625245775
 20
19.74885877506619
 30
0.0
  0
VERTEX
  5
105C
330
101B
100
AcDbEntity
  8
0
100
AcDbVertex
100
AcDb2dVertex
 10
15.16284381569968
 20
19.74165390155004
 30
0.0
  0
VERTEX
  5
105D
330
101B
100
AcDbEntity
  8
0
100
AcDbVertex
100
AcDb2dVertex
 10
15.1592413789416
 20
19.73534963722341
 30
0.0
  0
VERTEX
  5
105E
330
101B
100
AcDbEntity
  8
0
100
AcDbVertex
100
AcDb2dVertex
 10
15.15473833299401
 20
19.72904537289678
 30
0.0
  0
VERTEX
  5
105F
330
101B
100
AcDbEntity
  8
0
100
AcDbVertex
100
AcDb2dVertex
 10
15.1493346778569
 20
19.72364171775967
 30
0.0
  0
VERTEX
  5
1060
330
101B
100
AcDbEntity
  8
0
100
AcDbVertex
100
AcDb2dVertex
 10
15.14393102271979
 20
19.71823806262256
 30
0.0
  0
VERTEX
  5
1061
330
101B
100
AcDbEntity
  8
0
100
AcDbVertex
100
AcDb2dVertex
 10
15.13762675839316
 20
19.71463562586448
 30
0.0
  0
VERTEX
  5
1062
330
101B
100
AcDbEntity
  8
0
100
AcDbVertex
100
AcDb2dVertex
 10
15.13132249406653
 20
19.71103318910641
 30
0.0
  0
VERTEX
  5
1063
330
101B
100
AcDbEntity
  8
0
100
AcDbVertex
100
AcDb2dVertex
 10
15.12411762055038
 20
19.70833136153786
 30
0.0
  0
VERTEX
  5
1064
330
101B
100
AcDbEntity
  8
0
100
AcDbVertex
100
AcDb2dVertex
 10
15.11601213784471
 20
19.70653014315882
 30
0.0
  0
VERTEX
  5
1065
330
101B
100
AcDbEntity
  8
0
100
AcDbVertex
100
AcDb2dVertex
 10
15.10880726432857
 20
19.7056295339693
 30
0.0
  0
VERTEX
  5
1066
330
101B
100
AcDbEntity
  8
0
100
AcDbVertex
100
AcDb2dVertex
 10
15.09980117243338
 20
19.70472892477978
 30
0.0
  0
VERTEX
  5
1067
330
101B
100
AcDbEntity
  8
0
100
AcDbVertex
100
AcDb2dVertex
 10
15.09619873567531
 20
19.70472892477978
 30
0.0
  0
VERTEX
  5
1068
330
101B
100
AcDbEntity
  8
0
100
AcDbVertex
100
AcDb2dVertex
 10
15.09619873567531
 20
19.75336182101378
 30
0.0
  0
VERTEX
  5
1069
330
101B
100
AcDbEntity
  8
0
100
AcDbVertex
100
AcDb2dVertex
 10
15.10430421838098
 20
19.75426243020329
 30
0.0
  0
VERTEX
  5
106A
330
101B
100
AcDbEntity
  8
0
100
AcDbVertex
100
AcDb2dVertex
 10
15.11150909189711
 20
19.75696425777185
 30
0.0
  0
VERTEX
  5
106B
330
101B
100
AcDbEntity
  8
0
100
AcDbVertex
100
AcDb2dVertex
 10
15.11691274703424
 20
19.75966608534041
 30
0.0
  0
VERTEX
  5
106C
330
101B
100
AcDbEntity
  8
0
100
AcDbVertex
100
AcDb2dVertex
 10
15.12231640217135
 20
19.76506974047752
 30
0.0
  0
VERTEX
  5
106D
330
101B
100
AcDbEntity
  8
0
100
AcDbVertex
100
AcDb2dVertex
 10
15.12591883892942
 20
19.77047339561463
 30
0.0
  0
VERTEX
  5
106E
330
101B
100
AcDbEntity
  8
0
100
AcDbVertex
100
AcDb2dVertex
 10
15.12862066649798
 20
19.77767826913078
 30
0.0
  0
VERTEX
  5
106F
330
101B
100
AcDbEntity
  8
0
100
AcDbVertex
100
AcDb2dVertex
 10
15.13042188487701
 20
19.78578375183644
 30
0.0
  0
VERTEX
  5
1070
330
101B
100
AcDbEntity
  8
0
100
AcDbVertex
100
AcDb2dVertex
 10
15.13132249406653
 20
19.79478984373163
 30
0.0
  0
VERTEX
  5
1071
330
101B
100
AcDbEntity
  8
0
100
AcDbVertex
100
AcDb2dVertex
 10
15.13042188487701
 20
19.8028953264373
 30
0.0
  0
VERTEX
  5
1072
330
101B
100
AcDbEntity
  8
0
100
AcDbVertex
100
AcDb2dVertex
 10
15.12952127568749
 20
19.81010019995344
 30
0.0
  0
VERTEX
  5
1073
330
101B
100
AcDbEntity
  8
0
100
AcDbVertex
100
AcDb2dVertex
 10
15.12681944811894
 20
19.81550385509055
 30
0.0
  0
VERTEX
  5
1074
330
101B
100
AcDbEntity
  8
0
100
AcDbVertex
100
AcDb2dVertex
 10
15.12411762055038
 20
19.82090751022766
 30
0.0
  0
VERTEX
  5
1075
330
101B
100
AcDbEntity
  8
0
100
AcDbVertex
100
AcDb2dVertex
 10
15.12051518379231
 20
19.82450994698574
 30
0.0
  0
VERTEX
  5
1076
330
101B
100
AcDbEntity
  8
0
100
AcDbVertex
100
AcDb2dVertex
 10
15.11601213784471
 20
19.82721177455429
 30
0.0
  0
VERTEX
  5
1077
330
101B
100
AcDbEntity
  8
0
100
AcDbVertex
100
AcDb2dVertex
 10
15.1106084827076
 20
19.82901299293333
 30
0.0
  0
VERTEX
  5
1078
330
101B
100
AcDbEntity
  8
0
100
AcDbVertex
100
AcDb2dVertex
 10
15.10520482757049
 20
19.82991360212285
 30
0.0
  0
VERTEX
  5
1079
330
101B
100
AcDbEntity
  8
0
100
AcDbVertex
100
AcDb2dVertex
 10
15.1007017816229
 20
19.82901299293333
 30
0.0
  0
VERTEX
  5
107A
330
101B
100
AcDbEntity
  8
0
100
AcDbVertex
100
AcDb2dVertex
 10
15.09619873567531
 20
19.82721177455429
 30
0.0
  0
VERTEX
  5
107B
330
101B
100
AcDbEntity
  8
0
100
AcDbVertex
100
AcDb2dVertex
 10
15.09169568972772
 20
19.82450994698574
 30
0.0
  0
VERTEX
  5
107C
330
101B
100
AcDbEntity
  8
0
100
AcDbVertex
100
AcDb2dVertex
 10
15.08809325296964
 20
19.82090751022766
 30
0.0
  0
VERTEX
  5
107D
330
101B
100
AcDbEntity
  8
0
100
AcDbVertex
100
AcDb2dVertex
 10
15.08359020702205
 20
19.81640446428007
 30
0.0
  0
VERTEX
  5
107E
330
101B
100
AcDbEntity
  8
0
100
AcDbVertex
100
AcDb2dVertex
 10
15.07998777026398
 20
19.81010019995344
 30
0.0
  0
VERTEX
  5
107F
330
101B
100
AcDbEntity
  8
0
100
AcDbVertex
100
AcDb2dVertex
 10
15.0763853335059
 20
19.8028953264373
 30
0.0
  0
VERTEX
  5
1080
330
101B
100
AcDbEntity
  8
0
100
AcDbVertex
100
AcDb2dVertex
 10
15.07278289674783
 20
19.79478984373163
 30
0.0
  0
VERTEX
  5
1081
330
101B
100
AcDbEntity
  8
0
100
AcDbVertex
100
AcDb2dVertex
 10
15.07008106917927
 20
19.78938618859452
 30
0.0
  0
VERTEX
  5
1082
330
101B
100
AcDbEntity
  8
0
100
AcDbVertex
100
AcDb2dVertex
 10
15.06827985080024
 20
19.78578375183644
 30
0.0
  0
VERTEX
  5
1083
330
101B
100
AcDbEntity
  8
0
100
AcDbVertex
100
AcDb2dVertex
 10
15.06017436809457
 20
19.76777156804607
 30
0.0
  0
VERTEX
  5
1084
330
101B
100
AcDbEntity
  8
0
100
AcDbVertex
100
AcDb2dVertex
 10
15.0520688853889
 20
19.75246121182426
 30
0.0
  0
VERTEX
  5
1085
330
101B
100
AcDbEntity
  8
0
100
AcDbVertex
100
AcDb2dVertex
 10
15.04756583944131
 20
19.74615694749763
 30
0.0
  0
VERTEX
  5
1086
330
101B
100
AcDbEntity
  8
0
100
AcDbVertex
100
AcDb2dVertex
 10
15.04396340268324
 20
19.74075329236052
 30
0.0
  0
VERTEX
  5
1087
330
101B
100
AcDbEntity
  8
0
100
AcDbVertex
100
AcDb2dVertex
 10
15.03946035673564
 20
19.73625024641293
 30
0.0
  0
VERTEX
  5
1088
330
101B
100
AcDbEntity
  8
0
100
AcDbVertex
100
AcDb2dVertex
 10
15.03585791997757
 20
19.73174720046533
 30
0.0
  0
VERTEX
  5
1089
330
101B
100
AcDbEntity
  8
0
100
AcDbVertex
100
AcDb2dVertex
 10
15.03135487402998
 20
19.72904537289678
 30
0.0
  0
VERTEX
  5
108A
330
101B
100
AcDbEntity
  8
0
100
AcDbVertex
100
AcDb2dVertex
 10
15.02685182808239
 20
19.7254429361387
 30
0.0
  0
VERTEX
  5
108B
330
101B
100
AcDbEntity
  8
0
100
AcDbVertex
100
AcDb2dVertex
 10
15.02144817294527
 20
19.72364171775967
 30
0.0
  0
VERTEX
  5
108C
330
101B
100
AcDbEntity
  8
0
100
AcDbVertex
100
AcDb2dVertex
 10
15.01694512699768
 20
19.72093989019111
 30
0.0
  0
VERTEX
  5
108D
330
101B
100
AcDbEntity
  8
0
100
AcDbVertex
100
AcDb2dVertex
 10
15.01154147186057
 20
19.7200392810016
 30
0.0
  0
VERTEX
  5
108E
330
101B
100
AcDbEntity
  8
0
100
AcDbVertex
100
AcDb2dVertex
 10
15.00613781672346
 20
19.71823806262256
 30
0.0
  0
VERTEX
  5
108F
330
101B
100
AcDbEntity
  8
0
100
AcDbVertex
100
AcDb2dVertex
 10
14.99983355239683
 20
19.71823806262256
 30
0.0
  0
VERTEX
  5
1090
330
101B
100
AcDbEntity
  8
0
100
AcDbVertex
100
AcDb2dVertex
 10
14.9935292880702
 20
19.71733745343304
 30
0.0
  0
VERTEX
  5
1091
330
101B
100
AcDbEntity
  8
0
100
AcDbVertex
100
AcDb2dVertex
 10
14.98452319617502
 20
19.71823806262256
 30
0.0
  0
VERTEX
  5
1092
330
101B
100
AcDbEntity
  8
0
100
AcDbVertex
100
AcDb2dVertex
 10
14.97641771346935
 20
19.71913867181207
 30
0.0
  0
VERTEX
  5
1093
330
101B
100
AcDbEntity
  8
0
100
AcDbVertex
100
AcDb2dVertex
 10
14.96831223076368
 20
19.72093989019111
 30
0.0
  0
VERTEX
  5
1094
330
101B
100
AcDbEntity
  8
0
100
AcDbVertex
100
AcDb2dVertex
 10
14.96020674805802
 20
19.72364171775967
 30
0.0
  0
VERTEX
  5
1095
330
101B
100
AcDbEntity
  8
0
100
AcDbVertex
100
AcDb2dVertex
 10
14.95390248373139
 20
19.72724415451773
 30
0.0
  0
VERTEX
  5
1096
330
101B
100
AcDbEntity
  8
0
100
AcDbVertex
100
AcDb2dVertex
 10
14.94669761021524
 20
19.73174720046533
 30
0.0
  0
VERTEX
  5
1097
330
101B
100
AcDbEntity
  8
0
100
AcDbVertex
100
AcDb2dVertex
 10
14.94129395507813
 20
19.73625024641293
 30
0.0
  0
VERTEX
  5
1098
330
101B
100
AcDbEntity
  8
0
100
AcDbVertex
100
AcDb2dVertex
 10
14.9349896907515
 20
19.74255451073956
 30
0.0
  0
VERTEX
  5
1099
330
101B
100
AcDbEntity
  8
0
100
AcDbVertex
100
AcDb2dVertex
 10
14.93048664480391
 20
19.74885877506619
 30
0.0
  0
VERTEX
  5
109A
330
101B
100
AcDbEntity
  8
0
100
AcDbVertex
100
AcDb2dVertex
 10
14.92598359885631
 20
19.75606364858234
 30
0.0
  0
VERTEX
  5
109B
330
101B
100
AcDbEntity
  8
0
100
AcDbVertex
100
AcDb2dVertex
 10
14.92238116209824
 20
19.76326852209848
 30
0.0
  0
VERTEX
  5
109C
330
101B
100
AcDbEntity
  8
0
100
AcDbVertex
100
AcDb2dVertex
 10
14.91967933452968
 20
19.77137400480415
 30
0.0
  0
VERTEX
  5
109D
330
101B
100
AcDbEntity
  8
0
100
AcDbVertex
100
AcDb2dVertex
 10
14.91697750696113
 20
19.78038009669933
 30
0.0
  0
VERTEX
  5
109E
330
101B
100
AcDbEntity
  8
0
100
AcDbVertex
100
AcDb2dVertex
 10
14.91517628858209
 20
19.78938618859452
 30
0.0
  0
VERTEX
  5
109F
330
101B
100
AcDbEntity
  8
0
100
AcDbVertex
100
AcDb2dVertex
 10
14.91427567939258
 20
19.79929288967922
 30
0.0
  0
VERTEX
  5
10A0
330
101B
100
AcDbEntity
  8
0
100
AcDbVertex
100
AcDb2dVertex
 10
14.91427567939258
 20
19.81010019995344
 30
0.0
  0
VERTEX
  5
10A1
330
101B
100
AcDbEntity
  8
0
100
AcDbVertex
100
AcDb2dVertex
 10
14.91427567939258
 20
19.82000690103815
 30
0.0
  0
VERTEX
  5
10A2
330
101B
100
AcDbEntity
  8
0
100
AcDbVertex
100
AcDb2dVertex
 10
14.91517628858209
 20
19.82991360212285
 30
0.0
  0
VERTEX
  5
10A3
330
101B
100
AcDbEntity
  8
0
100
AcDbVertex
100
AcDb2dVertex
 10
14.91697750696113
 20
19.83891969401804
 30
0.0
  0
VERTEX
  5
10A4
330
101B
100
AcDbEntity
  8
0
100
AcDbVertex
100
AcDb2dVertex
 10
14.91967933452968
 20
19.84792578591322
 30
0.0
  0
VERTEX
  5
10A5
330
101B
100
AcDbEntity
  8
0
100
AcDbVertex
100
AcDb2dVertex
 10
14.92238116209824
 20
19.85603126861888
 30
0.0
  0
VERTEX
  5
10A6
330
101B
100
AcDbEntity
  8
0
100
AcDbVertex
100
AcDb2dVertex
 10
14.92598359885631
 20
19.86413675132455
 30
0.0
  0
VERTEX
  5
10A7
330
101B
100
AcDbEntity
  8
0
100
AcDbVertex
100
AcDb2dVertex
 10
14.93048664480391
 20
19.87044101565118
 30
0.0
  0
VERTEX
  5
10A8
330
101B
100
AcDbEntity
  8
0
100
AcDbVertex
100
AcDb2dVertex
 10
14.93589029994102
 20
19.87764588916733
 30
0.0
  0
VERTEX
  5
10A9
330
101B
100
AcDbEntity
  8
0
100
AcDbVertex
100
AcDb2dVertex
 10
14.94129395507813
 20
19.88304954430444
 30
0.0
  0
VERTEX
  5
10AA
330
101B
100
AcDbEntity
  8
0
100
AcDbVertex
100
AcDb2dVertex
 10
14.94759821940476
 20
19.88845319944155
 30
0.0
  0
VERTEX
  5
10AB
330
101B
100
AcDbEntity
  8
0
100
AcDbVertex
100
AcDb2dVertex
 10
14.95390248373139
 20
19.89205563619963
 30
0.0
  0
VERTEX
  5
10AC
330
101B
100
AcDbEntity
  8
0
100
AcDbVertex
100
AcDb2dVertex
 10
14.96110735724754
 20
19.8956580729577
 30
0.0
  0
VERTEX
  5
10AD
330
101B
100
AcDbEntity
  8
0
100
AcDbVertex
100
AcDb2dVertex
 10
14.96831223076368
 20
19.89835990052626
 30
0.0
  0
VERTEX
  5
10AE
330
101B
100
AcDbEntity
  8
0
100
AcDbVertex
100
AcDb2dVertex
 10
14.97641771346935
 20
19.90106172809481
 30
0.0
  0
VERTEX
  5
10AF
330
101B
100
AcDbEntity
  8
0
100
AcDbVertex
100
AcDb2dVertex
 10
14.98542380536453
 20
19.90196233728433
 30
0.0
  0
VERTEX
  5
10B0
330
101B
100
AcDbEntity
  8
0
100
AcDbVertex
100
AcDb2dVertex
 10
14.99442989725972
 20
19.90196233728433
 30
0.0
  0
VERTEX
  5
10B1
330
101B
100
AcDbEntity
  8
0
100
AcDbVertex
100
AcDb2dVertex
 10
14.99893294320731
 20
19.90196233728433
 30
0.0
  0
VERTEX
  5
10B2
330
101B
100
AcDbEntity
  8
0
100
AcDbVertex
100
AcDb2dVertex
 10
14.99893294320731
 20
19.90196233728433
 30
0.0
  0
SEQEND
  5
10B3
330
101B
100
AcDbEntity
  8
0
  0
POLYLINE
  5
10B4
330
1F
100
AcDbEntity
  8
0
100
AcDb2dPolyline
 66
     1
 10
0.0
 20
0.0
 30
0.0
  0
VERTEX
  5
10B5
330
10B4
100
AcDbEntity
  8
0
100
AcDbVertex
100
AcDb2dVertex
 10
15.05747254052602
 20
19.42013642089194
 30
0.0
  0
VERTEX
  5
10B6
330
10B4
100
AcDbEntity
  8
0
100
AcDbVertex
100
AcDb2dVertex
 10
15.05747254052602
 20
19.37240413384746
 30
0.0
  0
VERTEX
  5
10B7
330
10B4
100
AcDbEntity
  8
0
100
AcDbVertex
100
AcDb2dVertex
 10
15.05747254052602
 20
19.36069621438372
 30
0.0
  0
VERTEX
  5
10B8
330
10B4
100
AcDbEntity
  8
0
100
AcDbVertex
100
AcDb2dVertex
 10
15.05927375890505
 20
19.35169012248853
 30
0.0
  0
VERTEX
  5
10B9
330
10B4
100
AcDbEntity
  8
0
100
AcDbVertex
100
AcDb2dVertex
 10
15.06287619566312
 20
19.34268403059335
 30
0.0
  0
VERTEX
  5
10BA
330
10B4
100
AcDbEntity
  8
0
100
AcDbVertex
100
AcDb2dVertex
 10
15.06737924161072
 20
19.33637976626672
 30
0.0
  0
VERTEX
  5
10BB
330
10B4
100
AcDbEntity
  8
0
100
AcDbVertex
100
AcDb2dVertex
 10
15.07008106917927
 20
19.33367793869816
 30
0.0
  0
VERTEX
  5
10BC
330
10B4
100
AcDbEntity
  8
0
100
AcDbVertex
100
AcDb2dVertex
 10
15.07278289674783
 20
19.33097611112961
 30
0.0
  0
VERTEX
  5
10BD
330
10B4
100
AcDbEntity
  8
0
100
AcDbVertex
100
AcDb2dVertex
 10
15.0763853335059
 20
19.32917489275057
 30
0.0
  0
VERTEX
  5
10BE
330
10B4
100
AcDbEntity
  8
0
100
AcDbVertex
100
AcDb2dVertex
 10
15.07908716107445
 20
19.32737367437153
 30
0.0
  0
VERTEX
  5
10BF
330
10B4
100
AcDbEntity
  8
0
100
AcDbVertex
100
AcDb2dVertex
 10
15.08719264378013
 20
19.32467184680298
 30
0.0
  0
VERTEX
  5
10C0
330
10B4
100
AcDbEntity
  8
0
100
AcDbVertex
100
AcDb2dVertex
 10
15.09619873567531
 20
19.32377123761346
 30
0.0
  0
VERTEX
  5
10C1
330
10B4
100
AcDbEntity
  8
0
100
AcDbVertex
100
AcDb2dVertex
 10
15.10340360919146
 20
19.32467184680298
 30
0.0
  0
VERTEX
  5
10C2
330
10B4
100
AcDbEntity
  8
0
100
AcDbVertex
100
AcDb2dVertex
 10
15.10880726432857
 20
19.32647306518202
 30
0.0
  0
VERTEX
  5
10C3
330
10B4
100
AcDbEntity
  8
0
100
AcDbVertex
100
AcDb2dVertex
 10
15.11331031027616
 20
19.32917489275057
 30
0.0
  0
VERTEX
  5
10C4
330
10B4
100
AcDbEntity
  8
0
100
AcDbVertex
100
AcDb2dVertex
 10
15.11781335622375
 20
19.33367793869816
 30
0.0
  0
VERTEX
  5
10C5
330
10B4
100
AcDbEntity
  8
0
100
AcDbVertex
100
AcDb2dVertex
 10
15.12051518379231
 20
19.33818098464576
 30
0.0
  0
VERTEX
  5
10C6
330
10B4
100
AcDbEntity
  8
0
100
AcDbVertex
100
AcDb2dVertex
 10
15.12231640217135
 20
19.3453858581619
 30
0.0
  0
VERTEX
  5
10C7
330
10B4
100
AcDbEntity
  8
0
100
AcDbVertex
100
AcDb2dVertex
 10
15.12411762055038
 20
19.35259073167805
 30
0.0
  0
VERTEX
  5
10C8
330
10B4
100
AcDbEntity
  8
0
100
AcDbVertex
100
AcDb2dVertex
 10
15.12411762055038
 20
19.36159682357324
 30
0.0
  0
VERTEX
  5
10C9
330
10B4
100
AcDbEntity
  8
0
100
AcDbVertex
100
AcDb2dVertex
 10
15.12411762055038
 20
19.4084285014282
 30
0.0
  0
VERTEX
  5
10CA
330
10B4
100
AcDbEntity
  8
0
100
AcDbVertex
100
AcDb2dVertex
 10
15.05747254052602
 20
19.42013642089194
 30
0.0
  0
VERTEX
  5
10CB
330
10B4
100
AcDbEntity
  8
0
100
AcDbVertex
100
AcDb2dVertex
 10
15.05747254052602
 20
19.42013642089194
 30
0.0
  0
SEQEND
  5
10CC
330
10B4
100
AcDbEntity
  8
0
  0
POLYLINE
  5
10CD
330
1F
100
AcDbEntity
  8
0
100
AcDb2dPolyline
 66
     1
 10
0.0
 20
0.0
 30
0.0
  0
VERTEX
  5
10CE
330
10CD
100
AcDbEntity
  8
0
100
AcDbVertex
100
AcDb2dVertex
 10
14.9205799437192
 20
19.49578759281149
 30
0.0
  0
VERTEX
  5
10CF
330
10CD
100
AcDbEntity
  8
0
100
AcDbVertex
100
AcDb2dVertex
 10
15.16734686164727
 20
19.45255835171461
 30
0.0
  0
VERTEX
  5
10D0
330
10CD
100
AcDbEntity
  8
0
100
AcDbVertex
100
AcDb2dVertex
 10
15.16734686164727
 20
19.35799438681516
 30
0.0
  0
VERTEX
  5
10D1
330
10CD
100
AcDbEntity
  8
0
100
AcDbVertex
100
AcDb2dVertex
 10
15.16734686164727
 20
19.34808768573046
 30
0.0
  0
VERTEX
  5
10D2
330
10CD
100
AcDbEntity
  8
0
100
AcDbVertex
100
AcDb2dVertex
 10
15.16644625245775
 20
19.33818098464576
 30
0.0
  0
VERTEX
  5
10D3
330
10CD
100
AcDbEntity
  8
0
100
AcDbVertex
100
AcDb2dVertex
 10
15.16554564326823
 20
19.32917489275057
 30
0.0
  0
VERTEX
  5
10D4
330
10CD
100
AcDbEntity
  8
0
100
AcDbVertex
100
AcDb2dVertex
 10
15.16284381569968
 20
19.3210694100449
 30
0.0
  0
VERTEX
  5
10D5
330
10CD
100
AcDbEntity
  8
0
100
AcDbVertex
100
AcDb2dVertex
 10
15.16104259732064
 20
19.31296392733924
 30
0.0
  0
VERTEX
  5
10D6
330
10CD
100
AcDbEntity
  8
0
100
AcDbVertex
100
AcDb2dVertex
 10
15.15744016056257
 20
19.30575905382309
 30
0.0
  0
VERTEX
  5
10D7
330
10CD
100
AcDbEntity
  8
0
100
AcDbVertex
100
AcDb2dVertex
 10
15.15473833299401
 20
19.29945478949646
 30
0.0
  0
VERTEX
  5
10D8
330
10CD
100
AcDbEntity
  8
0
100
AcDbVertex
100
AcDb2dVertex
 10
15.15023528704642
 20
19.29315052516983
 30
0.0
  0
VERTEX
  5
10D9
330
10CD
100
AcDbEntity
  8
0
100
AcDbVertex
100
AcDb2dVertex
 10
15.14573224109883
 20
19.28864747922224
 30
0.0
  0
VERTEX
  5
10DA
330
10CD
100
AcDbEntity
  8
0
100
AcDbVertex
100
AcDb2dVertex
 10
15.14032858596171
 20
19.28414443327465
 30
0.0
  0
VERTEX
  5
10DB
330
10CD
100
AcDbEntity
  8
0
100
AcDbVertex
100
AcDb2dVertex
 10
15.1349249308246
 20
19.28054199651657
 30
0.0
  0
VERTEX
  5
10DC
330
10CD
100
AcDbEntity
  8
0
100
AcDbVertex
100
AcDb2dVertex
 10
15.12862066649798
 20
19.2769395597585
 30
0.0
  0
VERTEX
  5
10DD
330
10CD
100
AcDbEntity
  8
0
100
AcDbVertex
100
AcDb2dVertex
 10
15.12231640217135
 20
19.27513834137946
 30
0.0
  0
VERTEX
  5
10DE
330
10CD
100
AcDbEntity
  8
0
100
AcDbVertex
100
AcDb2dVertex
 10
15.1151115286552
 20
19.27333712300042
 30
0.0
  0
VERTEX
  5
10DF
330
10CD
100
AcDbEntity
  8
0
100
AcDbVertex
100
AcDb2dVertex
 10
15.10700604594953
 20
19.27153590462139
 30
0.0
  0
VERTEX
  5
10E0
330
10CD
100
AcDbEntity
  8
0
100
AcDbVertex
100
AcDb2dVertex
 10
15.09890056324386
 20
19.27153590462139
 30
0.0
  0
VERTEX
  5
10E1
330
10CD
100
AcDbEntity
  8
0
100
AcDbVertex
100
AcDb2dVertex
 10
15.08719264378013
 20
19.27243651381091
 30
0.0
  0
VERTEX
  5
10E2
330
10CD
100
AcDbEntity
  8
0
100
AcDbVertex
100
AcDb2dVertex
 10
15.07548472431638
 20
19.27423773218994
 30
0.0
  0
VERTEX
  5
10E3
330
10CD
100
AcDbEntity
  8
0
100
AcDbVertex
100
AcDb2dVertex
 10
15.06557802323168
 20
19.27874077813754
 30
0.0
  0
VERTEX
  5
10E4
330
10CD
100
AcDbEntity
  8
0
100
AcDbVertex
100
AcDb2dVertex
 10
15.0565719313365
 20
19.28414443327465
 30
0.0
  0
VERTEX
  5
10E5
330
10CD
100
AcDbEntity
  8
0
100
AcDbVertex
100
AcDb2dVertex
 10
15.0520688853889
 20
19.2868462608432
 30
0.0
  0
VERTEX
  5
10E6
330
10CD
100
AcDbEntity
  8
0
100
AcDbVertex
100
AcDb2dVertex
 10
15.04846644863083
 20
19.29044869760128
 30
0.0
  0
VERTEX
  5
10E7
330
10CD
100
AcDbEntity
  8
0
100
AcDbVertex
100
AcDb2dVertex
 10
15.04486401187276
 20
19.29405113435935
 30
0.0
  0
VERTEX
  5
10E8
330
10CD
100
AcDbEntity
  8
0
100
AcDbVertex
100
AcDb2dVertex
 10
15.04126157511468
 20
19.29855418030694
 30
0.0
  0
VERTEX
  5
10E9
330
10CD
100
AcDbEntity
  8
0
100
AcDbVertex
100
AcDb2dVertex
 10
15.03675852916709
 20
19.30756027220213
 30
0.0
  0
VERTEX
  5
10EA
330
10CD
100
AcDbEntity
  8
0
100
AcDbVertex
100
AcDb2dVertex
 10
15.0322554832195
 20
19.31836758247635
 30
0.0
  0
VERTEX
  5
10EB
330
10CD
100
AcDbEntity
  8
0
100
AcDbVertex
100
AcDb2dVertex
 10
15.03045426484046
 20
19.31296392733924
 30
0.0
  0
VERTEX
  5
10EC
330
10CD
100
AcDbEntity
  8
0
100
AcDbVertex
100
AcDb2dVertex
 10
15.02775243727191
 20
19.30846088139164
 30
0.0
  0
VERTEX
  5
10ED
330
10CD
100
AcDbEntity
  8
0
100
AcDbVertex
100
AcDb2dVertex
 10
15.02415000051383
 20
19.30575905382309
 30
0.0
  0
VERTEX
  5
10EE
330
10CD
100
AcDbEntity
  8
0
100
AcDbVertex
100
AcDb2dVertex
 10
15.02054756375576
 20
19.30305722625454
 30
0.0
  0
VERTEX
  5
10EF
330
10CD
100
AcDbEntity
  8
0
100
AcDbVertex
100
AcDb2dVertex
 10
15.01604451780816
 20
19.30125600787549
 30
0.0
  0
VERTEX
  5
10F0
330
10CD
100
AcDbEntity
  8
0
100
AcDbVertex
100
AcDb2dVertex
 10
15.00974025348153
 20
19.29945478949646
 30
0.0
  0
VERTEX
  5
10F1
330
10CD
100
AcDbEntity
  8
0
100
AcDbVertex
100
AcDb2dVertex
 10
15.00253537996538
 20
19.29855418030694
 30
0.0
  0
VERTEX
  5
10F2
330
10CD
100
AcDbEntity
  8
0
100
AcDbVertex
100
AcDb2dVertex
 10
14.99442989725972
 20
19.29855418030694
 30
0.0
  0
VERTEX
  5
10F3
330
10CD
100
AcDbEntity
  8
0
100
AcDbVertex
100
AcDb2dVertex
 10
14.98722502374357
 20
19.29855418030694
 30
0.0
  0
VERTEX
  5
10F4
330
10CD
100
AcDbEntity
  8
0
100
AcDbVertex
100
AcDb2dVertex
 10
14.95750492048946
 20
19.29945478949646
 30
0.0
  0
VERTEX
  5
10F5
330
10CD
100
AcDbEntity
  8
0
100
AcDbVertex
100
AcDb2dVertex
 10
14.95480309292091
 20
19.29945478949646
 30
0.0
  0
VERTEX
  5
10F6
330
10CD
100
AcDbEntity
  8
0
100
AcDbVertex
100
AcDb2dVertex
 10
14.95300187454187
 20
19.29945478949646
 30
0.0
  0
VERTEX
  5
10F7
330
10CD
100
AcDbEntity
  8
0
100
AcDbVertex
100
AcDb2dVertex
 10
14.95030004697331
 20
19.29945478949646
 30
0.0
  0
VERTEX
  5
10F8
330
10CD
100
AcDbEntity
  8
0
100
AcDbVertex
100
AcDb2dVertex
 10
14.94849882859428
 20
19.29945478949646
 30
0.0
  0
VERTEX
  5
10F9
330
10CD
100
AcDbEntity
  8
0
100
AcDbVertex
100
AcDb2dVertex
 10
14.94129395507813
 20
19.29855418030694
 30
0.0
  0
VERTEX
  5
10FA
330
10CD
100
AcDbEntity
  8
0
100
AcDbVertex
100
AcDb2dVertex
 10
14.93589029994102
 20
19.2967529619279
 30
0.0
  0
VERTEX
  5
10FB
330
10CD
100
AcDbEntity
  8
0
100
AcDbVertex
100
AcDb2dVertex
 10
14.93228786318294
 20
19.29315052516983
 30
0.0
  0
VERTEX
  5
10FC
330
10CD
100
AcDbEntity
  8
0
100
AcDbVertex
100
AcDb2dVertex
 10
14.92868542642487
 20
19.28774687003272
 30
0.0
  0
VERTEX
  5
10FD
330
10CD
100
AcDbEntity
  8
0
100
AcDbVertex
100
AcDb2dVertex
 10
14.9205799437192
 20
19.28774687003272
 30
0.0
  0
VERTEX
  5
10FE
330
10CD
100
AcDbEntity
  8
0
100
AcDbVertex
100
AcDb2dVertex
 10
14.9205799437192
 20
19.34808768573046
 30
0.0
  0
VERTEX
  5
10FF
330
10CD
100
AcDbEntity
  8
0
100
AcDbVertex
100
AcDb2dVertex
 10
14.92418238047728
 20
19.34898829491998
 30
0.0
  0
VERTEX
  5
1100
330
10CD
100
AcDbEntity
  8
0
100
AcDbVertex
100
AcDb2dVertex
 10
14.92778481723535
 20
19.35078951329901
 30
0.0
  0
VERTEX
  5
1101
330
10CD
100
AcDbEntity
  8
0
100
AcDbVertex
100
AcDb2dVertex
 10
14.93138725399343
 20
19.35078951329901
 30
0.0
  0
VERTEX
  5
1102
330
10CD
100
AcDbEntity
  8
0
100
AcDbVertex
100
AcDb2dVertex
 10
14.93769151832006
 20
19.35078951329901
 30
0.0
  0
VERTEX
  5
1103
330
10CD
100
AcDbEntity
  8
0
100
AcDbVertex
100
AcDb2dVertex
 10
14.94129395507813
 20
19.35078951329901
 30
0.0
  0
VERTEX
  5
1104
330
10CD
100
AcDbEntity
  8
0
100
AcDbVertex
100
AcDb2dVertex
 10
14.94579700102572
 20
19.35078951329901
 30
0.0
  0
VERTEX
  5
1105
330
10CD
100
AcDbEntity
  8
0
100
AcDbVertex
100
AcDb2dVertex
 10
14.94939943778379
 20
19.35078951329901
 30
0.0
  0
VERTEX
  5
1106
330
10CD
100
AcDbEntity
  8
0
100
AcDbVertex
100
AcDb2dVertex
 10
14.95390248373139
 20
19.35078951329901
 30
0.0
  0
VERTEX
  5
1107
330
10CD
100
AcDbEntity
  8
0
100
AcDbVertex
100
AcDb2dVertex
 10
14.98272197779598
 20
19.3498889041095
 30
0.0
  0
VERTEX
  5
1108
330
10CD
100
AcDbEntity
  8
0
100
AcDbVertex
100
AcDb2dVertex
 10
14.98542380536453
 20
19.3498889041095
 30
0.0
  0
VERTEX
  5
1109
330
10CD
100
AcDbEntity
  8
0
100
AcDbVertex
100
AcDb2dVertex
 10
14.9935292880702
 20
19.3498889041095
 30
0.0
  0
VERTEX
  5
110A
330
10CD
100
AcDbEntity
  8
0
100
AcDbVertex
100
AcDb2dVertex
 10
14.99983355239683
 20
19.35169012248853
 30
0.0
  0
VERTEX
  5
110B
330
10CD
100
AcDbEntity
  8
0
100
AcDbVertex
100
AcDb2dVertex
 10
15.00523720753394
 20
19.35439195005709
 30
0.0
  0
VERTEX
  5
110C
330
10CD
100
AcDbEntity
  8
0
100
AcDbVertex
100
AcDb2dVertex
 10
15.00883964429202
 20
19.35799438681516
 30
0.0
  0
VERTEX
  5
110D
330
10CD
100
AcDbEntity
  8
0
100
AcDbVertex
100
AcDb2dVertex
 10
15.01154147186057
 20
19.36339804195227
 30
0.0
  0
VERTEX
  5
110E
330
10CD
100
AcDbEntity
  8
0
100
AcDbVertex
100
AcDb2dVertex
 10
15.01424329942913
 20
19.3697023062789
 30
0.0
  0
VERTEX
  5
110F
330
10CD
100
AcDbEntity
  8
0
100
AcDbVertex
100
AcDb2dVertex
 10
15.01514390861865
 20
19.37870839817409
 30
0.0
  0
VERTEX
  5
1110
330
10CD
100
AcDbEntity
  8
0
100
AcDbVertex
100
AcDb2dVertex
 10
15.01514390861865
 20
19.38861509925879
 30
0.0
  0
VERTEX
  5
1111
330
10CD
100
AcDbEntity
  8
0
100
AcDbVertex
100
AcDb2dVertex
 10
15.01514390861865
 20
19.4282419035976
 30
0.0
  0
VERTEX
  5
1112
330
10CD
100
AcDbEntity
  8
0
100
AcDbVertex
100
AcDb2dVertex
 10
14.9205799437192
 20
19.44445286900894
 30
0.0
  0
VERTEX
  5
1113
330
10CD
100
AcDbEntity
  8
0
100
AcDbVertex
100
AcDb2dVertex
 10
14.9205799437192
 20
19.49578759281149
 30
0.0
  0
VERTEX
  5
1114
330
10CD
100
AcDbEntity
  8
0
100
AcDbVertex
100
AcDb2dVertex
 10
14.9205799437192
 20
19.49578759281149
 30
0.0
  0
SEQEND
  5
1115
330
10CD
100
AcDbEntity
  8
0
  0
POLYLINE
  5
1116
330
1F
100
AcDbEntity
  8
0
100
AcDb2dPolyline
 66
     1
 10
0.0
 20
0.0
 30
0.0
  0
VERTEX
  5
1117
330
1116
100
AcDbEntity
  8
0
100
AcDbVertex
100
AcDb2dVertex
 10
14.9205799437192
 20
19.64348749989252
 30
0.0
  0
VERTEX
  5
1118
330
1116
100
AcDbEntity
  8
0
100
AcDbVertex
100
AcDb2dVertex
 10
15.12411762055038
 20
19.60746313231178
 30
0.0
  0
VERTEX
  5
1119
330
1116
100
AcDbEntity
  8
0
100
AcDbVertex
100
AcDb2dVertex
 10
15.12411762055038
 20
19.67681003990471
 30
0.0
  0
VERTEX
  5
111A
330
1116
100
AcDbEntity
  8
0
100
AcDbVertex
100
AcDb2dVertex
 10
15.16734686164727
 20
19.66960516638856
 30
0.0
  0
VERTEX
  5
111B
330
1116
100
AcDbEntity
  8
0
100
AcDbVertex
100
AcDb2dVertex
 10
15.16734686164727
 20
19.48317906415823
 30
0.0
  0
VERTEX
  5
111C
330
1116
100
AcDbEntity
  8
0
100
AcDbVertex
100
AcDb2dVertex
 10
15.12411762055038
 20
19.49038393767438
 30
0.0
  0
VERTEX
  5
111D
330
1116
100
AcDbEntity
  8
0
100
AcDbVertex
100
AcDb2dVertex
 10
15.12411762055038
 20
19.55522779931971
 30
0.0
  0
VERTEX
  5
111E
330
1116
100
AcDbEntity
  8
0
100
AcDbVertex
100
AcDb2dVertex
 10
14.9205799437192
 20
19.59125216690045
 30
0.0
  0
VERTEX
  5
111F
330
1116
100
AcDbEntity
  8
0
100
AcDbVertex
100
AcDb2dVertex
 10
14.9205799437192
 20
19.64348749989252
 30
0.0
  0
VERTEX
  5
1120
330
1116
100
AcDbEntity
  8
0
100
AcDbVertex
100
AcDb2dVertex
 10
14.9205799437192
 20
19.64348749989252
 30
0.0
  0
SEQEND
  5
1121
330
1116
100
AcDbEntity
  8
0
  0
POLYLINE
  5
1122
330
1F
100
AcDbEntity
  8
0
100
AcDb2dPolyline
 66
     1
 10
0.0
 20
0.0
 30
0.0
  0
VERTEX
  5
1123
330
1122
100
AcDbEntity
  8
0
100
AcDbVertex
100
AcDb2dVertex
 10
15.40267551843538
 20
20.2848785602029
 30
0.0
  0
VERTEX
  5
1124
330
1122
100
AcDbEntity
  8
0
100
AcDbVertex
100
AcDb2dVertex
 10
15.40267551843538
 20
20.28487856020289
 30
0.0
  0
VERTEX
  5
1125
330
1122
100
AcDbEntity
  8
0
100
AcDbVertex
100
AcDb2dVertex
 10
14.04338659312819
 20
20.96282645654932
 30
0.0
  0
SEQEND
  5
1126
330
1122
100
AcDbEntity
  8
0
  0
POLYLINE
  5
1127
330
1F
100
AcDbEntity
  8
0
100
AcDb2dPolyline
 66
     1
 10
0.0
 20
0.0
 30
0.0
  0
VERTEX
  5
1128
330
1127
100
AcDbEntity
  8
0
100
AcDbVertex
100
AcDb2dVertex
 10
14.04338659312819
 20
20.96282645654932
 30
0.0
  0
VERTEX
  5
1129
330
1127
100
AcDbEntity
  8
0
100
AcDbVertex
100
AcDb2dVertex
 10
15.40267551843538
 20
20.2848785602029
 30
0.0
  0
VERTEX
  5
112A
330
1127
100
AcDbEntity
  8
0
100
AcDbVertex
100
AcDb2dVertex
 10
15.40267551843538
 20
20.2848785602029
 30
0.0
  0
SEQEND
  5
112B
330
1127
100
AcDbEntity
  8
0
  0
POLYLINE
  5
112C
330
1F
100
AcDbEntity
  8
0
100
AcDb2dPolyline
 66
     1
 10
0.0
 20
0.0
 30
0.0
  0
VERTEX
  5
112D
330
112C
100
AcDbEntity
  8
0
100
AcDbVertex
100
AcDb2dVertex
 10
14.04338659312819
 20
20.96282645654932
 30
0.0
  0
VERTEX
  5
112E
330
112C
100
AcDbEntity
  8
0
100
AcDbVertex
100
AcDb2dVertex
 10
15.40267551843538
 20
20.2848785602029
 30
0.0
  0
SEQEND
  5
112F
330
112C
100
AcDbEntity
  8
0
  0
POLYLINE
  5
1130
330
1F
100
AcDbEntity
  8
0
100
AcDb2dPolyline
 66
     1
 10
0.0
 20
0.0
 30
0.0
  0
VERTEX
  5
1131
330
1130
100
AcDbEntity
  8
0
100
AcDbVertex
100
AcDb2dVertex
 10
15.40267071294322
 20
20.34738840221136
 30
0.0
  0
VERTEX
  5
1132
330
1130
100
AcDbEntity
  8
0
100
AcDbVertex
100
AcDb2dVertex
 10
14.70872353053759
 20
21.03579785149056
 30
0.0
  0
SEQEND
  5
1133
330
1130
100
AcDbEntity
  8
0
  0
POLYLINE
  5
1134
330
1F
100
AcDbEntity
  8
0
100
AcDb2dPolyline
 66
     1
 10
0.0
 20
0.0
 30
0.0
  0
VERTEX
  5
1135
330
1134
100
AcDbEntity
  8
0
100
AcDbVertex
100
AcDb2dVertex
 10
14.70437290902772
 20
21.03579785149056
 30
0.0
 40
0.0027018275685555
 41
0.0027018275685555
  0
VERTEX
  5
1136
330
1134
100
AcDbEntity
  8
0
100
AcDbVertex
100
AcDb2dVertex
 10
14.71704226688802
 20
21.02322077823485
 30
0.0
 40
0.0027018275685555
 41
0.0027018275685555
  0
VERTEX
  5
1137
330
1134
100
AcDbEntity
  8
0
100
AcDbVertex
100
AcDb2dVertex
 10
14.71704226688802
 20
20.63235638998383
 30
0.0
 40
0.0027018275685555
 41
0.0027018275685555
  0
VERTEX
  5
1138
330
1134
100
AcDbEntity
  8
0
100
AcDbVertex
100
AcDb2dVertex
 10
14.04338659312819
 20
20.96812834022775
 30
0.0
 40
0.0027018275685555
 41
0.0027018275685555
  0
SEQEND
  5
1139
330
1134
100
AcDbEntity
  8
0
  0
POLYLINE
  5
113A
330
1F
100
AcDbEntity
  8
0
100
AcDb2dPolyline
 66
     1
 10
0.0
 20
0.0
 30
0.0
  0
VERTEX
  5
113B
330
113A
100
AcDbEntity
  8
0
100
AcDbVertex
100
AcDb2dVertex
 10
14.70437290902772
 20
21.03579785149056
 30
0.0
  0
VERTEX
  5
113C
330
113A
100
AcDbEntity
  8
0
100
AcDbVertex
100
AcDb2dVertex
 10
14.71704226688802
 20
21.02322077823485
 30
0.0
  0
VERTEX
  5
113D
330
113A
100
AcDbEntity
  8
0
100
AcDbVertex
100
AcDb2dVertex
 10
14.71704226688802
 20
20.63235638998383
 30
0.0
  0
VERTEX
  5
113E
330
113A
100
AcDbEntity
  8
0
100
AcDbVertex
100
AcDb2dVertex
 10
14.04338659312819
 20
20.96812834022775
 30
0.0
  0
SEQEND
  5
113F
330
113A
100
AcDbEntity
  8
0
  0
ENDSEC
  0
SECTION
  2
OBJECTS
  0
DICTIONARY
  5
C
330
0
100
AcDbDictionary
281
     1
  3
ACAD_COLOR
350
73
  3
ACAD_GROUP
350
D
  3
ACAD_LAYOUT
350
1A
  3
ACAD_MATERIAL
350
72
  3
ACAD_MLINESTYLE
350
17
  3
ACAD_PLOTSETTINGS
350
19
  3
ACAD_PLOTSTYLENAME
350
E
  3
ACAD_TABLESTYLE
350
86
  3
AcDbVariableDictionary
350
66
  3
ASE_INDEX_DICTIONARY
350
1146
  0
DICTIONARY
  5
132
330
2
100
AcDbDictionary
280
     1
281
     1
  3
ACAD_LAYERFILTERS
360
134
  3
ACLYDICTIONARY
360
133
  0
DICTIONARY
  5
73
102
{ACAD_REACTORS
330
C
102
}
330
C
100
AcDbDictionary
281
     1
  0
DICTIONARY
  5
D
102
{ACAD_REACTORS
330
C
102
}
330
C
100
AcDbDictionary
281
     1
  0
DICTIONARY
  5
1A
102
{ACAD_REACTORS
330
C
102
}
330
C
100
AcDbDictionary
281
     1
  3
Layout1
350
59
  3
Layout2
350
5E
  3
Model
350
22
  0
DICTIONARY
  5
72
102
{ACAD_REACTORS
330
C
102
}
330
C
100
AcDbDictionary
281
     1
  0
DICTIONARY
  5
17
102
{ACAD_REACTORS
330
C
102
}
330
C
100
AcDbDictionary
281
     1
  3
Standard
350
18
  0
DICTIONARY
  5
19
102
{ACAD_REACTORS
330
C
102
}
330
C
100
AcDbDictionary
281
     1
  0
ACDBDICTIONARYWDFLT
  5
E
102
{ACAD_REACTORS
330
C
102
}
330
C
100
AcDbDictionary
281
     1
  3
Normal
350
F
100
AcDbDictionaryWithDefault
340
F
  0
DICTIONARY
  5
86
102
{ACAD_REACTORS
330
C
102
}
330
C
100
AcDbDictionary
281
     1
  3
Standard
350
87
  0
DICTIONARY
  5
66
102
{ACAD_REACTORS
330
C
102
}
330
C
100
AcDbDictionary
281
     1
  3
CTABLESTYLE
350
116
  3
DIMASSOC
350
67
  3
HIDETEXT
350
6B
  0
DICTIONARY
  5
1146
102
{ACAD_REACTORS
330
C
102
}
330
C
100
AcDbDictionary
281
     1
  3
ASEBlockHierarchyIndexRecord
350
1147
1001
DCO15
1040
1511600875.262
  0
DICTIONARY
  5
134
102
{ACAD_REACTORS
330
132
102
}
330
132
100
AcDbDictionary
281
     1
  0
DICTIONARY
  5
133
102
{ACAD_REACTORS
330
132
102
}
330
132
100
AcDbDictionary
281
     1
1001
ACAD
1000
<All
  0
LAYOUT
  5
59
102
{ACAD_REACTORS
330
1A
102
}
330
1A
100
AcDbPlotSettings
  1

  2
None
  4

  6

 40
0.0
 41
0.0
 42
0.0
 43
0.0
 44
0.0
 45
0.0
 46
0.0
 47
0.0
 48
0.0
 49
0.0
140
0.0
141
0.0
142
1.0
143
1.0
 70
   688
 72
     0
 73
     0
 74
     5
  7
monochrome.ctb
 75
    16
147
1.0
 76
     0
 77
     2
 78
   300
148
0.0
149
0.0
100
AcDbLayout
  1
Layout1
 70
     1
 71
     1
 10
0.0
 20
0.0
 11
12.0
 21
9.0
 12
0.0
 22
0.0
 32
0.0
 14
0.0
 24
0.0
 34
0.0
 15
0.0
 25
0.0
 35
0.0
146
0.0
 13
0.0
 23
0.0
 33
0.0
 16
1.0
 26
0.0
 36
0.0
 17
0.0
 27
1.0
 37
0.0
 76
     0
330
58
  0
LAYOUT
  5
5E
102
{ACAD_REACTORS
330
1A
102
}
330
1A
100
AcDbPlotSettings
  1

  2
None
  4

  6

 40
0.0
 41
0.0
 42
0.0
 43
0.0
 44
0.0
 45
0.0
 46
0.0
 47
0.0
 48
0.0
 49
0.0
140
0.0
141
0.0
142
1.0
143
1.0
 70
   688
 72
     0
 73
     0
 74
     5
  7
monochrome.ctb
 75
    16
147
1.0
 76
     0
 77
     2
 78
   300
148
0.0
149
0.0
100
AcDbLayout
  1
Layout2
 70
     1
 71
     2
 10
0.0
 20
0.0
 11
12.0
 21
9.0
 12
0.0
 22
0.0
 32
0.0
 14
0.0
 24
0.0
 34
0.0
 15
0.0
 25
0.0
 35
0.0
146
0.0
 13
0.0
 23
0.0
 33
0.0
 16
1.0
 26
0.0
 36
0.0
 17
0.0
 27
1.0
 37
0.0
 76
     0
330
5D
  0
LAYOUT
  5
22
102
{ACAD_REACTORS
330
1A
102
}
330
1A
100
AcDbPlotSettings
  1

  2
VELLUM.pc3
  4
Letter
  6

 40
5.873749732971191
 41
5.027085304260253
 42
5.873748779296875
 43
5.027084350585936
 44
279.3999938964844
 45
215.8999938964844
 46
0.0
 47
0.0
 48
0.0
 49
0.0
140
0.0
141
0.0
142
1.0
143
4.373798107606178
 70
 11952
 72
     0
 73
     0
 74
     0
  7
monochrome.ctb
 75
     0
147
0.2286342385719557
 76
     0
 77
     2
 78
   300
148
0.0
149
0.0
100
AcDbLayout
  1
Model
 70
     1
 71
     0
 10
0.0
 20
0.0
 11
12.0
 21
9.0
 12
0.0
 22
0.0
 32
0.0
 14
0.0
 24
0.0
 34
0.0
 15
0.0
 25
0.0
 35
0.0
146
0.0
 13
0.0
 23
0.0
 33
0.0
 16
1.0
 26
0.0
 36
0.0
 17
0.0
 27
1.0
 37
0.0
 76
     0
330
1F
1001
ACAD_PSEXT
1000
VELLUM.pc3
1000
Xerox Document Centre 230
1000
Eng Department Center 
1000

1070
     0
  0
MLINESTYLE
  5
18
102
{ACAD_REACTORS
330
17
102
}
330
17
100
AcDbMlineStyle
  2
STANDARD
 70
     0
  3

 62
   256
 51
90.0
 52
90.0
 71
     2
 49
0.5
 62
   256
  6
BYLAYER
 49
-0.5
 62
   256
  6
BYLAYER
  0
ACDBPLACEHOLDER
  5
F
102
{ACAD_REACTORS
330
E
102
}
330
E
  0
TABLESTYLE
  5
87
102
{ACAD_REACTORS
330
86
102
}
330
86
100
AcDbTableStyle
  3
Standard
 70
     0
 71
     0
 40
0.06
 41
0.06
280
     0
281
     0
  7
Standard
140
0.18
170
     2
 62
     0
 63
     7
283
     0
274
    -2
284
     1
 64
     0
275
    -2
285
     1
 65
     0
276
    -2
286
     1
 66
     0
277
    -2
287
     1
 67
     0
278
    -2
288
     1
 68
     0
279
    -2
289
     1
 69
     0
  7
Standard
140
0.25
170
     5
 62
     0
 63
     7
283
     0
274
    -2
284
     1
 64
     0
275
    -2
285
     1
 65
     0
276
    -2
286
     1
 66
     0
277
    -2
287
     1
 67
     0
278
    -2
288
     1
 68
     0
279
    -2
289
     1
 69
     0
  7
Standard
140
0.18
170
     5
 62
     0
 63
     7
283
     0
274
    -2
284
     1
 64
     0
275
    -2
285
     1
 65
     0
276
    -2
286
     1
 66
     0
277
    -2
287
     1
 67
     0
278
    -2
288
     1
 68
     0
279
    -2
289
     1
 69
     0
  0
DICTIONARYVAR
  5
116
102
{ACAD_REACTORS
330
66
102
}
330
66
100
DictionaryVariables
280
     0
  1
STANDARD
  0
DICTIONARYVAR
  5
67
102
{ACAD_REACTORS
330
66
102
}
330
66
100
DictionaryVariables
280
     0
  1
2
  0
DICTIONARYVAR
  5
6B
102
{ACAD_REACTORS
330
66
102
}
330
66
100
DictionaryVariables
280
     0
  1
1
  0
XRECORD
  5
1147
102
{ACAD_REACTORS
330
1146
102
}
330
1146
100
AcDbXrecord
280
     1
330
1140
330
D33
330
D40
330
D50
330
D55
  0
ENDSEC
  0
EOF
