  0
SECTION
  2
HEADER
  9
$ACADVER
  1
AC1018
  9
$ACADMAINTVER
 70
    39
  9
$DWGCODEPAGE
  3
ANSI_1252
  9
$INSBASE
 10
0.0
 20
0.0
 30
0.0
  9
$EXTMIN
 10
-10.03274114895176
 20
-7.005826732752822
 30
-0.0000305152498541
  9
$EXTMAX
 10
0.4185842352414469
 20
0.894643786116628
 30
1.000030519906466
  9
$LIMMIN
 10
-1.15625
 20
-4.575
  9
$LIMMAX
 10
9.34375
 20
3.325
  9
$ORTHOMODE
 70
     1
  9
$REGENMODE
 70
     1
  9
$FILLMODE
 70
     1
  9
$QTEXTMODE
 70
     0
  9
$MIRRTEXT
 70
     1
  9
$LTSCALE
 40
1.0
  9
$ATTMODE
 70
     1
  9
$TEXTSIZE
 40
0.12
  9
$TRACEWID
 40
0.05
  9
$TEXTSTYLE
  7
COMPLEX
  9
$CLAYER
  8
DIM
  9
$CELTYPE
  6
BYLAYER
  9
$CECOLOR
 62
   256
  9
$CELTSCALE
 40
1.0
  9
$DISPSILH
 70
     0
  9
$DIMSCALE
 40
1.0
  9
$DIMASZ
 40
0.08
  9
$DIMEXO
 40
0.1
  9
$DIMDLI
 40
0.2
  9
$DIMRND
 40
0.0
  9
$DIMDLE
 40
0.0
  9
$DIMEXE
 40
0.2
  9
$DIMTP
 40
0.0
  9
$DIMTM
 40
0.0
  9
$DIMTXT
 40
0.1
  9
$DIMCEN
 40
0.05
  9
$DIMTSZ
 40
0.0
  9
$DIMTOL
 70
     0
  9
$DIMLIM
 70
     0
  9
$DIMTIH
 70
     0
  9
$DIMTOH
 70
     0
  9
$DIMSE1
 70
     0
  9
$DIMSE2
 70
     0
  9
$DIMTAD
 70
     0
  9
$DIMZIN
 70
     0
  9
$DIMBLK
  1

  9
$DIMASO
 70
     0
  9
$DIMSHO
 70
     0
  9
$DIMPOST
  1

  9
$DIMAPOST
  1

  9
$DIMALT
 70
     0
  9
$DIMALTD
 70
     2
  9
$DIMALTF
 40
25.4
  9
$DIMLFAC
 40
1.0
  9
$DIMTOFL
 70
     0
  9
$DIMTVP
 40
0.0
  9
$DIMTIX
 70
     0
  9
$DIMSOXD
 70
     0
  9
$DIMSAH
 70
     0
  9
$DIMBLK1
  1

  9
$DIMBLK2
  1

  9
$DIMSTYLE
  2
STANDARD
  9
$DIMCLRD
 70
     0
  9
$DIMCLRE
 70
     0
  9
$DIMCLRT
 70
     0
  9
$DIMTFAC
 40
1.0
  9
$DIMGAP
 40
0.09
  9
$DIMJUST
 70
     0
  9
$DIMSD1
 70
     0
  9
$DIMSD2
 70
     0
  9
$DIMTOLJ
 70
     1
  9
$DIMTZIN
 70
     0
  9
$DIMALTZ
 70
     0
  9
$DIMALTTZ
 70
     0
  9
$DIMUPT
 70
     0
  9
$DIMDEC
 70
     4
  9
$DIMTDEC
 70
     4
  9
$DIMALTU
 70
     2
  9
$DIMALTTD
 70
     2
  9
$DIMTXSTY
  7
STANDARD
  9
$DIMAUNIT
 70
     0
  9
$DIMADEC
 70
     0
  9
$DIMALTRND
 40
0.0
  9
$DIMAZIN
 70
     0
  9
$DIMDSEP
 70
    46
  9
$DIMATFIT
 70
     3
  9
$DIMFRAC
 70
     0
  9
$DIMLDRBLK
  1

  9
$DIMLUNIT
 70
     2
  9
$DIMLWD
 70
    -2
  9
$DIMLWE
 70
    -2
  9
$DIMTMOVE
 70
     0
  9
$LUNITS
 70
     2
  9
$LUPREC
 70
     3
  9
$SKETCHINC
 40
0.1
  9
$FILLETRAD
 40
0.05
  9
$AUNITS
 70
     0
  9
$AUPREC
 70
     0
  9
$MENU
  1
acad
  9
$ELEVATION
 40
0.0
  9
$PELEVATION
 40
0.0
  9
$THICKNESS
 40
0.0
  9
$LIMCHECK
 70
     0
  9
$CHAMFERA
 40
0.0
  9
$CHAMFERB
 40
0.0
  9
$CHAMFERC
 40
0.0
  9
$CHAMFERD
 40
0.0
  9
$SKPOLY
 70
     0
  9
$TDCREATE
 40
2444972.375975694
  9
$TDUCREATE
 40
2444972.625975695
  9
$TDUPDATE
 40
2455155.367978473
  9
$TDUUPDATE
 40
2455155.617978472
  9
$TDINDWG
 40
0.1578973958
  9
$TDUSRTIMER
 40
0.1578973958
  9
$USRTIMER
 70
     1
  9
$ANGBASE
 50
0.0
  9
$ANGDIR
 70
     0
  9
$PDMODE
 70
     0
  9
$PDSIZE
 40
0.0
  9
$PLINEWID
 40
0.015
  9
$SPLFRAME
 70
     0
  9
$SPLINETYPE
 70
     6
  9
$SPLINESEGS
 70
     8
  9
$HANDSEED
  5
892
  9
$SURFTAB1
 70
     6
  9
$SURFTAB2
 70
     6
  9
$SURFTYPE
 70
     6
  9
$SURFU
 70
     6
  9
$SURFV
 70
     6
  9
$UCSBASE
  2

  9
$UCSNAME
  2

  9
$UCSORG
 10
0.0
 20
0.0
 30
0.0
  9
$UCSXDIR
 10
1.0
 20
0.0
 30
0.0
  9
$UCSYDIR
 10
0.0
 20
1.0
 30
0.0
  9
$UCSORTHOREF
  2

  9
$UCSORTHOVIEW
 70
     0
  9
$UCSORGTOP
 10
0.0
 20
0.0
 30
0.0
  9
$UCSORGBOTTOM
 10
0.0
 20
0.0
 30
0.0
  9
$UCSORGLEFT
 10
0.0
 20
0.0
 30
0.0
  9
$UCSORGRIGHT
 10
0.0
 20
0.0
 30
0.0
  9
$UCSORGFRONT
 10
0.0
 20
0.0
 30
0.0
  9
$UCSORGBACK
 10
0.0
 20
0.0
 30
0.0
  9
$PUCSBASE
  2

  9
$PUCSNAME
  2

  9
$PUCSORG
 10
0.0
 20
0.0
 30
0.0
  9
$PUCSXDIR
 10
1.0
 20
0.0
 30
0.0
  9
$PUCSYDIR
 10
0.0
 20
1.0
 30
0.0
  9
$PUCSORTHOREF
  2

  9
$PUCSORTHOVIEW
 70
     0
  9
$PUCSORGTOP
 10
0.0
 20
0.0
 30
0.0
  9
$PUCSORGBOTTOM
 10
0.0
 20
0.0
 30
0.0
  9
$PUCSORGLEFT
 10
0.0
 20
0.0
 30
0.0
  9
$PUCSORGRIGHT
 10
0.0
 20
0.0
 30
0.0
  9
$PUCSORGFRONT
 10
0.0
 20
0.0
 30
0.0
  9
$PUCSORGBACK
 10
0.0
 20
0.0
 30
0.0
  9
$USERI1
 70
     0
  9
$USERI2
 70
     0
  9
$USERI3
 70
     0
  9
$USERI4
 70
     0
  9
$USERI5
 70
     0
  9
$USERR1
 40
0.0
  9
$USERR2
 40
0.0
  9
$USERR3
 40
0.0
  9
$USERR4
 40
0.0
  9
$USERR5
 40
0.0
  9
$WORLDVIEW
 70
     1
  9
$SHADEDGE
 70
     3
  9
$SHADEDIF
 70
    70
  9
$TILEMODE
 70
     1
  9
$MAXACTVP
 70
    16
  9
$PINSBASE
 10
0.0
 20
0.0
 30
0.0
  9
$PLIMCHECK
 70
     0
  9
$PEXTMIN
 10
1.000000000000000E+20
 20
1.000000000000000E+20
 30
1.000000000000000E+20
  9
$PEXTMAX
 10
-1.000000000000000E+20
 20
-1.000000000000000E+20
 30
-1.000000000000000E+20
  9
$PLIMMIN
 10
0.0
 20
0.0
  9
$PLIMMAX
 10
12.0
 20
9.0
  9
$UNITMODE
 70
     0
  9
$VISRETAIN
 70
     0
  9
$PLINEGEN
 70
     1
  9
$PSLTSCALE
 70
     0
  9
$TREEDEPTH
 70
  3020
  9
$CMLSTYLE
  2
STANDARD
  9
$CMLJUST
 70
     0
  9
$CMLSCALE
 40
1.0
  9
$PROXYGRAPHICS
 70
     0
  9
$MEASUREMENT
 70
     0
  9
$CELWEIGHT
370
    -1
  9
$ENDCAPS
280
     0
  9
$JOINSTYLE
280
     0
  9
$LWDISPLAY
290
     0
  9
$INSUNITS
 70
     0
  9
$HYPERLINKBASE
  1

  9
$STYLESHEET
  1
monochrome.ctb
  9
$XEDIT
290
     1
  9
$CEPSNTYPE
380
     0
  9
$PSTYLEMODE
290
     1
  9
$FINGERPRINTGUID
  2
{23ACBC82-4E77-11D3-9C30-006008208A1C}
  9
$VERSIONGUID
  2
{5BAE06B4-83FF-4D78-97EA-097054B02E9F}
  9
$EXTNAMES
290
     1
  9
$PSVPSCALE
 40
0.0
  9
$OLESTARTUP
290
     0
  9
$SORTENTS
280
   127
  9
$INDEXCTL
280
     0
  9
$HIDETEXT
280
     0
  9
$XCLIPFRAME
290
     0
  9
$HALOGAP
280
     0
  9
$OBSCOLOR
 70
   257
  9
$OBSLTYPE
280
     0
  9
$INTERSECTIONDISPLAY
280
     0
  9
$INTERSECTIONCOLOR
 70
   257
  9
$DIMASSOC
280
     0
  9
$PROJECTNAME
  1

  0
ENDSEC
  0
SECTION
  2
CLASSES
  0
CLASS
  1
ACDBDICTIONARYWDFLT
  2
AcDbDictionaryWithDefault
  3
ObjectDBX Classes
 90
        0
 91
        1
280
     0
281
     0
  0
CLASS
  1
TABLESTYLE
  2
AcDbTableStyle
  3
ObjectDBX Classes
 90
     2047
 91
        1
280
     0
281
     0
  0
CLASS
  1
DICTIONARYVAR
  2
AcDbDictionaryVar
  3
ObjectDBX Classes
 90
        0
 91
        1
280
     0
281
     0
  0
ENDSEC
  0
SECTION
  2
TABLES
  0
TABLE
  2
VPORT
  5
8
330
0
100
AcDbSymbolTable
 70
     5
  0
VPORT
  5
891
330
8
100
AcDbSymbolTableRecord
100
AcDbViewportTableRecord
  2
*Active
 70
     0
 10
0.0
 20
0.0
 11
1.0
 21
1.0
 12
-4.795275878659734
 22
-3.108010112862555
 13
0.0
 23
0.0
 14
0.03125
 24
0.03125
 15
0.125
 25
0.125
 16
0.0
 26
0.0
 36
1.0
 17
0.0
 27
0.0
 37
0.0
 40
8.808299231466342
 41
1.578392621870882
 42
50.0
 43
0.0
 44
0.0
 50
0.0
 51
0.0
 71
     0
 72
  5000
 73
     1
 74
     0
 75
     0
 76
     0
 77
     0
 78
     0
281
     0
 65
     1
110
0.0
120
0.0
130
0.0
111
1.0
121
0.0
131
0.0
112
0.0
122
1.0
132
0.0
 79
     0
146
0.0
  0
ENDTAB
  0
TABLE
  2
LTYPE
  5
5
330
0
100
AcDbSymbolTable
 70
     4
  0
LTYPE
  5
12
330
5
100
AcDbSymbolTableRecord
100
AcDbLinetypeTableRecord
  2
BYBLOCK
 70
     0
  3

 72
    65
 73
     0
 40
0.0
  0
LTYPE
  5
13
330
5
100
AcDbSymbolTableRecord
100
AcDbLinetypeTableRecord
  2
BYLAYER
 70
     0
  3

 72
    65
 73
     0
 40
0.0
  0
LTYPE
  5
14
330
5
100
AcDbSymbolTableRecord
100
AcDbLinetypeTableRecord
  2
CONTINUOUS
 70
     0
  3
Solid line
 72
    65
 73
     0
 40
0.0
  0
LTYPE
  5
29
330
5
100
AcDbSymbolTableRecord
100
AcDbLinetypeTableRecord
  2
CENTER
 70
     0
  3
____ _ ____ _ ____ _ ____ _ ____ _ ____ _ ____
 72
    65
 73
     4
 40
2.0
 49
1.25
 74
     0
 49
-0.25
 74
     0
 49
0.25
 74
     0
 49
-0.25
 74
     0
  0
LTYPE
  5
651
330
5
100
AcDbSymbolTableRecord
100
AcDbLinetypeTableRecord
  2
HIDDEN
 70
     0
  3
Hidden __ __ __ __ __ __ __ __ __ __ __ __ __ _
 72
    65
 73
     2
 40
0.375
 49
0.25
 74
     0
 49
-0.125
 74
     0
  0
LTYPE
  5
652
330
5
100
AcDbSymbolTableRecord
100
AcDbLinetypeTableRecord
  2
PHANTOM
 70
     0
  3
Phantom ______  __  __  ______  __  __  ______
 72
    65
 73
     6
 40
2.5
 49
1.25
 74
     0
 49
-0.25
 74
     0
 49
0.25
 74
     0
 49
-0.25
 74
     0
 49
0.25
 74
     0
 49
-0.25
 74
     0
  0
ENDTAB
  0
TABLE
  2
LAYER
  5
2
330
0
100
AcDbSymbolTable
 70
    12
  0
LAYER
  5
F
330
2
100
AcDbSymbolTableRecord
100
AcDbLayerTableRecord
  2
0
 70
     0
 62
     7
  6
CONTINUOUS
370
    -3
390
522
  0
LAYER
  5
2C
330
2
100
AcDbSymbolTableRecord
100
AcDbLayerTableRecord
  2
PART
 70
     0
 62
     1
  6
CONTINUOUS
370
    -3
390
522
  0
LAYER
  5
2D
330
2
100
AcDbSymbolTableRecord
100
AcDbLayerTableRecord
  2
LABEL
 70
     0
 62
     1
  6
CONTINUOUS
370
    -3
390
522
  0
LAYER
  5
2E
330
2
100
AcDbSymbolTableRecord
100
AcDbLayerTableRecord
  2
POLYLINE
 70
     1
 62
     5
  6
CONTINUOUS
370
    -3
390
522
  0
LAYER
  5
2F
330
2
100
AcDbSymbolTableRecord
100
AcDbLayerTableRecord
  2
HEAD
 70
     0
 62
     3
  6
CONTINUOUS
370
    -3
390
522
  0
LAYER
  5
30
330
2
100
AcDbSymbolTableRecord
100
AcDbLayerTableRecord
  2
BUMPER
 70
     0
 62
     1
  6
CONTINUOUS
370
    -3
390
522
  0
LAYER
  5
31
330
2
100
AcDbSymbolTableRecord
100
AcDbLayerTableRecord
  2
DIM
 70
     0
 62
     2
  6
CONTINUOUS
370
    -3
390
522
  0
LAYER
  5
32
330
2
100
AcDbSymbolTableRecord
100
AcDbLayerTableRecord
  2
CENTER
 70
     0
 62
     5
  6
CENTER
370
    -3
390
522
  0
LAYER
  5
653
330
2
100
AcDbSymbolTableRecord
100
AcDbLayerTableRecord
  2
HIDDEN
 70
     0
 62
     3
  6
HIDDEN
370
    -3
390
522
  0
LAYER
  5
654
330
2
100
AcDbSymbolTableRecord
100
AcDbLayerTableRecord
  2
PHANTOM
 70
     0
 62
     6
  6
PHANTOM
370
    -3
390
522
  0
LAYER
  5
655
330
2
100
AcDbSymbolTableRecord
100
AcDbLayerTableRecord
  2
TRIM
 70
     0
 62
     1
  6
CONTINUOUS
370
    -3
390
522
  0
LAYER
  5
656
330
2
100
AcDbSymbolTableRecord
100
AcDbLayerTableRecord
  2
SOLID
 70
     0
 62
     5
  6
CONTINUOUS
370
    -3
390
522
  0
ENDTAB
  0
TABLE
  2
STYLE
  5
3
330
0
100
AcDbSymbolTable
 70
     7
  0
STYLE
  5
10
330
3
100
AcDbSymbolTableRecord
100
AcDbTextStyleTableRecord
  2
STANDARD
 70
     0
 40
0.0
 41
1.0
 50
0.0
 71
     0
 42
0.1
  3
simplex
  4

  0
STYLE
  5
27
330
3
100
AcDbSymbolTableRecord
100
AcDbTextStyleTableRecord
  2
SIMPLEX
 70
     0
 40
0.0
 41
1.0
 50
0.0
 71
     0
 42
0.12
  3
SIMPLEX
  4

  0
STYLE
  5
28
330
3
100
AcDbSymbolTableRecord
100
AcDbTextStyleTableRecord
  2
COMPLEX
 70
     0
 40
0.0
 41
2.0
 50
15.0
 71
     0
 42
0.12
  3
COMPLEX.SHX
  4

  0
STYLE
  5
657
330
3
100
AcDbSymbolTableRecord
100
AcDbTextStyleTableRecord
  2

 70
     1
 40
0.0
 41
1.0
 50
0.0
 71
     0
 42
0.2
  3
ltypeshp.shx
  4

  0
STYLE
  5
658
330
3
100
AcDbSymbolTableRecord
100
AcDbTextStyleTableRecord
  2
ROMAND
 70
     0
 40
0.0
 41
1.0
 50
0.0
 71
     0
 42
0.1
  3
romand.shx
  4

  0
STYLE
  5
659
330
3
100
AcDbSymbolTableRecord
100
AcDbTextStyleTableRecord
  2
SCRIPT
 70
     0
 40
0.0
 41
0.95
 50
0.0
 71
     0
 42
0.09
  3
scripts.shx
  4

  0
ENDTAB
  0
TABLE
  2
VIEW
  5
6
330
0
100
AcDbSymbolTable
 70
     0
  0
ENDTAB
  0
TABLE
  2
UCS
  5
7
330
0
100
AcDbSymbolTable
 70
     0
  0
ENDTAB
  0
TABLE
  2
APPID
  5
9
330
0
100
AcDbSymbolTable
 70
     1
  0
APPID
  5
11
330
9
100
AcDbSymbolTableRecord
100
AcDbRegAppTableRecord
  2
ACAD
 70
     0
  0
ENDTAB
  0
TABLE
  2
DIMSTYLE
  5
A
330
0
100
AcDbSymbolTable
 70
     3
100
AcDbDimStyleTable
 71
     1
340
50B
  0
DIMSTYLE
105
50B
330
A
100
AcDbSymbolTableRecord
100
AcDbDimStyleTableRecord
  2
STANDARD
 70
     0
340
10
  0
DIMSTYLE
105
865
330
A
100
AcDbSymbolTableRecord
100
AcDbDimStyleTableRecord
  2
STDANG
 70
     0
 41
0.1
 43
0.375
 44
0.0625
 73
     0
 74
     0
 78
     5
140
0.1
141
0.05
147
0.075
271
     3
272
     2
284
     5
340
10
  0
ENDTAB
  0
TABLE
  2
BLOCK_RECORD
  5
1
330
0
100
AcDbSymbolTable
 70
    29
  0
BLOCK_RECORD
  5
18
330
1
100
AcDbSymbolTableRecord
100
AcDbBlockTableRecord
  2
*MODEL_SPACE
340
525
  0
BLOCK_RECORD
  5
15
330
1
100
AcDbSymbolTableRecord
100
AcDbBlockTableRecord
  2
*PAPER_SPACE
340
526
  0
BLOCK_RECORD
  5
1C
330
1
100
AcDbSymbolTableRecord
100
AcDbBlockTableRecord
  2
PLT
340
0
102
{BLKREFS
331
3F4
102
}
  0
BLOCK_RECORD
  5
1D
330
1
100
AcDbSymbolTableRecord
100
AcDbBlockTableRecord
  2
JT265
340
0
  0
BLOCK_RECORD
  5
1E
330
1
100
AcDbSymbolTableRecord
100
AcDbBlockTableRecord
  2
TB_A
340
0
102
{BLKREFS
331
181
102
}
  0
BLOCK_RECORD
  5
1F
330
1
100
AcDbSymbolTableRecord
100
AcDbBlockTableRecord
  2
JT230
340
0
  0
BLOCK_RECORD
  5
20
330
1
100
AcDbSymbolTableRecord
100
AcDbBlockTableRecord
  2
*X4
340
0
102
{BLKREFS
331
EF
331
11B
102
}
  0
BLOCK_RECORD
  5
21
330
1
100
AcDbSymbolTableRecord
100
AcDbBlockTableRecord
  2
*X5
340
0
102
{BLKREFS
331
F0
331
11A
102
}
  0
BLOCK_RECORD
  5
22
330
1
100
AcDbSymbolTableRecord
100
AcDbBlockTableRecord
  2
*X6
340
0
102
{BLKREFS
331
129
331
13A
102
}
  0
BLOCK_RECORD
  5
23
330
1
100
AcDbSymbolTableRecord
100
AcDbBlockTableRecord
  2
*X7
340
0
102
{BLKREFS
331
128
331
13B
102
}
  0
BLOCK_RECORD
  5
24
330
1
100
AcDbSymbolTableRecord
100
AcDbBlockTableRecord
  2
*X8
340
0
102
{BLKREFS
331
100
331
101
331
12E
331
12F
102
}
  0
BLOCK_RECORD
  5
25
330
1
100
AcDbSymbolTableRecord
100
AcDbBlockTableRecord
  2
JTTB
340
0
  0
BLOCK_RECORD
  5
26
330
1
100
AcDbSymbolTableRecord
100
AcDbBlockTableRecord
  2
JTEND
340
0
  0
BLOCK_RECORD
  5
513
330
1
100
AcDbSymbolTableRecord
100
AcDbBlockTableRecord
  2
PLTWIN
340
0
  0
BLOCK_RECORD
  5
52C
330
1
100
AcDbSymbolTableRecord
100
AcDbBlockTableRecord
  2
A$C435B465C
340
0
  0
BLOCK_RECORD
  5
5A3
330
1
100
AcDbSymbolTableRecord
100
AcDbBlockTableRecord
  2
A$C4FB65283
340
0
102
{BLKREFS
331
65B
331
5B4
102
}
  0
BLOCK_RECORD
  5
5A7
330
1
100
AcDbSymbolTableRecord
100
AcDbBlockTableRecord
  2
A$C2BBE0097
340
0
  0
BLOCK_RECORD
  5
5AB
330
1
100
AcDbSymbolTableRecord
100
AcDbBlockTableRecord
  2
A$C10236829
340
0
  0
BLOCK_RECORD
  5
5AF
330
1
100
AcDbSymbolTableRecord
100
AcDbBlockTableRecord
  2
A$C794932C0
340
0
  0
BLOCK_RECORD
  5
5B3
330
1
100
AcDbSymbolTableRecord
100
AcDbBlockTableRecord
  2
TEST
340
0
  0
BLOCK_RECORD
  5
631
330
1
100
AcDbSymbolTableRecord
100
AcDbBlockTableRecord
  2
A$C56887695
340
0
  0
BLOCK_RECORD
  5
635
330
1
100
AcDbSymbolTableRecord
100
AcDbBlockTableRecord
  2
A$C406F4052
340
0
  0
BLOCK_RECORD
  5
639
330
1
100
AcDbSymbolTableRecord
100
AcDbBlockTableRecord
  2
A$C217D2A32
340
0
  0
BLOCK_RECORD
  5
63D
330
1
100
AcDbSymbolTableRecord
100
AcDbBlockTableRecord
  2
A$C26835032
340
0
  0
BLOCK_RECORD
  5
641
330
1
100
AcDbSymbolTableRecord
100
AcDbBlockTableRecord
  2
A$C11730435
340
0
  0
BLOCK_RECORD
  5
645
330
1
100
AcDbSymbolTableRecord
100
AcDbBlockTableRecord
  2
A$C740A492C
340
0
  0
BLOCK_RECORD
  5
649
330
1
100
AcDbSymbolTableRecord
100
AcDbBlockTableRecord
  2
A$C251463E3
340
0
  0
BLOCK_RECORD
  5
64D
330
1
100
AcDbSymbolTableRecord
100
AcDbBlockTableRecord
  2
A$C46507260
340
0
  0
BLOCK_RECORD
  5
65A
330
1
100
AcDbSymbolTableRecord
100
AcDbBlockTableRecord
  2
tft_aprlist
340
0
102
{BLKREFS
331
6E3
102
}
  0
BLOCK_RECORD
  5
866
330
1
100
AcDbSymbolTableRecord
100
AcDbBlockTableRecord
  2
rvsn_blk
340
0
102
{BLKREFS
331
86C
102
}
  0
ENDTAB
  0
ENDSEC
  0
SECTION
  2
BLOCKS
  0
BLOCK
  5
35
330
18
100
AcDbEntity
  8
0
100
AcDbBlockBegin
  2
*MODEL_SPACE
 70
     0
 10
0.0
 20
0.0
 30
0.0
  3
*MODEL_SPACE
  1

  0
ENDBLK
  5
36
330
18
100
AcDbEntity
  8
0
100
AcDbBlockEnd
  0
BLOCK
  5
33
330
15
100
AcDbEntity
 67
     1
  8
0
100
AcDbBlockBegin
  2
*PAPER_SPACE
 70
     0
 10
0.0
 20
0.0
 30
0.0
  3
*PAPER_SPACE
  1

  0
ENDBLK
  5
34
330
15
100
AcDbEntity
 67
     1
  8
0
100
AcDbBlockEnd
  0
BLOCK
  5
37
330
1C
100
AcDbEntity
  8
0
100
AcDbBlockBegin
  2
PLT
 70
     0
 10
0.0
 20
0.0
 30
0.0
  3
PLT
  1

  0
LINE
  5
38
330
1C
100
AcDbEntity
  8
0
100
AcDbLine
 10
-5.64082658977341
 20
-6.58091731251415
 30
0.0
 11
-9.449117046102198
 21
-8.996892892654035
 31
0.0
  0
LINE
  5
39
330
1C
100
AcDbEntity
  8
0
100
AcDbLine
 10
10.35917341022659
 20
5.419082687485849
 30
0.0
 11
13.93309226928826
 21
7.60777574822845
 31
0.0
  0
ENDBLK
  5
3A
330
1C
100
AcDbEntity
  8
0
100
AcDbBlockEnd
  0
BLOCK
  5
3B
330
1D
100
AcDbEntity
  8
0
100
AcDbBlockBegin
  2
JT265
 70
     0
 10
0.0
 20
0.0
 30
0.0
  3
JT265
  1

  0
LINE
  5
3C
330
1D
100
AcDbEntity
  8
BUMPER
100
AcDbLine
 10
0.0
 20
2.125000000000008
 30
0.0
 11
0.0
 21
-2.125000000000008
 31
0.0
  0
LINE
  5
3D
330
1D
100
AcDbEntity
  8
BUMPER
100
AcDbLine
 10
-0.9040665830225194
 20
1.517755383486971
 30
0.0
 11
-0.9040665830225194
 21
1.057060135922064
 31
0.0
  0
LINE
  5
3E
330
1D
100
AcDbEntity
  8
BUMPER
100
AcDbLine
 10
-0.6000000000000015
 20
2.125000000000003
 30
0.0
 11
-0.6000000000000015
 21
-0.0000000000000018
 31
0.0
  0
LINE
  5
3F
330
1D
100
AcDbEntity
  8
BUMPER
100
AcDbLine
 10
-0.8488237516246783
 20
1.573810611150486
 30
0.0
 11
-0.8488237516246783
 21
1.036959348153606
 31
0.0
  0
LINE
  5
40
330
1D
100
AcDbEntity
  8
BUMPER
100
AcDbLine
 10
-2.981126760599984
 20
1.559999999999986
 30
0.0
 11
-2.981126760599984
 21
-0.0000000000000053
 31
0.0
  0
LINE
  5
41
330
1D
100
AcDbEntity
  8
BUMPER
100
AcDbLine
 10
-2.963354954682642
 20
1.612305576824025
 30
0.0
 11
-2.963354954682642
 21
-0.0000000000000053
 31
0.0
  0
LINE
  5
42
330
1D
100
AcDbEntity
  8
BUMPER
100
AcDbLine
 10
-0.9040665830225194
 20
-1.517755383486981
 30
0.0
 11
-2.83362041906026
 21
-1.343729934423793
 31
0.0
  0
LINE
  5
43
330
1D
100
AcDbEntity
  8
BUMPER
100
AcDbLine
 10
-2.795785474252831
 20
-1.550721394224932
 30
0.0
 11
-0.8340367615619186
 21
-1.721326901151673
 31
0.0
  0
LINE
  5
44
330
1D
100
AcDbEntity
  8
BUMPER
100
AcDbLine
 10
-2.963354954682642
 20
-1.612305576824036
 30
0.0
 11
-0.9040665830225194
 21
-1.843167501898046
 31
0.0
  0
LINE
  5
45
330
1D
100
AcDbEntity
  8
BUMPER
  6
Continuous
100
AcDbLine
 10
-2.77996148886222
 20
-1.78003155646839
 30
0.0
 11
-0.8164137659406449
 21
-2.000160224957362
 31
0.0
  0
LINE
  5
46
330
1D
100
AcDbEntity
  8
BUMPER
100
AcDbLine
 10
-0.9040665830225194
 20
-0.786638643137362
 30
0.0
 11
-2.776565157393257
 21
-0.6885573916567474
 31
0.0
  0
LINE
  5
47
330
1D
100
AcDbEntity
  8
BUMPER
100
AcDbLine
 10
-0.9040665830225194
 20
-1.057271581819996
 30
0.0
 11
-2.791293776043225
 21
-0.9581546842520971
 31
0.0
  0
LINE
  5
48
330
1D
100
AcDbEntity
  8
BUMPER
100
AcDbLine
 10
-0.9040665830225194
 20
-0.1559887606451564
 30
0.0
 11
-2.762637999954833
 21
-0.1559887606451564
 31
0.0
  0
LINE
  5
49
330
1D
100
AcDbEntity
  8
BUMPER
100
AcDbLine
 10
-0.9040665830225194
 20
0.1559887606451458
 30
0.0
 11
-2.762637999954833
 21
0.1559887606451458
 31
0.0
  0
LINE
  5
4A
330
1D
100
AcDbEntity
  8
BUMPER
100
AcDbLine
 10
-0.9040665830225194
 20
1.057271581819986
 30
0.0
 11
-2.791293776043225
 21
0.9581546842520864
 31
0.0
  0
LINE
  5
4B
330
1D
100
AcDbEntity
  8
BUMPER
100
AcDbLine
 10
-0.9040665830225194
 20
0.7866386431373514
 30
0.0
 11
-2.776565157393257
 21
0.6885573916567367
 31
0.0
  0
LINE
  5
4C
330
1D
100
AcDbEntity
  8
BUMPER
100
AcDbLine
 10
-2.918626760599984
 20
-1.492227902126623
 30
0.0
 11
-2.918626760599984
 21
-1.421414625182196
 31
0.0
  0
POLYLINE
  5
4D
330
1D
100
AcDbEntity
  8
BUMPER
100
AcDb2dPolyline
 66
     1
 10
0.0
 20
0.0
 30
0.0
  0
VERTEX
  5
4E
330
4D
100
AcDbEntity
  8
BUMPER
100
AcDbVertex
100
AcDb2dVertex
 10
-2.892109922217322
 20
-1.362818686160087
 30
0.0
 42
-0.0147750608122531
  0
VERTEX
  5
4F
330
4D
100
AcDbEntity
  8
BUMPER
100
AcDbVertex
100
AcDb2dVertex
 10
-2.850274389056544
 20
-1.409233011219024
 30
0.0
 42
-0.0326964228870274
  0
VERTEX
  5
50
330
4D
100
AcDbEntity
  8
BUMPER
100
AcDbVertex
100
AcDb2dVertex
 10
-2.807016955412933
 20
-1.467497183883887
 30
0.0
 42
-0.0701735246354636
 70
     2
 50
302.846131871977
  0
VERTEX
  5
51
330
4D
100
AcDbEntity
  8
BUMPER
100
AcDbVertex
100
AcDb2dVertex
 10
-2.779218121507476
 20
-1.527609772128306
 30
0.0
 42
-0.2727530028059542
  0
VERTEX
  5
52
330
4D
100
AcDbEntity
  8
BUMPER
100
AcDbVertex
100
AcDb2dVertex
 10
-2.783539804716447
 20
-1.54530699610914
 30
0.0
 42
-0.2727530028060096
  0
VERTEX
  5
53
330
4D
100
AcDbEntity
  8
BUMPER
100
AcDbVertex
100
AcDb2dVertex
 10
-2.801115512449563
 20
-1.550098987351473
 30
0.0
 42
-0.0599478487582181
  0
VERTEX
  5
54
330
4D
100
AcDbEntity
  8
BUMPER
100
AcDbVertex
100
AcDb2dVertex
 10
-2.863103383738575
 20
-1.527494000091932
 30
0.0
 42
0.0048945042505762
 70
     2
 50
148.6816724464605
  0
VERTEX
  5
55
330
4D
100
AcDbEntity
  8
BUMPER
100
AcDbVertex
100
AcDb2dVertex
 10
-2.918626760599984
 20
-1.492227902126623
 30
0.0
  0
SEQEND
  5
56
330
4D
100
AcDbEntity
  8
BUMPER
  0
LINE
  5
57
330
1D
100
AcDbEntity
  8
BUMPER
100
AcDbLine
 10
-2.963354954682642
 20
-1.612305576824036
 30
0.0
 11
-2.963354954682642
 21
-0.0000000000000053
 31
0.0
  0
LINE
  5
58
330
1D
100
AcDbEntity
  8
BUMPER
100
AcDbLine
 10
-2.981126760599984
 20
-1.559999999999996
 30
0.0
 11
-2.981126760599984
 21
-0.0000000000000053
 31
0.0
  0
ARC
  5
59
330
1D
100
AcDbEntity
  8
BUMPER
100
AcDbCircle
 10
-2.762553722591441
 20
-1.624754281333032
 30
0.0
 40
0.15625
100
AcDbArc
 50
177.2728525935299
 51
263.6034147885283
  0
LINE
  5
5A
330
1D
100
AcDbEntity
  8
BUMPER
100
AcDbLine
 10
-2.981126760599984
 20
-1.560000000000005
 30
0.0
 11
-2.981126760599984
 21
-1.592430085606709
 31
0.0
  0
ARC
  5
5B
330
1D
100
AcDbEntity
  8
BUMPER
100
AcDbCircle
 10
-2.961126760599988
 20
-1.592430085606709
 30
0.0
 40
0.02
100
AcDbArc
 50
180.0
 51
263.6034147885276
  0
POLYLINE
  5
5C
330
1D
100
AcDbEntity
  8
BUMPER
100
AcDb2dPolyline
 66
     1
 10
0.0
 20
0.0
 30
0.0
  0
VERTEX
  5
5D
330
5C
100
AcDbEntity
  8
BUMPER
100
AcDbVertex
100
AcDb2dVertex
 10
-2.779961475973237
 20
-0.0000000000000053
 30
0.0
 42
-0.0881752286986703
  0
VERTEX
  5
5E
330
5C
100
AcDbEntity
  8
BUMPER
100
AcDbVertex
100
AcDb2dVertex
 10
-2.790749496549473
 20
-0.0604369026651046
 30
0.0
 42
-0.0937033183989008
  0
VERTEX
  5
5F
330
5C
100
AcDbEntity
  8
BUMPER
100
AcDbVertex
100
AcDb2dVertex
 10
-2.820575563137616
 20
-0.1102624528233171
 30
0.0
 42
-0.0589383168468517
 70
     2
 50
228.3884967589747
  0
VERTEX
  5
60
330
5C
100
AcDbEntity
  8
BUMPER
100
AcDbVertex
100
AcDb2dVertex
 10
-2.845325756370435
 20
-0.1322695293201157
 30
0.0
 42
-0.1095268901796172
  0
SEQEND
  5
61
330
5C
100
AcDbEntity
  8
BUMPER
  0
ARC
  5
62
330
1D
100
AcDbEntity
  8
BUMPER
100
AcDbCircle
 10
-2.762637999954833
 20
-0.0000000000000053
 30
0.0
 40
0.1559887606451511
100
AcDbArc
 50
180.0
 51
270.0
  0
POLYLINE
  5
63
330
1D
100
AcDbEntity
  8
BUMPER
100
AcDb2dPolyline
 66
     1
 10
0.0
 20
0.0
 30
0.0
  0
VERTEX
  5
64
330
63
100
AcDbEntity
  8
BUMPER
100
AcDbVertex
100
AcDb2dVertex
 10
-2.86536907582758
 20
-0.7159333185742441
 30
0.0
 42
-0.0166284414818466
  0
VERTEX
  5
65
330
63
100
AcDbEntity
  8
BUMPER
100
AcDbVertex
100
AcDb2dVertex
 10
-2.847622674071807
 20
-0.7309814691010122
 30
0.0
 42
-0.0754465689062767
  0
VERTEX
  5
66
330
63
100
AcDbEntity
  8
BUMPER
100
AcDbVertex
100
AcDb2dVertex
 10
-2.802339013728222
 20
-0.7865659803049088
 30
0.0
 42
-0.107063122092732
 70
     2
 50
300.5398675204594
  0
VERTEX
  5
67
330
63
100
AcDbEntity
  8
BUMPER
100
AcDbVertex
100
AcDb2dVertex
 10
-2.781140111638329
 20
-0.8505984508637993
 30
0.0
 42
-0.1496914873490885
  0
VERTEX
  5
68
330
63
100
AcDbEntity
  8
BUMPER
100
AcDbVertex
100
AcDb2dVertex
 10
-2.79038713964514
 20
-0.8984779029083718
 30
0.0
 42
-0.1496914873490903
  0
VERTEX
  5
69
330
63
100
AcDbEntity
  8
BUMPER
100
AcDbVertex
100
AcDb2dVertex
 10
-2.824859590354286
 20
-0.9329684754920943
 30
0.0
 42
-0.0378204578423562
  0
VERTEX
  5
6A
330
63
100
AcDbEntity
  8
BUMPER
100
AcDbVertex
100
AcDb2dVertex
 10
-2.846903113978534
 20
-0.942624842030078
 30
0.0
 42
-0.0302197568271049
 70
     2
 50
183.5441537649269
  0
SEQEND
  5
6B
330
63
100
AcDbEntity
  8
BUMPER
  0
ARC
  5
6C
330
1D
100
AcDbEntity
  8
BUMPER
100
AcDbCircle
 10
-2.783626760599986
 20
-0.8233725753719003
 30
0.0
 40
0.135
100
AcDbArc
 50
87.00159410900054
 51
267.2429265796944
  0
ARC
  5
6D
330
1D
100
AcDbEntity
  8
BUMPER
100
AcDbCircle
 10
-2.840626760599981
 20
-1.421414625182196
 30
0.0
 40
0.078
100
AcDbArc
 50
84.84646668726268
 51
180.0
  0
ARC
  5
6E
330
1D
100
AcDbEntity
  8
BUMPER
100
AcDbCircle
 10
-2.762637999954833
 20
-0.0000000000000053
 30
0.0
 40
0.1559887606451511
100
AcDbArc
 50
90.0
 51
180.0
  0
POLYLINE
  5
6F
330
1D
100
AcDbEntity
  8
BUMPER
100
AcDb2dPolyline
 66
     1
 10
0.0
 20
0.0
 30
0.0
  0
VERTEX
  5
70
330
6F
100
AcDbEntity
  8
BUMPER
100
AcDbVertex
100
AcDb2dVertex
 10
-2.779961475973237
 20
-0.0000000000000053
 30
0.0
 42
0.0881752286986703
  0
VERTEX
  5
71
330
6F
100
AcDbEntity
  8
BUMPER
100
AcDbVertex
100
AcDb2dVertex
 10
-2.790749496549473
 20
0.060436902665094
 30
0.0
 42
0.0937033183989008
  0
VERTEX
  5
72
330
6F
100
AcDbEntity
  8
BUMPER
100
AcDbVertex
100
AcDb2dVertex
 10
-2.820575563137616
 20
0.1102624528233065
 30
0.0
 42
0.0589383168468517
 70
     2
 50
131.6115032410253
  0
VERTEX
  5
73
330
6F
100
AcDbEntity
  8
BUMPER
100
AcDbVertex
100
AcDb2dVertex
 10
-2.845325756370435
 20
0.132269529320105
 30
0.0
 42
0.1095268901796172
 50
131.6115032410253
  0
SEQEND
  5
74
330
6F
100
AcDbEntity
  8
BUMPER
  0
ARC
  5
75
330
1D
100
AcDbEntity
  8
BUMPER
100
AcDbCircle
 10
-2.783626760599986
 20
0.8233725753718896
 30
0.0
 40
0.135
100
AcDbArc
 50
92.75707342030566
 51
272.9984058909995
  0
POLYLINE
  5
76
330
1D
100
AcDbEntity
  8
BUMPER
100
AcDb2dPolyline
 66
     1
 10
0.0
 20
0.0
 30
0.0
  0
VERTEX
  5
77
330
76
100
AcDbEntity
  8
BUMPER
100
AcDbVertex
100
AcDb2dVertex
 10
-2.86536907582758
 20
0.7159333185742334
 30
0.0
 42
0.0166284414818466
  0
VERTEX
  5
78
330
76
100
AcDbEntity
  8
BUMPER
100
AcDbVertex
100
AcDb2dVertex
 10
-2.847622674071807
 20
0.7309814691010015
 30
0.0
 42
0.0754465689062767
  0
VERTEX
  5
79
330
76
100
AcDbEntity
  8
BUMPER
100
AcDbVertex
100
AcDb2dVertex
 10
-2.802339013728222
 20
0.7865659803048981
 30
0.0
 42
0.107063122092732
 70
     2
 50
59.46013247954054
  0
VERTEX
  5
7A
330
76
100
AcDbEntity
  8
BUMPER
100
AcDbVertex
100
AcDb2dVertex
 10
-2.781140111638329
 20
0.8505984508637887
 30
0.0
 42
0.1496914873490885
 50
59.46013247954054
  0
VERTEX
  5
7B
330
76
100
AcDbEntity
  8
BUMPER
100
AcDbVertex
100
AcDb2dVertex
 10
-2.79038713964514
 20
0.8984779029083611
 30
0.0
 42
0.1496914873490903
  0
VERTEX
  5
7C
330
76
100
AcDbEntity
  8
BUMPER
100
AcDbVertex
100
AcDb2dVertex
 10
-2.824859590354286
 20
0.9329684754920837
 30
0.0
 42
0.0378204578423562
  0
VERTEX
  5
7D
330
76
100
AcDbEntity
  8
BUMPER
100
AcDbVertex
100
AcDb2dVertex
 10
-2.846903113978534
 20
0.9426248420300673
 30
0.0
 42
0.0302197568271049
 70
     2
 50
176.4558462350731
  0
SEQEND
  5
7E
330
76
100
AcDbEntity
  8
BUMPER
  0
LINE
  5
7F
330
1D
100
AcDbEntity
  8
BUMPER
100
AcDbLine
 10
-0.8488237516246783
 20
-1.573810611150497
 30
0.0
 11
-0.8488237516246783
 21
-1.036959348153617
 31
0.0
  0
LINE
  5
80
330
1D
100
AcDbEntity
  8
BUMPER
100
AcDbLine
 10
-0.6000000000000015
 20
-2.125000000000014
 30
0.0
 11
-0.6000000000000015
 21
-0.0000000000000089
 31
0.0
  0
LINE
  5
81
330
1D
100
AcDbEntity
  8
BUMPER
100
AcDbLine
 10
-0.9040665830225194
 20
-1.517755383486981
 30
0.0
 11
-0.9040665830225194
 21
-1.057060135922075
 31
0.0
  0
ARC
  5
82
330
1D
100
AcDbEntity
  8
BUMPER
100
AcDbCircle
 10
-0.6000000000000015
 20
-1.875000000000014
 30
0.0
 40
0.25
100
AcDbArc
 50
185.5601636048677
 51
270.0
  0
LINE
  5
83
330
1D
100
AcDbEntity
  8
BUMPER
100
AcDbLine
 10
-0.6000000000000015
 20
-2.125000000000014
 30
0.0
 11
0.0
 21
-2.125000000000017
 31
0.0
  0
LINE
  5
84
330
1D
100
AcDbEntity
  8
BUMPER
100
AcDbLine
 10
-0.9040665830225194
 20
-1.843167501898046
 30
0.0
 11
-0.9040665830225194
 21
-1.715236685257567
 31
0.0
  0
LINE
  5
85
330
1D
100
AcDbEntity
  8
BUMPER
100
AcDbLine
 10
-0.8488237516246783
 20
-1.899222729561754
 30
0.0
 11
-0.8488237516246783
 21
-1.720040935258458
 31
0.0
  0
ARC
  5
86
330
1D
100
AcDbEntity
  8
BUMPER
100
AcDbCircle
 10
-0.911029689530828
 20
-1.905278411952188
 30
0.0
 40
0.0625
100
AcDbArc
 50
5.560163604867933
 51
83.60341478852765
  0
POLYLINE
  5
87
330
1D
100
AcDbEntity
  8
BUMPER
100
AcDb2dPolyline
 66
     1
 10
0.0
 20
0.0
 30
0.0
  0
VERTEX
  5
88
330
87
100
AcDbEntity
  8
BUMPER
100
AcDbVertex
100
AcDb2dVertex
 10
-0.8360389101440475
 20
-1.631962834687637
 30
0.0
 42
-0.0090039863235147
  0
VERTEX
  5
89
330
87
100
AcDbEntity
  8
BUMPER
100
AcDbVertex
100
AcDb2dVertex
 10
-0.8298151135534439
 20
-1.64672133551376
 30
0.0
 42
-0.0744653926551327
 70
     2
 50
291.8338507473982
  0
VERTEX
  5
8A
330
87
100
AcDbEntity
  8
BUMPER
100
AcDbVertex
100
AcDb2dVertex
 10
-0.8166403809285185
 20
-1.70238292386529
 30
0.0
 42
-0.2631700873813878
  0
VERTEX
  5
8B
330
87
100
AcDbEntity
  8
BUMPER
100
AcDbVertex
100
AcDb2dVertex
 10
-0.8238291444980632
 20
-1.718020070699511
 30
0.0
 42
-0.2027288591661507
  0
VERTEX
  5
8C
330
87
100
AcDbEntity
  8
BUMPER
100
AcDbVertex
100
AcDb2dVertex
 10
-0.8371017549672217
 20
-1.721060350828354
 30
0.0
 42
-0.0744653926551238
  0
SEQEND
  5
8D
330
87
100
AcDbEntity
  8
BUMPER
  0
ARC
  5
8E
330
1D
100
AcDbEntity
  8
BUMPER
100
AcDbCircle
 10
-0.6000000000000015
 20
-1.54958788158895
 30
0.0
 40
0.25
100
AcDbArc
 50
185.5601636048677
 51
204.8809695658425
  0
ARC
  5
8F
330
1D
100
AcDbEntity
  8
BUMPER
100
AcDbCircle
 10
-0.911029689530828
 20
-1.579866293541124
 30
0.0
 40
0.0625
100
AcDbArc
 50
5.560163604867933
 51
83.60341478852765
  0
POLYLINE
  5
90
330
1D
100
AcDbEntity
  8
BUMPER
100
AcDb2dPolyline
 66
     1
 10
0.0
 20
0.0
 30
0.0
  0
VERTEX
  5
91
330
90
100
AcDbEntity
  8
BUMPER
100
AcDbVertex
100
AcDb2dVertex
 10
-0.8164136993946229
 20
-0.0000000000000071
 30
0.0
 42
-0.0570684702191636
  0
VERTEX
  5
92
330
90
100
AcDbEntity
  8
BUMPER
100
AcDbVertex
100
AcDb2dVertex
 10
-0.8236178944404244
 20
-0.062652067429509
 30
0.0
 42
-0.070891436554057
  0
VERTEX
  5
93
330
90
100
AcDbEntity
  8
BUMPER
100
AcDbVertex
100
AcDb2dVertex
 10
-0.8420866128551836
 20
-0.1102624528233171
 30
0.0
 42
-0.1062939648795223
 70
     2
 50
240.6880545407753
  0
VERTEX
  5
94
330
90
100
AcDbEntity
  8
BUMPER
100
AcDbVertex
100
AcDb2dVertex
 10
-0.8736221927241061
 20
-0.1459737368558756
 30
0.0
 42
-0.1602564004738186
  0
VERTEX
  5
95
330
90
100
AcDbEntity
  8
BUMPER
100
AcDbVertex
100
AcDb2dVertex
 10
-0.9040665830225194
 20
-0.1559887606451564
 30
0.0
 42
-0.1602564004738183
  0
SEQEND
  5
96
330
90
100
AcDbEntity
  8
BUMPER
  0
LINE
  5
97
330
1D
100
AcDbEntity
  8
BUMPER
100
AcDbLine
 10
-0.9040665830225194
 20
-0.786638643137362
 30
0.0
 11
-0.9040665830225194
 21
-0.1559887606451564
 31
0.0
  0
LINE
  5
98
330
1D
100
AcDbEntity
  8
BUMPER
100
AcDbLine
 10
-0.8488237516246783
 20
-0.8426938707999624
 30
0.0
 11
-0.8488237516246783
 21
-0.1208438335150728
 31
0.0
  0
POLYLINE
  5
99
330
1D
100
AcDbEntity
  8
BUMPER
100
AcDb2dPolyline
 66
     1
 10
0.0
 20
0.0
 30
0.0
  0
VERTEX
  5
9A
330
99
100
AcDbEntity
  8
BUMPER
100
AcDbVertex
100
AcDb2dVertex
 10
-0.814384617309102
 20
-0.9470761017238729
 30
0.0
 42
-0.0544311820488789
 70
     2
 50
285.5676961102227
  0
VERTEX
  5
9B
330
99
100
AcDbEntity
  8
BUMPER
100
AcDbVertex
100
AcDb2dVertex
 10
-0.8159746625227342
 20
-0.9811649826975639
 30
0.0
 42
-0.1445844733358062
  0
VERTEX
  5
9C
330
99
100
AcDbEntity
  8
BUMPER
100
AcDbVertex
100
AcDb2dVertex
 10
-0.8373220876743019
 20
-1.026211973888774
 30
0.0
 42
-0.1445844733358098
  0
VERTEX
  5
9D
330
99
100
AcDbEntity
  8
BUMPER
100
AcDbVertex
100
AcDb2dVertex
 10
-0.8797179709288514
 20
-1.052432825496783
 30
0.0
 42
-0.0394759969565136
  0
VERTEX
  5
9E
330
99
100
AcDbEntity
  8
BUMPER
100
AcDbVertex
100
AcDb2dVertex
 10
-0.9040665830225194
 20
-1.057060135922075
 30
0.0
 42
-0.0777060857282009
 70
     2
 50
170.8121993811018
  0
SEQEND
  5
9F
330
99
100
AcDbEntity
  8
BUMPER
  0
LINE
  5
A0
330
1D
100
AcDbEntity
  8
BUMPER
100
AcDbLine
 10
-0.9040665830225194
 20
-1.057271581819996
 30
0.0
 11
-0.9040665830225194
 21
-1.057060135922075
 31
0.0
  0
ARC
  5
A1
330
1D
100
AcDbEntity
  8
BUMPER
100
AcDbCircle
 10
-0.911029689530828
 20
-0.8487495531915048
 30
0.0
 40
0.0625
100
AcDbArc
 50
5.560163604867933
 51
83.60341478852765
  0
POLYLINE
  5
A2
330
1D
100
AcDbEntity
  8
BUMPER
100
AcDb2dPolyline
 66
     1
 10
0.0
 20
0.0
 30
0.0
  0
VERTEX
  5
A3
330
A2
100
AcDbEntity
  8
BUMPER
100
AcDbVertex
100
AcDb2dVertex
 10
-0.8490333956699132
 20
-0.8504730391322663
 30
0.0
 42
-0.0027572072551682
  0
VERTEX
  5
A4
330
A2
100
AcDbEntity
  8
BUMPER
100
AcDbVertex
100
AcDb2dVertex
 10
-0.8476618183490174
 20
-0.8525830707077446
 30
0.0
 42
-0.1071757873307809
 70
     2
 50
285.5676961102227
  0
SEQEND
  5
A5
330
A2
100
AcDbEntity
  8
BUMPER
  0
ARC
  5
A6
330
1D
100
AcDbEntity
  8
BUMPER
100
AcDbCircle
 10
-0.6000000000000015
 20
-0.8184711412393301
 30
0.0
 40
0.25
100
AcDbArc
 50
185.5601636048677
 51
210.9586842954275
  0
LINE
  5
A7
330
1D
100
AcDbEntity
  8
BUMPER
100
AcDbLine
 10
-0.8488237516246783
 20
0.8426938707999518
 30
0.0
 11
-0.8488237516246783
 21
0.1208438335150621
 31
0.0
  0
LINE
  5
A8
330
1D
100
AcDbEntity
  8
BUMPER
100
AcDbLine
 10
-0.9040665830225194
 20
0.7866386431373514
 30
0.0
 11
-0.9040665830225194
 21
0.1559887606451458
 31
0.0
  0
POLYLINE
  5
A9
330
1D
100
AcDbEntity
  8
BUMPER
100
AcDb2dPolyline
 66
     1
 10
0.0
 20
0.0
 30
0.0
  0
VERTEX
  5
AA
330
A9
100
AcDbEntity
  8
BUMPER
100
AcDbVertex
100
AcDb2dVertex
 10
-0.8164136993946229
 20
-0.0000000000000036
 30
0.0
 42
0.0570684702191636
  0
VERTEX
  5
AB
330
A9
100
AcDbEntity
  8
BUMPER
100
AcDbVertex
100
AcDb2dVertex
 10
-0.8236178944404244
 20
0.0626520674294984
 30
0.0
 42
0.070891436554057
  0
VERTEX
  5
AC
330
A9
100
AcDbEntity
  8
BUMPER
100
AcDbVertex
100
AcDb2dVertex
 10
-0.8420866128551836
 20
0.1102624528233065
 30
0.0
 42
0.1062939648795223
 70
     2
 50
119.3119454592246
  0
VERTEX
  5
AD
330
A9
100
AcDbEntity
  8
BUMPER
100
AcDbVertex
100
AcDb2dVertex
 10
-0.8736221927241061
 20
0.1459737368558649
 30
0.0
 42
0.1602564004738186
 50
119.3119454592246
  0
VERTEX
  5
AE
330
A9
100
AcDbEntity
  8
BUMPER
100
AcDbVertex
100
AcDb2dVertex
 10
-0.9040665830225194
 20
0.1559887606451458
 30
0.0
 42
0.1602564004738183
  0
SEQEND
  5
AF
330
A9
100
AcDbEntity
  8
BUMPER
  0
ARC
  5
B0
330
1D
100
AcDbEntity
  8
BUMPER
100
AcDbCircle
 10
-0.6000000000000015
 20
0.8184711412393195
 30
0.0
 40
0.25
100
AcDbArc
 50
149.0413157045724
 51
174.4398363951322
  0
POLYLINE
  5
B1
330
1D
100
AcDbEntity
  8
BUMPER
100
AcDb2dPolyline
 66
     1
 10
0.0
 20
0.0
 30
0.0
  0
VERTEX
  5
B2
330
B1
100
AcDbEntity
  8
BUMPER
100
AcDbVertex
100
AcDb2dVertex
 10
-0.8490333956699132
 20
0.8504730391322556
 30
0.0
 42
0.0027572072551682
  0
VERTEX
  5
B3
330
B1
100
AcDbEntity
  8
BUMPER
100
AcDbVertex
100
AcDb2dVertex
 10
-0.8476618183490174
 20
0.8525830707077339
 30
0.0
 42
0.1071757873307809
 70
     2
 50
74.43230388977735
  0
SEQEND
  5
B4
330
B1
100
AcDbEntity
  8
BUMPER
  0
ARC
  5
B5
330
1D
100
AcDbEntity
  8
BUMPER
100
AcDbCircle
 10
-0.911029689530828
 20
0.8487495531914941
 30
0.0
 40
0.0625
100
AcDbArc
 50
276.3965852114724
 51
354.4398363951321
  0
LINE
  5
B6
330
1D
100
AcDbEntity
  8
BUMPER
100
AcDbLine
 10
-0.9040665830225194
 20
1.057271581819986
 30
0.0
 11
-0.9040665830225194
 21
1.057060135922064
 31
0.0
  0
POLYLINE
  5
B7
330
1D
100
AcDbEntity
  8
BUMPER
100
AcDb2dPolyline
 66
     1
 10
0.0
 20
0.0
 30
0.0
  0
VERTEX
  5
B8
330
B7
100
AcDbEntity
  8
BUMPER
100
AcDbVertex
100
AcDb2dVertex
 10
-0.814384617309102
 20
0.9470761017238622
 30
0.0
 42
0.0544311820488789
 70
     2
 50
74.43230388977735
  0
VERTEX
  5
B9
330
B7
100
AcDbEntity
  8
BUMPER
100
AcDbVertex
100
AcDb2dVertex
 10
-0.8159746625227342
 20
0.9811649826975532
 30
0.0
 42
0.1445844733358062
 50
74.43230388977735
  0
VERTEX
  5
BA
330
B7
100
AcDbEntity
  8
BUMPER
100
AcDbVertex
100
AcDb2dVertex
 10
-0.8373220876743019
 20
1.026211973888763
 30
0.0
 42
0.1445844733358098
  0
VERTEX
  5
BB
330
B7
100
AcDbEntity
  8
BUMPER
100
AcDbVertex
100
AcDb2dVertex
 10
-0.8797179709288514
 20
1.052432825496772
 30
0.0
 42
0.0394759969565136
  0
VERTEX
  5
BC
330
B7
100
AcDbEntity
  8
BUMPER
100
AcDbVertex
100
AcDb2dVertex
 10
-0.9040665830225194
 20
1.057060135922064
 30
0.0
 42
0.0777060857282009
 70
     2
 50
189.1878006188981
  0
SEQEND
  5
BD
330
B7
100
AcDbEntity
  8
BUMPER
  0
LINE
  5
BE
330
1D
100
AcDbEntity
  8
BUMPER
  6
Continuous
100
AcDbLine
 10
-2.77996148886222
 20
1.780031556468379
 30
0.0
 11
-0.8164137659406449
 21
2.000160224957351
 31
0.0
  0
LINE
  5
BF
330
1D
100
AcDbEntity
  8
BUMPER
100
AcDbLine
 10
-2.963354954682642
 20
1.612305576824025
 30
0.0
 11
-0.9040665830225194
 21
1.843167501898035
 31
0.0
  0
LINE
  5
C0
330
1D
100
AcDbEntity
  8
BUMPER
100
AcDbLine
 10
-2.795785474252831
 20
1.550721394224922
 30
0.0
 11
-0.8340367615619186
 21
1.721326901151662
 31
0.0
  0
LINE
  5
C1
330
1D
100
AcDbEntity
  8
BUMPER
100
AcDbLine
 10
-0.9040665830225194
 20
1.517755383486971
 30
0.0
 11
-2.83362041906026
 21
1.343729934423782
 31
0.0
  0
POLYLINE
  5
C2
330
1D
100
AcDbEntity
  8
BUMPER
100
AcDb2dPolyline
 66
     1
 10
0.0
 20
0.0
 30
0.0
  0
VERTEX
  5
C3
330
C2
100
AcDbEntity
  8
BUMPER
100
AcDbVertex
100
AcDb2dVertex
 10
-2.892109922217322
 20
1.362818686160077
 30
0.0
 42
0.0147750608122531
  0
VERTEX
  5
C4
330
C2
100
AcDbEntity
  8
BUMPER
100
AcDbVertex
100
AcDb2dVertex
 10
-2.850274389056544
 20
1.409233011219013
 30
0.0
 42
0.0326964228870274
  0
VERTEX
  5
C5
330
C2
100
AcDbEntity
  8
BUMPER
100
AcDbVertex
100
AcDb2dVertex
 10
-2.807016955412933
 20
1.467497183883876
 30
0.0
 42
0.0701735246354636
 70
     2
 50
57.15386812802299
  0
VERTEX
  5
C6
330
C2
100
AcDbEntity
  8
BUMPER
100
AcDbVertex
100
AcDb2dVertex
 10
-2.779218121507476
 20
1.527609772128295
 30
0.0
 42
0.2727530028059542
 50
57.15386812802299
  0
VERTEX
  5
C7
330
C2
100
AcDbEntity
  8
BUMPER
100
AcDbVertex
100
AcDb2dVertex
 10
-2.783539804716447
 20
1.545306996109129
 30
0.0
 42
0.2727530028060096
  0
VERTEX
  5
C8
330
C2
100
AcDbEntity
  8
BUMPER
100
AcDbVertex
100
AcDb2dVertex
 10
-2.801115512449563
 20
1.550098987351463
 30
0.0
 42
0.0599478487582181
  0
VERTEX
  5
C9
330
C2
100
AcDbEntity
  8
BUMPER
100
AcDbVertex
100
AcDb2dVertex
 10
-2.863103383738575
 20
1.527494000091921
 30
0.0
 42
-0.0048945042505762
 70
     2
 50
211.3183275535395
  0
VERTEX
  5
CA
330
C2
100
AcDbEntity
  8
BUMPER
100
AcDbVertex
100
AcDb2dVertex
 10
-2.918626760599984
 20
1.492227902126613
 30
0.0
 50
211.3183275535395
  0
SEQEND
  5
CB
330
C2
100
AcDbEntity
  8
BUMPER
  0
ARC
  5
CC
330
1D
100
AcDbEntity
  8
BUMPER
100
AcDbCircle
 10
-2.840626760599981
 20
1.421414625182185
 30
0.0
 40
0.078
100
AcDbArc
 50
180.0
 51
275.1535333127373
  0
LINE
  5
CD
330
1D
100
AcDbEntity
  8
BUMPER
100
AcDbLine
 10
-2.918626760599984
 20
1.492227902126613
 30
0.0
 11
-2.918626760599984
 21
1.421414625182185
 31
0.0
  0
ARC
  5
CE
330
1D
100
AcDbEntity
  8
BUMPER
100
AcDbCircle
 10
-2.762553722591441
 20
1.624754281333022
 30
0.0
 40
0.15625
100
AcDbArc
 50
96.39658521147172
 51
182.72714740647
  0
ARC
  5
CF
330
1D
100
AcDbEntity
  8
BUMPER
100
AcDbCircle
 10
-2.961126760599988
 20
1.592430085606698
 30
0.0
 40
0.02
100
AcDbArc
 50
96.39658521147234
 51
180.0
  0
LINE
  5
D0
330
1D
100
AcDbEntity
  8
BUMPER
100
AcDbLine
 10
-2.981126760599984
 20
1.559999999999995
 30
0.0
 11
-2.981126760599984
 21
1.592430085606698
 31
0.0
  0
LINE
  5
D1
330
1D
100
AcDbEntity
  8
BUMPER
100
AcDbLine
 10
-0.8488237516246783
 20
1.899222729561744
 30
0.0
 11
-0.8488237516246783
 21
1.720040935258447
 31
0.0
  0
ARC
  5
D2
330
1D
100
AcDbEntity
  8
BUMPER
100
AcDbCircle
 10
-0.911029689530828
 20
1.905278411952178
 30
0.0
 40
0.0625
100
AcDbArc
 50
276.3965852114724
 51
354.4398363951321
  0
ARC
  5
D3
330
1D
100
AcDbEntity
  8
BUMPER
100
AcDbCircle
 10
-0.911029689530828
 20
1.579866293541114
 30
0.0
 40
0.0625
100
AcDbArc
 50
276.3965852114724
 51
354.4398363951321
  0
ARC
  5
D4
330
1D
100
AcDbEntity
  8
BUMPER
100
AcDbCircle
 10
-0.6000000000000015
 20
1.549587881588939
 30
0.0
 40
0.25
100
AcDbArc
 50
155.1190304341546
 51
174.4398363951322
  0
POLYLINE
  5
D5
330
1D
100
AcDbEntity
  8
BUMPER
100
AcDb2dPolyline
 66
     1
 10
0.0
 20
0.0
 30
0.0
  0
VERTEX
  5
D6
330
D5
100
AcDbEntity
  8
BUMPER
100
AcDbVertex
100
AcDb2dVertex
 10
-0.8360389101440475
 20
1.631962834687627
 30
0.0
 42
0.0090039863235147
  0
VERTEX
  5
D7
330
D5
100
AcDbEntity
  8
BUMPER
100
AcDbVertex
100
AcDb2dVertex
 10
-0.8298151135534439
 20
1.646721335513749
 30
0.0
 42
0.0744653926551327
 70
     2
 50
68.16614925260184
  0
VERTEX
  5
D8
330
D5
100
AcDbEntity
  8
BUMPER
100
AcDbVertex
100
AcDb2dVertex
 10
-0.8166403809285185
 20
1.702382923865279
 30
0.0
 42
0.2631700873813878
 50
68.16614925260184
  0
VERTEX
  5
D9
330
D5
100
AcDbEntity
  8
BUMPER
100
AcDbVertex
100
AcDb2dVertex
 10
-0.8238291444980632
 20
1.7180200706995
 30
0.0
 42
0.2027288591661507
  0
VERTEX
  5
DA
330
D5
100
AcDbEntity
  8
BUMPER
100
AcDbVertex
100
AcDb2dVertex
 10
-0.8371017549672217
 20
1.721060350828343
 30
0.0
 42
0.0744653926551238
  0
SEQEND
  5
DB
330
D5
100
AcDbEntity
  8
BUMPER
  0
LINE
  5
DC
330
1D
100
AcDbEntity
  8
BUMPER
100
AcDbLine
 10
-0.9040665830225194
 20
1.843167501898035
 30
0.0
 11
-0.9040665830225194
 21
1.715236685257556
 31
0.0
  0
LINE
  5
DD
330
1D
100
AcDbEntity
  8
BUMPER
100
AcDbLine
 10
-0.6000000000000015
 20
2.125000000000003
 30
0.0
 11
0.0
 21
2.125000000000007
 31
0.0
  0
ARC
  5
DE
330
1D
100
AcDbEntity
  8
BUMPER
100
AcDbCircle
 10
-0.6000000000000015
 20
1.875000000000003
 30
0.0
 40
0.25
100
AcDbArc
 50
90.0
 51
174.4398363951322
  0
ENDBLK
  5
DF
330
1D
100
AcDbEntity
  8
0
100
AcDbBlockEnd
  0
BLOCK
  5
E0
330
1E
100
AcDbEntity
  8
0
100
AcDbBlockBegin
  2
TB_A
 70
     0
 10
0.0
 20
0.0
 30
0.0
  3
TB_A
  1

  0
LINE
  5
50F
330
1E
100
AcDbEntity
  8
PART
100
AcDbLine
 10
0.0
 20
3.949999999999999
 30
0.0
 11
0.0
 21
-3.95
 31
0.0
  0
LINE
  5
510
330
1E
100
AcDbEntity
  8
PART
100
AcDbLine
 10
0.0
 20
-3.95
 30
0.0
 11
10.45
 21
-3.95
 31
0.0
  0
LINE
  5
511
330
1E
100
AcDbEntity
  8
PART
100
AcDbLine
 10
10.45
 20
-3.95
 30
0.0
 11
10.45
 21
3.949999999999999
 31
0.0
  0
LINE
  5
512
330
1E
100
AcDbEntity
  8
PART
100
AcDbLine
 10
10.45
 20
3.949999999999999
 30
0.0
 11
0.0
 21
3.949999999999999
 31
0.0
  0
ENDBLK
  5
E6
330
1E
100
AcDbEntity
  8
0
100
AcDbBlockEnd
  0
BLOCK
  5
E7
330
1F
100
AcDbEntity
  8
0
100
AcDbBlockBegin
  2
JT230
 70
     0
 10
0.0
 20
0.0
 30
0.0
  3
JT230
  1

  0
TEXT
  5
E8
330
1F
100
AcDbEntity
  8
0
100
AcDbText
 10
0.1009075090757323
 20
0.9097142857142856
 30
0.0
 40
0.08
  1
DEVELOP 100 PSI NOZZLE PRESSURE
 50
270.0
 41
0.8
 72
     1
 11
0.1009075090757321
 21
0.0
 31
0.0
100
AcDbText
  0
TEXT
  5
E9
330
1F
100
AcDbEntity
  8
0
100
AcDbText
 10
0.2380503662185875
 20
0.8807619047619047
 30
0.0
 40
0.08
  1
GALLONS PER MINUTE REQUIRED TO
 50
270.0
 41
0.8
 72
     1
 11
0.2380503662185873
 21
0.0
 31
0.0
100
AcDbText
  0
LINE
  5
EA
330
1F
100
AcDbEntity
  8
PART
100
AcDbLine
 10
1.450000000000002
 20
0.0
 30
0.0
 11
1.450000000000002
 21
-1.539999999999999
 31
0.0
  0
LINE
  5
EB
330
1F
100
AcDbEntity
  8
PART
100
AcDbLine
 10
0.0
 20
-1.375
 30
0.0
 11
0.0
 21
1.375
 31
0.0
  0
LINE
  5
EC
330
1F
100
AcDbEntity
  8
PART
100
AcDbLine
 10
1.39
 20
-0.3343356693656823
 30
0.0
 11
1.39
 21
0.0004917992964302
 31
0.0
  0
ARC
  5
ED
330
1F
100
AcDbEntity
  8
PART
100
AcDbCircle
 10
0.8950000000000031
 20
0.0
 30
0.0
 40
0.25
100
AcDbArc
 50
180.0
 51
0.0
  0
LINE
  5
EE
330
1F
100
AcDbEntity
  8
PART
100
AcDbLine
 10
0.509999999999998
 20
-0.3348274686621124
 30
0.0
 11
0.509999999999998
 21
0.0
 31
0.0
  0
INSERT
  5
EF
330
1F
100
AcDbEntity
  8
PART
100
AcDbBlockReference
  2
*X4
 10
0.0
 20
0.0
 30
0.0
 41
-1.0
 50
180.0
  0
INSERT
  5
F0
330
1F
100
AcDbEntity
  8
PART
100
AcDbBlockReference
  2
*X5
 10
0.0
 20
0.0
 30
0.0
 41
-1.0
 50
180.0
  0
LINE
  5
F1
330
1F
100
AcDbEntity
  8
PART
100
AcDbLine
 10
0.4500000000000029
 20
0.0
 30
0.0
 11
0.4500000000000029
 21
-1.539999999999999
 31
0.0
  0
ARC
  5
F2
330
1F
100
AcDbEntity
  8
PART
100
AcDbCircle
 10
0.8950000000000031
 20
0.0
 30
0.0
 40
0.25
100
AcDbArc
 50
180.0
 51
0.0
  0
LINE
  5
F3
330
1F
100
AcDbEntity
  8
PART
100
AcDbLine
 10
0.4500000000000029
 20
-0.3943356693656827
 30
0.0
 11
1.450000000000002
 21
-0.3943356693656827
 31
0.0
  0
LINE
  5
F4
330
1F
100
AcDbEntity
  8
PART
100
AcDbLine
 10
0.4500000000000029
 20
-0.4135998328908955
 30
0.0
 11
1.450000000000002
 21
-0.4135998328908955
 31
0.0
  0
LINE
  5
F5
330
1F
100
AcDbEntity
  8
PART
100
AcDbLine
 10
0.4500000000000029
 20
-0.645899740802367
 30
0.0
 11
1.450000000000002
 21
-0.645899740802367
 31
0.0
  0
LINE
  5
F6
330
1F
100
AcDbEntity
  8
PART
100
AcDbLine
 10
0.4500000000000029
 20
-0.672518570830178
 30
0.0
 11
1.450000000000002
 21
-0.672518570830178
 31
0.0
  0
LINE
  5
F7
330
1F
100
AcDbEntity
  8
PART
100
AcDbLine
 10
0.4500000000000029
 20
-1.327040006266813
 30
0.0
 11
1.450000000000002
 21
-1.327040006266813
 31
0.0
  0
LINE
  5
F8
330
1F
100
AcDbEntity
  8
PART
100
AcDbLine
 10
0.4500000000000029
 20
-1.345420553181435
 30
0.0
 11
1.450000000000002
 21
-1.345420553181433
 31
0.0
  0
ARC
  5
F9
330
1F
100
AcDbEntity
  8
PART
100
AcDbCircle
 10
0.509999999999998
 20
-0.3948274686621129
 30
0.0
 40
0.06
100
AcDbArc
 50
90.0
 51
179.9999999999999
  0
ARC
  5
FA
330
1F
100
AcDbEntity
  8
PART
100
AcDbCircle
 10
0.509999999999998
 20
-1.264613615723401
 30
0.0
 40
0.06
100
AcDbArc
 50
180.0
 51
270.0
  0
ARC
  5
FB
330
1F
100
AcDbEntity
  8
PART
100
AcDbCircle
 10
0.509999999999998
 20
-0.83126278857533
 30
0.0
 40
0.06
100
AcDbArc
 50
180.0
 51
270.0
  0
ARC
  5
FC
330
1F
100
AcDbEntity
  8
PART
100
AcDbCircle
 10
0.509999999999998
 20
-1.498917990886836
 30
0.0
 40
0.06
100
AcDbArc
 50
180.0
 51
270.0
  0
LINE
  5
FD
330
1F
100
AcDbEntity
  8
PART
100
AcDbLine
 10
0.0
 20
-1.375
 30
0.0
 11
0.4500000000000029
 21
-1.375
 31
0.0
  0
LINE
  5
FE
330
1F
100
AcDbEntity
  8
PART
100
AcDbLine
 10
1.39
 20
-1.324613615723402
 30
0.0
 11
1.39
 21
-0.8912627885753323
 31
0.0
  0
LINE
  5
FF
330
1F
100
AcDbEntity
  8
PART
100
AcDbLine
 10
0.509999999999998
 20
-1.324613615723402
 30
0.0
 11
0.509999999999998
 21
-0.8912627885753305
 31
0.0
  0
INSERT
  5
100
330
1F
100
AcDbEntity
  8
PART
100
AcDbBlockReference
  2
*X8
 10
1.899999999999998
 20
9.0
 30
0.0
 50
180.0
  0
INSERT
  5
101
330
1F
100
AcDbEntity
  8
PART
100
AcDbBlockReference
  2
*X8
 10
0.0
 20
9.0
 30
0.0
 41
-1.0
 50
180.0
  0
LINE
  5
102
330
1F
100
AcDbEntity
  8
PART
100
AcDbLine
 10
0.509999999999998
 20
-1.324613615723402
 30
0.0
 11
1.39
 21
-1.324613615723402
 31
0.0
  0
LINE
  5
103
330
1F
100
AcDbEntity
  8
PART
100
AcDbLine
 10
0.509999999999998
 20
-1.558917990886836
 30
0.0
 11
1.39
 21
-1.558917990886836
 31
0.0
  0
ARC
  5
104
330
1F
100
AcDbEntity
  8
PART
100
AcDbCircle
 10
1.39
 20
-1.498917990886834
 30
0.0
 40
0.06
100
AcDbArc
 50
270.0
 51
0.0
  0
ARC
  5
105
330
1F
100
AcDbEntity
  8
PART
100
AcDbCircle
 10
1.39
 20
-1.264613615723401
 30
0.0
 40
0.06
100
AcDbArc
 50
270.0
 51
0.0
  0
LINE
  5
106
330
1F
100
AcDbEntity
  8
PART
100
AcDbLine
 10
0.509999999999998
 20
-0.8912627885753305
 30
0.0
 11
1.39
 21
-0.8912627885753323
 31
0.0
  0
LINE
  5
107
330
1F
100
AcDbEntity
  8
PART
100
AcDbLine
 10
0.509999999999998
 20
-0.3348274686621124
 30
0.0
 11
1.39
 21
-0.3348274686621124
 31
0.0
  0
ARC
  5
108
330
1F
100
AcDbEntity
  8
PART
100
AcDbCircle
 10
1.39
 20
-0.83126278857533
 30
0.0
 40
0.06
100
AcDbArc
 50
270.0
 51
0.0
  0
ARC
  5
109
330
1F
100
AcDbEntity
  8
PART
100
AcDbCircle
 10
1.39
 20
-0.3943356693656827
 30
0.0
 40
0.06
100
AcDbArc
 50
0.0
 51
89.99999999999994
  0
ARC
  5
10A
330
1F
100
AcDbEntity
  8
PART
100
AcDbCircle
 10
0.509999999999998
 20
1.498917990886836
 30
0.0
 40
0.06
100
AcDbArc
 50
90.0
 51
180.0
  0
ARC
  5
10B
330
1F
100
AcDbEntity
  8
PART
100
AcDbCircle
 10
0.509999999999998
 20
1.539999999999999
 30
0.0
 40
0.06
100
AcDbArc
 50
90.0
 51
180.0
  0
ARC
  5
10C
330
1F
100
AcDbEntity
  8
PART
100
AcDbCircle
 10
0.509999999999998
 20
0.83126278857533
 30
0.0
 40
0.06
100
AcDbArc
 50
90.0
 51
180.0
  0
ARC
  5
10D
330
1F
100
AcDbEntity
  8
PART
100
AcDbCircle
 10
0.509999999999998
 20
1.264613615723401
 30
0.0
 40
0.06
100
AcDbArc
 50
90.0
 51
180.0
  0
ARC
  5
10E
330
1F
100
AcDbEntity
  8
PART
100
AcDbCircle
 10
0.509999999999998
 20
0.3948274686621129
 30
0.0
 40
0.06
100
AcDbArc
 50
180.0
 51
270.0
  0
LINE
  5
10F
330
1F
100
AcDbEntity
  8
PART
100
AcDbLine
 10
0.4500000000000029
 20
1.345420553181435
 30
0.0
 11
1.450000000000002
 21
1.345420553181433
 31
0.0
  0
LINE
  5
110
330
1F
100
AcDbEntity
  8
PART
100
AcDbLine
 10
0.4500000000000029
 20
1.327040006266813
 30
0.0
 11
1.450000000000002
 21
1.327040006266813
 31
0.0
  0
LINE
  5
111
330
1F
100
AcDbEntity
  8
PART
100
AcDbLine
 10
0.4500000000000029
 20
0.672518570830178
 30
0.0
 11
1.450000000000002
 21
0.672518570830178
 31
0.0
  0
LINE
  5
112
330
1F
100
AcDbEntity
  8
PART
100
AcDbLine
 10
0.4500000000000029
 20
0.645899740802367
 30
0.0
 11
1.450000000000002
 21
0.645899740802367
 31
0.0
  0
LINE
  5
113
330
1F
100
AcDbEntity
  8
PART
100
AcDbLine
 10
0.4500000000000029
 20
0.4135998328908955
 30
0.0
 11
1.450000000000002
 21
0.4135998328908955
 31
0.0
  0
LINE
  5
114
330
1F
100
AcDbEntity
  8
PART
100
AcDbLine
 10
0.4500000000000029
 20
0.3943356693656827
 30
0.0
 11
1.450000000000002
 21
0.3943356693656827
 31
0.0
  0
LINE
  5
115
330
1F
100
AcDbEntity
  8
CENTER
100
AcDbLine
 10
-0.2684012999001268
 20
0.0
 30
0.0
 11
1.732669380157112
 21
0.0
 31
0.0
  0
LINE
  5
116
330
1F
100
AcDbEntity
  8
PART
100
AcDbLine
 10
0.4500000000000029
 20
0.0
 30
0.0
 11
0.4500000000000029
 21
1.539999999999999
 31
0.0
  0
TEXT
  5
117
330
1F
100
AcDbEntity
  8
0
100
AcDbText
 10
0.0914665505227745
 20
1.350830142033512
 30
0.0
 40
0.25
  1
FLUSH
 50
270.0
 41
0.1761422425291566
 72
     5
 11
0.0914665505227745
 21
1.160009379293593
 31
0.0
100
AcDbText
  0
LINE
  5
118
330
1F
100
AcDbEntity
  8
PART
100
AcDbLine
 10
0.0
 20
1.375
 30
0.0
 11
0.4500000000000029
 21
1.375
 31
0.0
  0
LINE
  5
119
330
1F
100
AcDbEntity
  8
PART
100
AcDbLine
 10
1.450000000000002
 20
0.0
 30
0.0
 11
1.450000000000002
 21
1.539999999999999
 31
0.0
  0
INSERT
  5
11A
330
1F
100
AcDbEntity
  8
PART
100
AcDbBlockReference
  2
*X5
 10
0.0
 20
0.0
 30
0.0
  0
INSERT
  5
11B
330
1F
100
AcDbEntity
  8
PART
100
AcDbBlockReference
  2
*X4
 10
0.0
 20
0.0
 30
0.0
  0
LINE
  5
11C
330
1F
100
AcDbEntity
  8
PART
100
AcDbLine
 10
0.509999999999998
 20
0.3348274686621124
 30
0.0
 11
1.39
 21
0.3348274686621124
 31
0.0
  0
LINE
  5
11D
330
1F
100
AcDbEntity
  8
PART
100
AcDbLine
 10
0.509999999999998
 20
0.3348274686621124
 30
0.0
 11
0.509999999999998
 21
0.0
 31
0.0
  0
CIRCLE
  5
11E
330
1F
100
AcDbEntity
  8
PART
100
AcDbCircle
 10
0.8950000000000031
 20
0.0
 30
0.0
 40
0.159
  0
ARC
  5
11F
330
1F
100
AcDbEntity
  8
PART
100
AcDbCircle
 10
0.8950000000000031
 20
0.0
 30
0.0
 40
0.25
100
AcDbArc
 50
0.0
 51
180.0
  0
LINE
  5
120
330
1F
100
AcDbEntity
  8
PART
100
AcDbLine
 10
0.6619416815624391
 20
-0.0904644693073245
 30
0.0
 11
0.757355921678041
 21
-0.0795933898191148
 31
0.0
  0
LINE
  5
121
330
1F
100
AcDbEntity
  8
PART
100
AcDbLine
 10
0.6475648734139128
 20
0.0357191563636015
 30
0.0
 11
0.7429791135295148
 21
0.0465902358518129
 31
0.0
  0
LINE
  5
122
330
1F
100
AcDbEntity
  8
PART
100
AcDbLine
 10
1.047020886470484
 20
-0.0465902358518129
 30
0.0
 11
1.142435126586086
 21
-0.0357191563636015
 31
0.0
  0
LINE
  5
123
330
1F
100
AcDbEntity
  8
PART
100
AcDbLine
 10
1.032644078321965
 20
0.0795933898191148
 30
0.0
 11
1.12805831843756
 21
0.0904644693073245
 31
0.0
  0
LINE
  5
124
330
1F
100
AcDbEntity
  8
PART
100
AcDbLine
 10
1.39
 20
0.3343356693656823
 30
0.0
 11
1.39
 21
-0.0004917992964302
 31
0.0
  0
LINE
  5
125
330
1F
100
AcDbEntity
  8
PART
100
AcDbLine
 10
1.3125
 20
0.0
 30
0.0
 11
1.39
 21
-0.0447446458621954
 31
0.0
  0
LINE
  5
126
330
1F
100
AcDbEntity
  8
PART
100
AcDbLine
 10
1.3125
 20
0.0
 30
0.0
 11
1.39
 21
0.0447446458621954
 31
0.0
  0
ARC
  5
127
330
1F
100
AcDbEntity
  8
PART
100
AcDbCircle
 10
1.39
 20
0.3943356693656827
 30
0.0
 40
0.06
100
AcDbArc
 50
270.0000000000001
 51
0.0
  0
INSERT
  5
128
330
1F
100
AcDbEntity
  8
PART
100
AcDbBlockReference
  2
*X7
 10
0.0
 20
0.0499999999999989
 30
0.0
  0
INSERT
  5
129
330
1F
100
AcDbEntity
  8
PART
100
AcDbBlockReference
  2
*X6
 10
0.0
 20
0.0499999999999989
 30
0.0
  0
LINE
  5
12A
330
1F
100
AcDbEntity
  8
PART
100
AcDbLine
 10
0.509999999999998
 20
1.558917990886836
 30
0.0
 11
1.39
 21
1.558917990886836
 31
0.0
  0
LINE
  5
12B
330
1F
100
AcDbEntity
  8
PART
100
AcDbLine
 10
0.509999999999998
 20
1.324613615723402
 30
0.0
 11
1.39
 21
1.324613615723402
 31
0.0
  0
LINE
  5
12C
330
1F
100
AcDbEntity
  8
PART
100
AcDbLine
 10
0.509999999999998
 20
0.8912627885753305
 30
0.0
 11
1.39
 21
0.8912627885753323
 31
0.0
  0
LINE
  5
12D
330
1F
100
AcDbEntity
  8
PART
100
AcDbLine
 10
0.509999999999998
 20
1.599999999999999
 30
0.0
 11
1.39
 21
1.599999999999999
 31
0.0
  0
INSERT
  5
12E
330
1F
100
AcDbEntity
  8
PART
100
AcDbBlockReference
  2
*X8
 10
0.0
 20
-9.0
 30
0.0
  0
INSERT
  5
12F
330
1F
100
AcDbEntity
  8
PART
100
AcDbBlockReference
  2
*X8
 10
1.899999999999998
 20
-9.0
 30
0.0
 41
-1.0
  0
LINE
  5
130
330
1F
100
AcDbEntity
  8
PART
100
AcDbLine
 10
0.509999999999998
 20
1.324613615723402
 30
0.0
 11
0.509999999999998
 21
0.8912627885753305
 31
0.0
  0
LINE
  5
131
330
1F
100
AcDbEntity
  8
PART
100
AcDbLine
 10
0.509999999999998
 20
1.599999999999999
 30
0.0
 11
0.509999999999998
 21
1.558917990886834
 31
0.0
  0
LINE
  5
132
330
1F
100
AcDbEntity
  8
PART
100
AcDbLine
 10
1.39
 20
1.324613615723402
 30
0.0
 11
1.39
 21
0.8912627885753323
 31
0.0
  0
ARC
  5
133
330
1F
100
AcDbEntity
  8
PART
100
AcDbCircle
 10
1.39
 20
1.264613615723401
 30
0.0
 40
0.06
100
AcDbArc
 50
0.0000000000000254
 51
90.00000000000003
  0
ARC
  5
134
330
1F
100
AcDbEntity
  8
PART
100
AcDbCircle
 10
1.39
 20
0.83126278857533
 30
0.0
 40
0.06
100
AcDbArc
 50
0.0
 51
90.0
  0
LINE
  5
135
330
1F
100
AcDbEntity
  8
PART
100
AcDbLine
 10
1.39
 20
1.599999999999999
 30
0.0
 11
1.39
 21
1.558917990886834
 31
0.0
  0
ARC
  5
136
330
1F
100
AcDbEntity
  8
PART
100
AcDbCircle
 10
1.39
 20
1.498917990886834
 30
0.0
 40
0.06
100
AcDbArc
 50
0.0000000000000254
 51
90.00000000000003
  0
ARC
  5
137
330
1F
100
AcDbEntity
  8
PART
100
AcDbCircle
 10
1.39
 20
1.539999999999999
 30
0.0
 40
0.06
100
AcDbArc
 50
0.0
 51
90.0
  0
ARC
  5
138
330
1F
100
AcDbEntity
  8
PART
100
AcDbCircle
 10
0.509999999999998
 20
-1.539999999999999
 30
0.0
 40
0.06
100
AcDbArc
 50
180.0
 51
270.0
  0
LINE
  5
139
330
1F
100
AcDbEntity
  8
PART
100
AcDbLine
 10
0.509999999999998
 20
-1.599999999999999
 30
0.0
 11
1.39
 21
-1.599999999999999
 31
0.0
  0
INSERT
  5
13A
330
1F
100
AcDbEntity
  8
PART
100
AcDbBlockReference
  2
*X6
 10
0.0
 20
-0.0499999999999989
 30
0.0
 41
-1.0
 50
180.0
  0
INSERT
  5
13B
330
1F
100
AcDbEntity
  8
PART
100
AcDbBlockReference
  2
*X7
 10
0.0
 20
-0.0499999999999989
 30
0.0
 41
-1.0
 50
180.0
  0
LINE
  5
13C
330
1F
100
AcDbEntity
  8
PART
100
AcDbLine
 10
0.509999999999998
 20
-1.599999999999999
 30
0.0
 11
0.509999999999998
 21
-1.558917990886834
 31
0.0
  0
ARC
  5
13D
330
1F
100
AcDbEntity
  8
PART
100
AcDbCircle
 10
1.39
 20
-1.539999999999999
 30
0.0
 40
0.06
100
AcDbArc
 50
270.0
 51
0.0
  0
LINE
  5
13E
330
1F
100
AcDbEntity
  8
PART
100
AcDbLine
 10
1.39
 20
-1.599999999999999
 30
0.0
 11
1.39
 21
-1.558917990886834
 31
0.0
  0
ENDBLK
  5
13F
330
1F
100
AcDbEntity
  8
0
100
AcDbBlockEnd
  0
BLOCK
  5
140
330
20
100
AcDbEntity
  8
0
100
AcDbBlockBegin
  2
*X4
 70
     1
 10
0.0
 20
0.0
 30
0.0
  3
*X4
  1

  0
LINE
  5
141
330
20
100
AcDbEntity
  8
0
 62
     0
100
AcDbLine
 10
0.5625
 20
0.0
 30
0.0
 11
0.6501786700323721
 21
0.0506213037453784
 31
0.0
  0
LINE
  5
142
330
20
100
AcDbEntity
  8
0
 62
     0
100
AcDbLine
 10
0.9735713299676282
 20
0.2373321430129476
 30
0.0
 11
1.142438187492454
 21
0.3348274686621123
 31
0.0
  0
LINE
  5
143
330
20
100
AcDbEntity
  8
0
 62
     0
100
AcDbLine
 10
0.5100000000000002
 20
0.0779422863405996
 30
0.0
 11
0.9549381874924545
 21
0.3348274686621123
 31
0.0
  0
LINE
  5
144
330
20
100
AcDbEntity
  8
0
 62
     0
100
AcDbLine
 10
0.5100000000000002
 20
0.1861954618136544
 30
0.0
 11
0.7674381874924547
 21
0.3348274686621123
 31
0.0
  0
LINE
  5
145
330
20
100
AcDbEntity
  8
0
 62
     0
100
AcDbLine
 10
0.5100000000000002
 20
0.2944486372867092
 30
0.0
 11
0.5799381874924546
 21
0.3348274686621123
 31
0.0
  0
LINE
  5
146
330
20
100
AcDbEntity
  8
0
 62
     0
100
AcDbLine
 10
1.065952346753119
 20
0.1824151724490077
 30
0.0
 11
1.329938187492454
 21
0.3348274686621124
 31
0.0
  0
LINE
  5
147
330
20
100
AcDbEntity
  8
0
 62
     0
100
AcDbLine
 10
1.121347803905845
 20
0.1061445790749617
 30
0.0
 11
1.389999999999999
 21
0.2612509968083057
 31
0.0
  0
LINE
  5
148
330
20
100
AcDbEntity
  8
0
 62
     0
100
AcDbLine
 10
1.144740084269644
 20
0.0113969429669051
 30
0.0
 11
1.389999999999999
 21
0.1529978213352509
 31
0.0
  0
LINE
  5
149
330
20
100
AcDbEntity
  8
0
 62
     0
100
AcDbLine
 10
1.3125
 20
0.0
 30
0.0
 11
1.39
 21
0.0447446458621961
 31
0.0
  0
ENDBLK
  5
14A
330
20
100
AcDbEntity
  8
0
100
AcDbBlockEnd
  0
BLOCK
  5
14B
330
21
100
AcDbEntity
  8
0
100
AcDbBlockBegin
  2
*X5
 70
     1
 10
0.0
 20
0.0
 30
0.0
  3
*X5
  1

  0
LINE
  5
14C
330
21
100
AcDbEntity
  8
0
 62
     0
100
AcDbLine
 10
0.5100000000000003
 20
0.2515744795139084
 30
0.0
 11
0.7342683567878491
 21
0.1914819544247493
 31
0.0
  0
LINE
  5
14D
330
21
100
AcDbEntity
  8
0
 62
     0
100
AcDbLine
 10
1.129938663426114
 20
0.0854624152920514
 30
0.0
 11
1.39
 21
0.0157791901745202
 31
0.0
  0
LINE
  5
14E
330
21
100
AcDbEntity
  8
0
 62
     0
100
AcDbLine
 10
0.5100000000000003
 20
0.1545173376004631
 30
0.0
 11
0.6711595051566235
 21
0.1113347783411465
 31
0.0
  0
LINE
  5
14F
330
21
100
AcDbEntity
  8
0
 62
     0
100
AcDbLine
 10
0.5100000000000002
 20
0.0574601956870178
 30
0.0
 11
0.6458877130958653
 21
0.0210491927016686
 31
0.0
  0
LINE
  5
150
330
21
100
AcDbEntity
  8
0
 62
     0
100
AcDbLine
 10
0.5615177994753235
 20
0.3348274686621123
 30
0.0
 11
0.8798198219490874
 21
0.2495386987910741
 31
0.0
  0
LINE
  5
151
330
21
100
AcDbEntity
  8
0
 62
     0
100
AcDbLine
 10
1.032915769221598
 20
0.208516763354927
 30
0.0
 11
1.39
 21
0.1128363320879655
 31
0.0
  0
LINE
  5
152
330
21
100
AcDbEntity
  8
0
 62
     0
100
AcDbLine
 10
0.9237399843337234
 20
0.3348274686621123
 30
0.0
 11
1.389999999999999
 21
0.2098934740014108
 31
0.0
  0
LINE
  5
153
330
21
100
AcDbEntity
  8
0
 62
     0
100
AcDbLine
 10
1.285962169192123
 20
0.3348274686621123
 30
0.0
 11
1.389999999999999
 21
0.3069506159148561
 31
0.0
  0
ENDBLK
  5
154
330
21
100
AcDbEntity
  8
0
100
AcDbBlockEnd
  0
BLOCK
  5
155
330
22
100
AcDbEntity
  8
0
100
AcDbBlockBegin
  2
*X6
 70
     1
 10
0.0
 20
0.0
 30
0.0
  3
*X6
  1

  0
LINE
  5
156
330
22
100
AcDbEntity
  8
0
 62
     0
100
AcDbLine
 10
0.9260226246707539
 20
1.508917990886837
 30
0.0
 11
0.9971787517317604
 21
1.55
 31
0.0
  0
LINE
  5
157
330
22
100
AcDbEntity
  8
0
 62
     0
100
AcDbLine
 10
0.8635226246707539
 20
1.508917990886837
 30
0.0
 11
0.9346787517317604
 21
1.55
 31
0.0
  0
LINE
  5
158
330
22
100
AcDbEntity
  8
0
 62
     0
100
AcDbLine
 10
0.8010226246707539
 20
1.508917990886837
 30
0.0
 11
0.8721787517317604
 21
1.55
 31
0.0
  0
LINE
  5
159
330
22
100
AcDbEntity
  8
0
 62
     0
100
AcDbLine
 10
0.738522624670754
 20
1.508917990886837
 30
0.0
 11
0.8096787517317604
 21
1.55
 31
0.0
  0
LINE
  5
15A
330
22
100
AcDbEntity
  8
0
 62
     0
100
AcDbLine
 10
0.676022624670754
 20
1.508917990886837
 30
0.0
 11
0.7471787517317605
 21
1.55
 31
0.0
  0
LINE
  5
15B
330
22
100
AcDbEntity
  8
0
 62
     0
100
AcDbLine
 10
0.613522624670754
 20
1.508917990886837
 30
0.0
 11
0.6846787517317605
 21
1.55
 31
0.0
  0
LINE
  5
15C
330
22
100
AcDbEntity
  8
0
 62
     0
100
AcDbLine
 10
0.5510226246707538
 20
1.508917990886837
 30
0.0
 11
0.6221787517317603
 21
1.55
 31
0.0
  0
LINE
  5
15D
330
22
100
AcDbEntity
  8
0
 62
     0
100
AcDbLine
 10
0.5100000000000003
 20
1.521317959314664
 30
0.0
 11
0.5596787517317603
 21
1.55
 31
0.0
  0
LINE
  5
15E
330
22
100
AcDbEntity
  8
0
 62
     0
100
AcDbLine
 10
0.9885226246707539
 20
1.508917990886837
 30
0.0
 11
1.05967875173176
 21
1.55
 31
0.0
  0
LINE
  5
15F
330
22
100
AcDbEntity
  8
0
 62
     0
100
AcDbLine
 10
1.051022624670753
 20
1.508917990886837
 30
0.0
 11
1.12217875173176
 21
1.55
 31
0.0
  0
LINE
  5
160
330
22
100
AcDbEntity
  8
0
 62
     0
100
AcDbLine
 10
1.113522624670753
 20
1.508917990886837
 30
0.0
 11
1.18467875173176
 21
1.55
 31
0.0
  0
LINE
  5
161
330
22
100
AcDbEntity
  8
0
 62
     0
100
AcDbLine
 10
1.176022624670753
 20
1.508917990886837
 30
0.0
 11
1.24717875173176
 21
1.55
 31
0.0
  0
LINE
  5
162
330
22
100
AcDbEntity
  8
0
 62
     0
100
AcDbLine
 10
1.238522624670753
 20
1.508917990886837
 30
0.0
 11
1.30967875173176
 21
1.55
 31
0.0
  0
LINE
  5
163
330
22
100
AcDbEntity
  8
0
 62
     0
100
AcDbLine
 10
1.301022624670753
 20
1.508917990886837
 30
0.0
 11
1.37217875173176
 21
1.55
 31
0.0
  0
LINE
  5
164
330
22
100
AcDbEntity
  8
0
 62
     0
100
AcDbLine
 10
1.363522624670753
 20
1.508917990886837
 30
0.0
 11
1.39
 21
1.524204710660612
 31
0.0
  0
ENDBLK
  5
165
330
22
100
AcDbEntity
  8
0
100
AcDbBlockEnd
  0
BLOCK
  5
166
330
23
100
AcDbEntity
  8
0
100
AcDbBlockBegin
  2
*X7
 70
     1
 10
0.0
 20
0.0
 30
0.0
  3
*X7
  1

  0
LINE
  5
167
330
23
100
AcDbEntity
  8
0
 62
     0
100
AcDbLine
 10
0.8560613040055821
 20
1.55
 30
0.0
 11
1.009381449292915
 21
1.508917990886836
 31
0.0
  0
LINE
  5
168
330
23
100
AcDbEntity
  8
0
 62
     0
100
AcDbLine
 10
0.7353205757194488
 20
1.55
 30
0.0
 11
0.8886407210067817
 21
1.508917990886836
 31
0.0
  0
LINE
  5
169
330
23
100
AcDbEntity
  8
0
 62
     0
100
AcDbLine
 10
0.6145798474333154
 20
1.55
 30
0.0
 11
0.7678999927206485
 21
1.508917990886836
 31
0.0
  0
LINE
  5
16A
330
23
100
AcDbEntity
  8
0
 62
     0
100
AcDbLine
 10
0.5100000000000002
 20
1.545669705026512
 30
0.0
 11
0.647159264434515
 21
1.508917990886836
 31
0.0
  0
LINE
  5
16B
330
23
100
AcDbEntity
  8
0
 62
     0
100
AcDbLine
 10
0.5100000000000002
 20
1.513317324388697
 30
0.0
 11
0.5264185361483817
 21
1.508917990886836
 31
0.0
  0
LINE
  5
16C
330
23
100
AcDbEntity
  8
0
 62
     0
100
AcDbLine
 10
0.9768020322917156
 20
1.55
 30
0.0
 11
1.130122177579048
 21
1.508917990886836
 31
0.0
  0
LINE
  5
16D
330
23
100
AcDbEntity
  8
0
 62
     0
100
AcDbLine
 10
1.097542760577848
 20
1.55
 30
0.0
 11
1.250862905865182
 21
1.508917990886836
 31
0.0
  0
LINE
  5
16E
330
23
100
AcDbEntity
  8
0
 62
     0
100
AcDbLine
 10
1.218283488863982
 20
1.55
 30
0.0
 11
1.371603634151315
 21
1.508917990886836
 31
0.0
  0
LINE
  5
16F
330
23
100
AcDbEntity
  8
0
 62
     0
100
AcDbLine
 10
1.339024217150115
 20
1.55
 30
0.0
 11
1.39
 21
1.536341080151829
 31
0.0
  0
ENDBLK
  5
170
330
23
100
AcDbEntity
  8
0
100
AcDbBlockEnd
  0
BLOCK
  5
171
330
24
100
AcDbEntity
  8
0
100
AcDbBlockBegin
  2
*X8
 70
     1
 10
0.0
 20
0.0
 30
0.0
  3
*X8
  1

  0
LINE
  5
172
330
24
100
AcDbEntity
  8
0
 62
     0
100
AcDbLine
 10
0.6321697008278874
 20
9.891262788575332
 30
0.0
 11
1.382755350950344
 21
10.3246136157234
 31
0.0
  0
LINE
  5
173
330
24
100
AcDbEntity
  8
0
 62
     0
100
AcDbLine
 10
0.5100000000000004
 20
9.892896862564239
 30
0.0
 11
1.257755350950344
 21
10.3246136157234
 31
0.0
  0
LINE
  5
174
330
24
100
AcDbEntity
  8
0
 62
     0
100
AcDbLine
 10
0.5100000000000004
 20
9.965065646212941
 30
0.0
 11
1.132755350950344
 21
10.3246136157234
 31
0.0
  0
LINE
  5
175
330
24
100
AcDbEntity
  8
0
 62
     0
100
AcDbLine
 10
0.5100000000000004
 20
10.03723442986164
 30
0.0
 11
1.007755350950344
 21
10.3246136157234
 31
0.0
  0
LINE
  5
176
330
24
100
AcDbEntity
  8
0
 62
     0
100
AcDbLine
 10
0.5100000000000004
 20
10.10940321351035
 30
0.0
 11
0.8827553509503449
 21
10.3246136157234
 31
0.0
  0
LINE
  5
177
330
24
100
AcDbEntity
  8
0
 62
     0
100
AcDbLine
 10
0.5100000000000004
 20
10.18157199715905
 30
0.0
 11
0.7577553509503449
 21
10.3246136157234
 31
0.0
  0
LINE
  5
178
330
24
100
AcDbEntity
  8
0
 62
     0
100
AcDbLine
 10
0.5100000000000004
 20
10.25374078080775
 30
0.0
 11
0.6327553509503449
 21
10.3246136157234
 31
0.0
  0
LINE
  5
179
330
24
100
AcDbEntity
  8
0
 62
     0
100
AcDbLine
 10
0.7571697008278879
 20
9.891262788575332
 30
0.0
 11
1.39
 21
10.2566275321537
 31
0.0
  0
LINE
  5
17A
330
24
100
AcDbEntity
  8
0
 62
     0
100
AcDbLine
 10
0.8821697008278881
 20
9.891262788575332
 30
0.0
 11
1.39
 21
10.184458748505
 31
0.0
  0
LINE
  5
17B
330
24
100
AcDbEntity
  8
0
 62
     0
100
AcDbLine
 10
1.007169700827888
 20
9.891262788575332
 30
0.0
 11
1.39
 21
10.11228996485629
 31
0.0
  0
LINE
  5
17C
330
24
100
AcDbEntity
  8
0
 62
     0
100
AcDbLine
 10
1.132169700827891
 20
9.891262788575332
 30
0.0
 11
1.39
 21
10.04012118120759
 31
0.0
  0
LINE
  5
17D
330
24
100
AcDbEntity
  8
0
 62
     0
100
AcDbLine
 10
1.257169700827891
 20
9.891262788575334
 30
0.0
 11
1.39
 21
9.967952397558887
 31
0.0
  0
LINE
  5
17E
330
24
100
AcDbEntity
  8
0
 62
     0
100
AcDbLine
 10
1.382169700827891
 20
9.891262788575334
 30
0.0
 11
1.39
 21
9.895783613910184
 31
0.0
  0
ENDBLK
  5
17F
330
24
100
AcDbEntity
  8
0
100
AcDbBlockEnd
  0
BLOCK
  5
180
330
25
100
AcDbEntity
  8
0
100
AcDbBlockBegin
  2
JTTB
 70
     0
 10
0.0
 20
0.0
 30
0.0
  3
JTTB
  1

  0
INSERT
  5
181
330
25
100
AcDbEntity
  8
PART
100
AcDbBlockReference
  2
TB_A
 10
-13.45738257165
 20
-3.185220501959565
 30
0.0
 41
1.5
 42
1.5
 43
1.5
  0
ENDBLK
  5
182
330
25
100
AcDbEntity
  8
0
100
AcDbBlockEnd
  0
BLOCK
  5
183
330
26
100
AcDbEntity
  8
0
100
AcDbBlockBegin
  2
JTEND
 70
     0
 10
0.0
 20
0.0
 30
0.0
  3
JTEND
  1

  0
TEXT
  5
184
330
26
100
AcDbEntity
  8
LABEL
100
AcDbText
 10
-1.360360703266884
 20
0.2275606138274475
 30
0.0
 40
0.1918429869858997
  1
250  
 50
270.0
 41
0.5305687649172621
  7
SIMPLEX
 72
     5
 11
-1.360360703266884
 21
-0.2474402372672393
 31
0.0
100
AcDbText
  0
TEXT
  5
185
330
26
100
AcDbEntity
  8
PART
100
AcDbText
 10
-1.360969386997505
 20
1.98738028860406
 30
0.0
 40
0.197
  1
125
 50
270.0
 41
0.5350000000000001
  7
SIMPLEX
 72
     1
 11
-1.360969386997505
 21
1.861910050508822
 31
0.0
100
AcDbText
  0
TEXT
  5
186
330
26
100
AcDbEntity
  8
PART
100
AcDbText
 10
-1.360969386997505
 20
1.037761841904892
 30
0.0
 40
0.197
  1
200
 50
270.0
 41
0.635
  7
SIMPLEX
 72
     1
 11
-1.360969386997505
 21
0.8769254133334642
 31
0.0
100
AcDbText
  0
TEXT
  5
187
330
26
100
AcDbEntity
  8
PART
100
AcDbText
 10
-1.360969386997505
 20
1.65586255240275
 30
0.0
 40
0.197
  1
150
 50
270.0
 41
0.75
  7
SIMPLEX
 72
     1
 11
-1.360969386997505
 21
1.479969695259893
 31
0.0
100
AcDbText
  0
TEXT
  5
188
330
26
100
AcDbEntity
  8
PART
100
AcDbText
 10
-1.360969386997505
 20
2.261412192803896
 30
0.0
 40
0.197
  1
95
 50
270.0
 41
0.5
  7
SIMPLEX
 72
     1
 11
-1.360969386997505
 21
2.181674097565801
 31
0.0
100
AcDbText
  0
TEXT
  5
189
330
26
100
AcDbEntity
  8
PART
100
AcDbText
 10
-1.352074889072384
 20
2.5
 30
0.0
 40
0.197
  1
FF
 50
270.0
 41
0.4
  7
SIMPLEX
100
AcDbText
  0
ARC
  5
18A
330
26
100
AcDbEntity
  8
BUMPER
100
AcDbCircle
 10
4.041126760599984
 20
3.015076937289031
 30
0.0
 40
0.25
100
AcDbArc
 50
90.0
 51
174.4398363951322
  0
ARC
  5
18B
330
26
100
AcDbEntity
  8
BUMPER
100
AcDbCircle
 10
4.041126760599984
 20
-0.734923062710986
 30
0.0
 40
0.25
100
AcDbArc
 50
185.5601636048677
 51
270.0
  0
LINE
  5
18C
330
26
100
AcDbEntity
  8
PART
100
AcDbLine
 10
0.8700000000000049
 20
2.522576937289024
 30
0.0
 11
0.8700000000000013
 21
-0.2424230627109765
 31
0.0
  0
LINE
  5
18D
330
26
100
AcDbEntity
  8
BUMPER
100
AcDbLine
 10
3.792303008975308
 20
0.2973830664890657
 30
0.0
 11
3.792303008975308
 21
1.019233103773955
 31
0.0
  0
LINE
  5
18E
330
26
100
AcDbEntity
  8
BUMPER
100
AcDbLine
 10
3.737060177577467
 20
0.3534382941516663
 30
0.0
 11
3.737060177577467
 21
0.9840881766438718
 31
0.0
  0
ARC
  5
18F
330
26
100
AcDbEntity
  8
BUMPER
100
AcDbCircle
 10
1.857499999999999
 20
0.3167043619171279
 30
0.0
 40
0.135
100
AcDbArc
 50
87.00159410900054
 51
267.2429265796944
  0
POLYLINE
  5
190
330
26
100
AcDbEntity
  8
BUMPER
100
AcDb2dPolyline
 66
     1
 10
0.0
 20
0.0
 30
0.0
  0
VERTEX
  5
191
330
190
100
AcDbEntity
  8
BUMPER
100
AcDbVertex
100
AcDb2dVertex
 10
1.775757684772406
 20
0.4241436187147843
 30
0.0
 42
-0.0166284414818466
  0
VERTEX
  5
192
330
190
100
AcDbEntity
  8
BUMPER
100
AcDbVertex
100
AcDb2dVertex
 10
1.793504086528178
 20
0.4090954681880162
 30
0.0
 42
-0.0754465689062767
  0
VERTEX
  5
193
330
190
100
AcDbEntity
  8
BUMPER
100
AcDbVertex
100
AcDb2dVertex
 10
1.838787746871764
 20
0.3535109569841195
 30
0.0
 42
-0.107063122092732
 70
     2
 50
300.5398675204594
  0
VERTEX
  5
194
330
190
100
AcDbEntity
  8
BUMPER
100
AcDbVertex
100
AcDb2dVertex
 10
1.859986648961656
 20
0.2894784864252289
 30
0.0
 42
-0.1496914873490885
  0
VERTEX
  5
195
330
190
100
AcDbEntity
  8
BUMPER
100
AcDbVertex
100
AcDb2dVertex
 10
1.850739620954845
 20
0.2415990343806564
 30
0.0
 42
-0.1496914873490903
  0
VERTEX
  5
196
330
190
100
AcDbEntity
  8
BUMPER
100
AcDbVertex
100
AcDb2dVertex
 10
1.8162671702457
 20
0.2071084617969339
 30
0.0
 42
-0.0378204578423562
  0
VERTEX
  5
197
330
190
100
AcDbEntity
  8
BUMPER
100
AcDbVertex
100
AcDb2dVertex
 10
1.794223646621452
 20
0.1974520952589502
 30
0.0
 42
-0.0302197568271049
 70
     2
 50
183.5441537649269
  0
SEQEND
  5
198
330
190
100
AcDbEntity
  8
BUMPER
  0
LINE
  5
199
330
26
100
AcDbEntity
  8
BUMPER
100
AcDbLine
 10
1.660000000000001
 20
-0.4199230627109687
 30
0.0
 11
1.660000000000001
 21
1.140076937289022
 31
0.0
  0
LINE
  5
19A
330
26
100
AcDbEntity
  8
BUMPER
100
AcDbLine
 10
1.677771805917343
 20
-0.4722286395350084
 30
0.0
 11
1.677771805917343
 21
1.140076937289022
 31
0.0
  0
LINE
  5
19B
330
26
100
AcDbEntity
  8
BUMPER
100
AcDbLine
 10
3.737060177577467
 20
0.3534382941516663
 30
0.0
 11
1.864561603206729
 21
0.451519545632281
 31
0.0
  0
LINE
  5
19C
330
26
100
AcDbEntity
  8
PART
100
AcDbLine
 10
1.491800000000012
 20
2.522576937289023
 30
0.0
 11
1.491800000000008
 21
-0.2424230627109773
 31
0.0
  0
LINE
  5
19D
330
26
100
AcDbEntity
  8
PART
100
AcDbLine
 10
0.7700000000000032
 20
-0.2424230627109773
 30
0.0
 11
0.7700000000000032
 21
2.522576937289023
 31
0.0
  0
LINE
  5
19E
330
26
100
AcDbEntity
  8
PART
100
AcDbLine
 10
0.7200000000000025
 20
1.140076937289026
 30
0.0
 11
0.7200000000000025
 21
-0.0674230627109767
 31
0.0
  0
LINE
  5
19F
330
26
100
AcDbEntity
  8
PART
100
AcDbLine
 10
1.660000000000001
 20
-0.2097222222222221
 30
0.0
 11
1.660000000000001
 21
1.125
 31
0.0
  0
LINE
  5
1A0
330
26
100
AcDbEntity
  8
PART
100
AcDbLine
 10
0.6400000000000006
 20
-0.0274999999999999
 30
0.0
 11
0.6400000000000006
 21
1.125
 31
0.0
  0
LINE
  5
1A1
330
26
100
AcDbEntity
  8
LABEL
100
AcDbLine
 10
1.072346888445188
 20
0.0970632460103387
 30
0.0
 11
1.491800000000009
 21
0.4430099422849465
 31
0.0
  0
ARC
  5
1A2
330
26
100
AcDbEntity
  8
BUMPER
100
AcDbCircle
 10
1.878573038008545
 20
-0.4846773440440045
 30
0.0
 40
0.15625
100
AcDbArc
 50
177.2728525935299
 51
263.6034147885283
  0
POLYLINE
  5
1A3
330
26
100
AcDbEntity
  8
BUMPER
100
AcDb2dPolyline
 66
     1
 10
0.0
 20
0.0
 30
0.0
  0
VERTEX
  5
1A4
330
1A3
100
AcDbEntity
  8
BUMPER
100
AcDbVertex
100
AcDb2dVertex
 10
1.749016838382663
 20
-0.2227417488710595
 30
0.0
 42
-0.0147750608122531
  0
VERTEX
  5
1A5
330
1A3
100
AcDbEntity
  8
BUMPER
100
AcDbVertex
100
AcDb2dVertex
 10
1.790852371543442
 20
-0.2691560739299961
 30
0.0
 42
-0.0326964228870274
  0
VERTEX
  5
1A6
330
1A3
100
AcDbEntity
  8
BUMPER
100
AcDbVertex
100
AcDb2dVertex
 10
1.834109805187052
 20
-0.3274202465948592
 30
0.0
 42
-0.0701735246354636
 70
     2
 50
302.846131871977
  0
VERTEX
  5
1A7
330
1A3
100
AcDbEntity
  8
BUMPER
100
AcDbVertex
100
AcDb2dVertex
 10
1.86190863909251
 20
-0.3875328348392779
 30
0.0
 42
-0.2727530028059542
  0
VERTEX
  5
1A8
330
1A3
100
AcDbEntity
  8
BUMPER
100
AcDbVertex
100
AcDb2dVertex
 10
1.857586955883538
 20
-0.4052300588201119
 30
0.0
 42
-0.2727530028060096
  0
VERTEX
  5
1A9
330
1A3
100
AcDbEntity
  8
BUMPER
100
AcDbVertex
100
AcDb2dVertex
 10
1.840011248150423
 20
-0.4100220500624454
 30
0.0
 42
-0.0599478487582181
  0
VERTEX
  5
1AA
330
1A3
100
AcDbEntity
  8
BUMPER
100
AcDbVertex
100
AcDb2dVertex
 10
1.77802337686141
 20
-0.3874170628029043
 30
0.0
 42
0.0048945042505762
 70
     2
 50
148.6816724464605
  0
VERTEX
  5
1AB
330
1A3
100
AcDbEntity
  8
BUMPER
100
AcDbVertex
100
AcDb2dVertex
 10
1.722500000000001
 20
-0.3521509648375956
 30
0.0
  0
SEQEND
  5
1AC
330
1A3
100
AcDbEntity
  8
BUMPER
  0
LINE
  5
1AD
330
26
100
AcDbEntity
  8
BUMPER
100
AcDbLine
 10
3.737060177577467
 20
0.0828053554690316
 30
0.0
 11
1.84983298455676
 21
0.1819222530369311
 31
0.0
  0
LINE
  5
1AE
330
26
100
AcDbEntity
  8
BUMPER
100
AcDbLine
 10
1.677771805917343
 20
-0.4722286395350084
 30
0.0
 11
3.737060177577467
 21
-0.7030905646090178
 31
0.0
  0
LINE
  5
1AF
330
26
100
AcDbEntity
  8
BUMPER
100
AcDbLine
 10
1.845341286347155
 20
-0.4106444569359047
 30
0.0
 11
3.807089999038067
 21
-0.5812499638626454
 31
0.0
  0
LINE
  5
1B0
330
26
100
AcDbEntity
  8
BUMPER
100
AcDbLine
 10
3.737060177577467
 20
-0.3776784461979536
 30
0.0
 11
1.807506341539726
 21
-0.2036529971347649
 31
0.0
  0
LINE
  5
1B1
330
26
100
AcDbEntity
  8
PART
100
AcDbLine
 10
0.7700000000000032
 20
-0.2424230627109773
 30
0.0
 11
1.491800000000008
 21
-0.2424230627109773
 31
0.0
  0
ARC
  5
1B2
330
26
100
AcDbEntity
  8
PART
100
AcDbCircle
 10
0.7700000000000032
 20
-0.1924230627109766
 30
0.0
 40
0.05
100
AcDbArc
 50
180.0
 51
270.0
  0
LINE
  5
1B3
330
26
100
AcDbEntity
  8
PART
100
AcDbLine
 10
0.7200000000000025
 20
-0.0674230627109767
 30
0.0
 11
0.7200000000000025
 21
-0.1924230627109766
 31
0.0
  0
LINE
  5
1B4
330
26
100
AcDbEntity
  8
PART
100
AcDbLine
 10
0.6400000000000006
 20
-0.0274999999999999
 30
0.0
 11
0.720000000000002
 21
-0.0275000000000003
 31
0.0
  0
LINE
  5
1B5
330
26
100
AcDbEntity
  8
BUMPER
100
AcDbLine
 10
1.722500000000001
 20
-0.3521509648375956
 30
0.0
 11
1.722500000000001
 21
-0.2813376878931679
 31
0.0
  0
LINE
  5
1B6
330
26
100
AcDbEntity
  8
PART
100
AcDbLine
 10
1.660000000000001
 20
-0.3592286182665316
 30
0.0
 11
1.491800000000008
 21
-0.2424230627109773
 31
0.0
  0
ARC
  5
1B7
330
26
100
AcDbEntity
  8
BUMPER
100
AcDbCircle
 10
1.679999999999997
 20
-0.4523531483176813
 30
0.0
 40
0.02
100
AcDbArc
 50
180.0
 51
263.6034147885276
  0
LINE
  5
1B8
330
26
100
AcDbEntity
  8
BUMPER
100
AcDbLine
 10
1.660000000000001
 20
-0.4199230627109776
 30
0.0
 11
1.660000000000001
 21
-0.4523531483176813
 31
0.0
  0
LINE
  5
1B9
330
26
100
AcDbEntity
  8
LABEL
100
AcDbLine
 10
1.072346888445188
 20
-0.0039215260383285
 30
0.0
 11
1.491800000000008
 21
-0.1131391454866613
 31
0.0
  0
LINE
  5
1BA
330
26
100
AcDbEntity
  8
LABEL
100
AcDbLine
 10
1.072346888445188
 20
-0.0286011555819688
 30
0.0
 11
1.480745498156748
 21
-0.2424230627109773
 31
0.0
  0
LINE
  5
1BB
330
26
100
AcDbEntity
  8
LABEL
100
AcDbLine
 10
1.072346888445188
 20
0.0512864877061556
 30
0.0
 11
1.491800000000009
 21
0.1605041071544884
 31
0.0
  0
LINE
  5
1BC
330
26
100
AcDbEntity
  8
LABEL
100
AcDbLine
 10
1.072346888445188
 20
0.0759661172497968
 30
0.0
 11
1.491800000000009
 21
0.2955757391512819
 31
0.0
  0
LINE
  5
1BD
330
26
100
AcDbEntity
  8
LABEL
100
AcDbLine
 10
1.072346888445188
 20
0.023682480833914
 30
0.0
 11
1.491800000000008
 21
0.023682480833914
 31
0.0
  0
LINE
  5
1BE
330
26
100
AcDbEntity
  8
LABEL
100
AcDbLine
 10
1.057410962536459
 20
-0.0934634940665671
 30
0.0
 11
1.057410962536459
 21
0.1408284557343951
 31
0.0
  0
LINE
  5
1BF
330
26
100
AcDbEntity
  8
LABEL
100
AcDbLine
 10
1.027795407084091
 20
0.1408284557343951
 30
0.0
 11
1.027795407084091
 21
-0.0934634940665671
 31
0.0
  0
LINE
  5
1C0
330
26
100
AcDbEntity
  8
LABEL
100
AcDbLine
 10
1.062346888445187
 20
0.0970632460103387
 30
0.0
 11
1.062346888445187
 21
-0.0496982843425107
 31
0.0
  0
LINE
  5
1C1
330
26
100
AcDbEntity
  8
LABEL
100
AcDbLine
 10
1.072346888445188
 20
0.0970632460103387
 30
0.0
 11
1.072346888445188
 21
-0.0496982843425107
 31
0.0
  0
LINE
  5
1C2
330
26
100
AcDbEntity
  8
PART
100
AcDbLine
 10
0.9350000000000022
 20
-0.0641770003414468
 30
0.0
 11
0.9350000000000022
 21
0.1115419620092748
 31
0.0
  0
LINE
  5
1C3
330
26
100
AcDbEntity
  8
LABEL
100
AcDbLine
 10
1.072346888445188
 20
-0.0496982843425116
 30
0.0
 11
1.306021639009065
 21
-0.2424230627109778
 31
0.0
  0
LINE
  5
1C4
330
26
100
AcDbEntity
  8
LABEL
100
AcDbLine
 10
1.027795407084091
 20
-0.0641770003414468
 30
0.0
 11
0.9350000000000022
 21
-0.0641770003414468
 31
0.0
  0
LINE
  5
1C5
330
26
100
AcDbEntity
  8
LABEL
100
AcDbLine
 10
1.027795407084091
 20
-0.0934634940665671
 30
0.0
 11
1.057410962536459
 21
-0.0934634940665671
 31
0.0
  0
LINE
  5
1C6
330
26
100
AcDbEntity
  8
LABEL
100
AcDbLine
 10
1.057410962536459
 20
0.1408284557343951
 30
0.0
 11
1.027795407084091
 21
0.1408284557343951
 31
0.0
  0
LINE
  5
1C7
330
26
100
AcDbEntity
  8
LABEL
100
AcDbLine
 10
0.9350000000000022
 20
0.1115419620092748
 30
0.0
 11
1.027795407084091
 21
0.1115419620092748
 31
0.0
  0
ARC
  5
1C8
330
26
100
AcDbEntity
  8
BUMPER
100
AcDbCircle
 10
1.800500000000004
 20
-0.2813376878931679
 30
0.0
 40
0.078
100
AcDbArc
 50
84.84646668726268
 51
180.0
  0
LINE
  5
1C9
330
26
100
AcDbEntity
  8
BUMPER
  6
Continuous
100
AcDbLine
 10
1.861165271737766
 20
-0.6399546191793624
 30
0.0
 11
3.824712994659341
 21
-0.8600832876683339
 31
0.0
  0
LINE
  5
1CA
330
26
100
AcDbEntity
  8
BUMPER
100
AcDbLine
 10
3.737060177577467
 20
-0.3776784461979536
 30
0.0
 11
3.737060177577467
 21
0.083016801366953
 31
0.0
  0
LINE
  5
1CB
330
26
100
AcDbEntity
  8
BUMPER
100
AcDbLine
 10
3.792303008975308
 20
-0.433733673861469
 30
0.0
 11
3.792303008975308
 21
0.1031175891354108
 31
0.0
  0
LINE
  5
1CC
330
26
100
AcDbEntity
  8
BUMPER
100
AcDbLine
 10
3.792303008975308
 20
-0.7591457922727268
 30
0.0
 11
3.792303008975308
 21
-0.57996399796943
 31
0.0
  0
LINE
  5
1CD
330
26
100
AcDbEntity
  8
BUMPER
100
AcDbLine
 10
3.737060177577467
 20
-0.7030905646090178
 30
0.0
 11
3.737060177577467
 21
-0.5751597479685389
 31
0.0
  0
ARC
  5
1CE
330
26
100
AcDbEntity
  8
BUMPER
100
AcDbCircle
 10
3.730097071069158
 20
-0.7652014746631606
 30
0.0
 40
0.0625
100
AcDbArc
 50
5.560163604867933
 51
83.60341478852765
  0
ARC
  5
1CF
330
26
100
AcDbEntity
  8
BUMPER
100
AcDbCircle
 10
3.730097071069158
 20
-0.4397893562520965
 30
0.0
 40
0.0625
100
AcDbArc
 50
5.560163604867933
 51
83.60341478852765
  0
ARC
  5
1D0
330
26
100
AcDbEntity
  8
BUMPER
100
AcDbCircle
 10
4.041126760599984
 20
-0.4095109442999219
 30
0.0
 40
0.25
100
AcDbArc
 50
185.5601636048677
 51
204.8809695658425
  0
POLYLINE
  5
1D1
330
26
100
AcDbEntity
  8
BUMPER
100
AcDb2dPolyline
 66
     1
 10
0.0
 20
0.0
 30
0.0
  0
VERTEX
  5
1D2
330
1D1
100
AcDbEntity
  8
BUMPER
100
AcDbVertex
100
AcDb2dVertex
 10
3.805087850455938
 20
-0.4918858973986096
 30
0.0
 42
-0.0090039863235147
  0
VERTEX
  5
1D3
330
1D1
100
AcDbEntity
  8
BUMPER
100
AcDbVertex
100
AcDb2dVertex
 10
3.811311647046542
 20
-0.506644398224732
 30
0.0
 42
-0.0744653926551327
 70
     2
 50
291.8338507473982
  0
VERTEX
  5
1D4
330
1D1
100
AcDbEntity
  8
BUMPER
100
AcDbVertex
100
AcDb2dVertex
 10
3.824486379671467
 20
-0.5623059865762619
 30
0.0
 42
-0.2631700873813878
  0
VERTEX
  5
1D5
330
1D1
100
AcDbEntity
  8
BUMPER
100
AcDbVertex
100
AcDb2dVertex
 10
3.817297616101923
 20
-0.577943133410483
 30
0.0
 42
-0.2027288591661507
  0
VERTEX
  5
1D6
330
1D1
100
AcDbEntity
  8
BUMPER
100
AcDbVertex
100
AcDb2dVertex
 10
3.804025005632764
 20
-0.5809834135393262
 30
0.0
 42
-0.0744653926551238
  0
SEQEND
  5
1D7
330
1D1
100
AcDbEntity
  8
BUMPER
  0
ARC
  5
1D8
330
26
100
AcDbEntity
  8
BUMPER
100
AcDbCircle
 10
4.041126760599984
 20
0.3216057960496981
 30
0.0
 40
0.25
100
AcDbArc
 50
185.5601636048677
 51
210.9586842954275
  0
POLYLINE
  5
1D9
330
26
100
AcDbEntity
  8
BUMPER
100
AcDb2dPolyline
 66
     1
 10
0.0
 20
0.0
 30
0.0
  0
VERTEX
  5
1DA
330
1D9
100
AcDbEntity
  8
BUMPER
100
AcDbVertex
100
AcDb2dVertex
 10
3.792093364930073
 20
0.2896038981567619
 30
0.0
 42
-0.0027572072551682
  0
VERTEX
  5
1DB
330
1D9
100
AcDbEntity
  8
BUMPER
100
AcDbVertex
100
AcDb2dVertex
 10
3.793464942250968
 20
0.2874938665812836
 30
0.0
 42
-0.1071757873307809
 70
     2
 50
285.5676961102227
  0
SEQEND
  5
1DC
330
1D9
100
AcDbEntity
  8
BUMPER
  0
ARC
  5
1DD
330
26
100
AcDbEntity
  8
BUMPER
100
AcDbCircle
 10
3.730097071069158
 20
0.2913273840975234
 30
0.0
 40
0.0625
100
AcDbArc
 50
5.560163604867933
 51
83.60341478852765
  0
LINE
  5
1DE
330
26
100
AcDbEntity
  8
BUMPER
100
AcDbLine
 10
3.737060177577467
 20
0.0828053554690316
 30
0.0
 11
3.737060177577467
 21
0.083016801366953
 31
0.0
  0
POLYLINE
  5
1DF
330
26
100
AcDbEntity
  8
BUMPER
100
AcDb2dPolyline
 66
     1
 10
0.0
 20
0.0
 30
0.0
  0
VERTEX
  5
1E0
330
1DF
100
AcDbEntity
  8
BUMPER
100
AcDbVertex
100
AcDb2dVertex
 10
3.826742143290884
 20
0.1930008355651553
 30
0.0
 42
-0.0544311820488789
 70
     2
 50
285.5676961102227
  0
VERTEX
  5
1E1
330
1DF
100
AcDbEntity
  8
BUMPER
100
AcDbVertex
100
AcDb2dVertex
 10
3.825152098077252
 20
0.1589119545914643
 30
0.0
 42
-0.1445844733358062
  0
VERTEX
  5
1E2
330
1DF
100
AcDbEntity
  8
BUMPER
100
AcDbVertex
100
AcDb2dVertex
 10
3.803804672925684
 20
0.1138649634002542
 30
0.0
 42
-0.1445844733358098
  0
VERTEX
  5
1E3
330
1DF
100
AcDbEntity
  8
BUMPER
100
AcDbVertex
100
AcDb2dVertex
 10
3.761408789671135
 20
0.0876441117922449
 30
0.0
 42
-0.0394759969565136
  0
VERTEX
  5
1E4
330
1DF
100
AcDbEntity
  8
BUMPER
100
AcDbVertex
100
AcDb2dVertex
 10
3.737060177577467
 20
0.083016801366953
 30
0.0
 42
-0.0777060857282009
 70
     2
 50
170.8121993811018
  0
SEQEND
  5
1E5
330
1DF
100
AcDbEntity
  8
BUMPER
  0
ARC
  5
1E6
330
26
100
AcDbEntity
  8
BUMPER
100
AcDbCircle
 10
1.878573038008545
 20
2.76483121862205
 30
0.0
 40
0.15625
100
AcDbArc
 50
96.39658521147172
 51
182.72714740647
  0
POLYLINE
  5
1E7
330
26
100
AcDbEntity
  8
BUMPER
100
AcDb2dPolyline
 66
     1
 10
0.0
 20
0.0
 30
0.0
  0
VERTEX
  5
1E8
330
1E7
100
AcDbEntity
  8
BUMPER
100
AcDbVertex
100
AcDb2dVertex
 10
1.749016838382663
 20
2.502895623449105
 30
0.0
 42
0.0147750608122531
  0
VERTEX
  5
1E9
330
1E7
100
AcDbEntity
  8
BUMPER
100
AcDbVertex
100
AcDb2dVertex
 10
1.790852371543442
 20
2.549309948508041
 30
0.0
 42
0.0326964228870274
  0
VERTEX
  5
1EA
330
1E7
100
AcDbEntity
  8
BUMPER
100
AcDbVertex
100
AcDb2dVertex
 10
1.834109805187052
 20
2.607574121172905
 30
0.0
 42
0.0701735246354636
 70
     2
 50
57.15386812802299
  0
VERTEX
  5
1EB
330
1E7
100
AcDbEntity
  8
BUMPER
100
AcDbVertex
100
AcDb2dVertex
 10
1.86190863909251
 20
2.667686709417323
 30
0.0
 42
0.2727530028059542
 50
57.15386812802299
  0
VERTEX
  5
1EC
330
1E7
100
AcDbEntity
  8
BUMPER
100
AcDbVertex
100
AcDb2dVertex
 10
1.857586955883538
 20
2.685383933398157
 30
0.0
 42
0.2727530028060096
  0
VERTEX
  5
1ED
330
1E7
100
AcDbEntity
  8
BUMPER
100
AcDbVertex
100
AcDb2dVertex
 10
1.840011248150423
 20
2.690175924640491
 30
0.0
 42
0.0599478487582181
  0
VERTEX
  5
1EE
330
1E7
100
AcDbEntity
  8
BUMPER
100
AcDbVertex
100
AcDb2dVertex
 10
1.77802337686141
 20
2.66757093738095
 30
0.0
 42
-0.0048945042505762
 70
     2
 50
211.3183275535395
  0
VERTEX
  5
1EF
330
1E7
100
AcDbEntity
  8
BUMPER
100
AcDbVertex
100
AcDb2dVertex
 10
1.722500000000001
 20
2.632304839415641
 30
0.0
 50
211.3183275535395
  0
SEQEND
  5
1F0
330
1E7
100
AcDbEntity
  8
BUMPER
  0
LINE
  5
1F1
330
26
100
AcDbEntity
  8
BUMPER
100
AcDbLine
 10
3.737060177577467
 20
2.657832320775999
 30
0.0
 11
1.807506341539726
 21
2.48380687171281
 31
0.0
  0
LINE
  5
1F2
330
26
100
AcDbEntity
  8
BUMPER
100
AcDbLine
 10
1.845341286347155
 20
2.69079833151395
 30
0.0
 11
3.807089999038067
 21
2.861403838440691
 31
0.0
  0
LINE
  5
1F3
330
26
100
AcDbEntity
  8
BUMPER
100
AcDbLine
 10
1.677771805917343
 20
2.752382514113054
 30
0.0
 11
3.737060177577467
 21
2.983244439187063
 31
0.0
  0
POLYLINE
  5
1F4
330
26
100
AcDbEntity
  8
BUMPER
100
AcDb2dPolyline
 66
     1
 10
0.0
 20
0.0
 30
0.0
  0
VERTEX
  5
1F5
330
1F4
100
AcDbEntity
  8
BUMPER
100
AcDbVertex
100
AcDb2dVertex
 10
1.775757684772406
 20
1.856010255863261
 30
0.0
 42
0.0166284414818466
  0
VERTEX
  5
1F6
330
1F4
100
AcDbEntity
  8
BUMPER
100
AcDbVertex
100
AcDb2dVertex
 10
1.793504086528178
 20
1.871058406390029
 30
0.0
 42
0.0754465689062767
  0
VERTEX
  5
1F7
330
1F4
100
AcDbEntity
  8
BUMPER
100
AcDbVertex
100
AcDb2dVertex
 10
1.838787746871764
 20
1.926642917593926
 30
0.0
 42
0.107063122092732
 70
     2
 50
59.46013247954054
  0
VERTEX
  5
1F8
330
1F4
100
AcDbEntity
  8
BUMPER
100
AcDbVertex
100
AcDb2dVertex
 10
1.859986648961656
 20
1.990675388152816
 30
0.0
 42
0.1496914873490885
 50
59.46013247954054
  0
VERTEX
  5
1F9
330
1F4
100
AcDbEntity
  8
BUMPER
100
AcDbVertex
100
AcDb2dVertex
 10
1.850739620954845
 20
2.038554840197389
 30
0.0
 42
0.1496914873490903
  0
VERTEX
  5
1FA
330
1F4
100
AcDbEntity
  8
BUMPER
100
AcDbVertex
100
AcDb2dVertex
 10
1.8162671702457
 20
2.073045412781111
 30
0.0
 42
0.0378204578423562
  0
VERTEX
  5
1FB
330
1F4
100
AcDbEntity
  8
BUMPER
100
AcDbVertex
100
AcDb2dVertex
 10
1.794223646621452
 20
2.082701779319095
 30
0.0
 42
0.0302197568271049
 70
     2
 50
176.4558462350731
  0
SEQEND
  5
1FC
330
1F4
100
AcDbEntity
  8
BUMPER
  0
ARC
  5
1FD
330
26
100
AcDbEntity
  8
BUMPER
100
AcDbCircle
 10
1.857499999999999
 20
1.963449512660917
 30
0.0
 40
0.135
100
AcDbArc
 50
92.75707342030566
 51
272.9984058909995
  0
POLYLINE
  5
1FE
330
26
100
AcDbEntity
  8
BUMPER
100
AcDb2dPolyline
 66
     1
 10
0.0
 20
0.0
 30
0.0
  0
VERTEX
  5
1FF
330
1FE
100
AcDbEntity
  8
BUMPER
100
AcDbVertex
100
AcDb2dVertex
 10
1.861165284626748
 20
1.140076937289022
 30
0.0
 42
0.0881752286986703
  0
VERTEX
  5
200
330
1FE
100
AcDbEntity
  8
BUMPER
100
AcDbVertex
100
AcDb2dVertex
 10
1.850377264050512
 20
1.200513839954122
 30
0.0
 42
0.0937033183989008
  0
VERTEX
  5
201
330
1FE
100
AcDbEntity
  8
BUMPER
100
AcDbVertex
100
AcDb2dVertex
 10
1.82055119746237
 20
1.250339390112334
 30
0.0
 42
0.0589383168468517
 70
     2
 50
131.6115032410253
  0
VERTEX
  5
202
330
1FE
100
AcDbEntity
  8
BUMPER
100
AcDbVertex
100
AcDb2dVertex
 10
1.79580100422955
 20
1.272346466609133
 30
0.0
 42
0.1095268901796172
 50
131.6115032410253
  0
SEQEND
  5
203
330
1FE
100
AcDbEntity
  8
BUMPER
  0
ARC
  5
204
330
26
100
AcDbEntity
  8
BUMPER
100
AcDbCircle
 10
1.878488760645153
 20
1.140076937289022
 30
0.0
 40
0.1559887606451511
100
AcDbArc
 50
90.0
 51
180.0
  0
ARC
  5
205
330
26
100
AcDbEntity
  8
BUMPER
100
AcDbCircle
 10
1.878488760645153
 20
1.140076937289022
 30
0.0
 40
0.1559887606451511
100
AcDbArc
 50
180.0
 51
270.0
  0
POLYLINE
  5
206
330
26
100
AcDbEntity
  8
BUMPER
100
AcDb2dPolyline
 66
     1
 10
0.0
 20
0.0
 30
0.0
  0
VERTEX
  5
207
330
206
100
AcDbEntity
  8
BUMPER
100
AcDbVertex
100
AcDb2dVertex
 10
1.861165284626748
 20
1.140076937289022
 30
0.0
 42
-0.0881752286986703
  0
VERTEX
  5
208
330
206
100
AcDbEntity
  8
BUMPER
100
AcDbVertex
100
AcDb2dVertex
 10
1.850377264050512
 20
1.079640034623923
 30
0.0
 42
-0.0937033183989008
  0
VERTEX
  5
209
330
206
100
AcDbEntity
  8
BUMPER
100
AcDbVertex
100
AcDb2dVertex
 10
1.82055119746237
 20
1.029814484465711
 30
0.0
 42
-0.0589383168468517
 70
     2
 50
228.3884967589747
  0
VERTEX
  5
20A
330
206
100
AcDbEntity
  8
BUMPER
100
AcDbVertex
100
AcDb2dVertex
 10
1.79580100422955
 20
1.007807407968912
 30
0.0
 42
-0.1095268901796172
  0
SEQEND
  5
20B
330
206
100
AcDbEntity
  8
BUMPER
  0
LINE
  5
20C
330
26
100
AcDbEntity
  8
BUMPER
100
AcDbLine
 10
3.737060177577467
 20
2.197348519109014
 30
0.0
 11
1.84983298455676
 21
2.098231621541114
 31
0.0
  0
LINE
  5
20D
330
26
100
AcDbEntity
  8
BUMPER
100
AcDbLine
 10
1.677771805917343
 20
2.752382514113054
 30
0.0
 11
1.677771805917343
 21
1.140076937289022
 31
0.0
  0
LINE
  5
20E
330
26
100
AcDbEntity
  8
BUMPER
100
AcDbLine
 10
1.660000000000001
 20
2.700076937289014
 30
0.0
 11
1.660000000000001
 21
1.140076937289022
 31
0.0
  0
LINE
  5
20F
330
26
100
AcDbEntity
  8
PART
100
AcDbLine
 10
0.7200000000000025
 20
1.140076937289022
 30
0.0
 11
0.7200000000000025
 21
2.472576937289022
 31
0.0
  0
LINE
  5
210
330
26
100
AcDbEntity
  8
PART
100
AcDbLine
 10
0.6400000000000006
 20
2.277499999999999
 30
0.0
 11
0.6400000000000006
 21
1.125
 31
0.0
  0
LINE
  5
211
330
26
100
AcDbEntity
  8
PART
100
AcDbLine
 10
1.660000000000001
 20
2.459722222222222
 30
0.0
 11
1.660000000000001
 21
1.125
 31
0.0
  0
LINE
  5
212
330
26
100
AcDbEntity
  8
LABEL
100
AcDbLine
 10
1.072346888445188
 20
1.097113508913007
 30
0.0
 11
1.49180000000001
 21
1.030173677638223
 31
0.0
  0
LINE
  5
213
330
26
100
AcDbEntity
  8
LABEL
100
AcDbLine
 10
1.072346888445188
 20
1.213457702465447
 30
0.0
 11
1.072346888445188
 21
1.066696172112598
 31
0.0
  0
LINE
  5
214
330
26
100
AcDbEntity
  8
LABEL
100
AcDbLine
 10
1.062346888445188
 20
1.213457702465447
 30
0.0
 11
1.062346888445188
 21
1.066696172112598
 31
0.0
  0
LINE
  5
215
330
26
100
AcDbEntity
  8
LABEL
100
AcDbLine
 10
1.062346888445188
 20
0.9910119748454331
 30
0.0
 11
1.062346888445188
 21
1.28716752936912
 31
0.0
  0
LINE
  5
216
330
26
100
AcDbEntity
  8
LABEL
100
AcDbLine
 10
1.027795407084091
 20
1.28716752936912
 30
0.0
 11
1.027795407084091
 21
0.991011974845434
 31
0.0
  0
LINE
  5
217
330
26
100
AcDbEntity
  8
PART
100
AcDbLine
 10
0.9350000000000022
 20
1.020298468570554
 30
0.0
 11
0.9350000000000013
 21
1.257881035644
 31
0.0
  0
LINE
  5
218
330
26
100
AcDbEntity
  8
LABEL
100
AcDbLine
 10
1.07024414910935
 20
1.066696172112598
 30
0.0
 11
1.49180000000001
 21
0.9256714109265399
 31
0.0
  0
LINE
  5
219
330
26
100
AcDbEntity
  8
LABEL
100
AcDbLine
 10
1.072346888445188
 20
1.066696172112598
 30
0.0
 11
1.062346888445188
 21
1.066696172112598
 31
0.0
  0
LINE
  5
21A
330
26
100
AcDbEntity
  8
LABEL
100
AcDbLine
 10
1.027795407084091
 20
0.991011974845434
 30
0.0
 11
1.062346888445188
 21
0.9910119748454331
 31
0.0
  0
LINE
  5
21B
330
26
100
AcDbEntity
  8
LABEL
100
AcDbLine
 10
1.027795407084091
 20
1.020298468570554
 30
0.0
 11
0.9350000000000022
 21
1.020298468570554
 31
0.0
  0
LINE
  5
21C
330
26
100
AcDbEntity
  8
LABEL
100
AcDbLine
 10
1.07024414910935
 20
1.213457702465447
 30
0.0
 11
1.491800000000011
 21
1.354482463651506
 31
0.0
  0
LINE
  5
21D
330
26
100
AcDbEntity
  8
LABEL
100
AcDbLine
 10
1.072346888445188
 20
1.183040365665037
 30
0.0
 11
1.49180000000001
 21
1.249980196939822
 31
0.0
  0
LINE
  5
21E
330
26
100
AcDbEntity
  8
LABEL
100
AcDbLine
 10
1.072346888445188
 20
1.140076937289022
 30
0.0
 11
1.49180000000001
 21
1.140076937289022
 31
0.0
  0
LINE
  5
21F
330
26
100
AcDbEntity
  8
LABEL
100
AcDbLine
 10
1.072346888445188
 20
1.213457702465447
 30
0.0
 11
1.062346888445188
 21
1.213457702465447
 31
0.0
  0
LINE
  5
220
330
26
100
AcDbEntity
  8
LABEL
100
AcDbLine
 10
1.062346888445188
 20
1.28716752936912
 30
0.0
 11
1.027795407084091
 21
1.28716752936912
 31
0.0
  0
LINE
  5
221
330
26
100
AcDbEntity
  8
LABEL
100
AcDbLine
 10
0.9350000000000013
 20
1.257881035644
 30
0.0
 11
1.027795407084091
 21
1.257881035644
 31
0.0
  0
LINE
  5
222
330
26
100
AcDbEntity
  8
PART
100
AcDbLine
 10
0.7700000000000032
 20
2.522576937289023
 30
0.0
 11
1.491800000000012
 21
2.522576937289023
 31
0.0
  0
ARC
  5
223
330
26
100
AcDbEntity
  8
PART
100
AcDbCircle
 10
0.7700000000000032
 20
2.472576937289022
 30
0.0
 40
0.05
100
AcDbArc
 50
90.0
 51
180.0
  0
LINE
  5
224
330
26
100
AcDbEntity
  8
PART
100
AcDbLine
 10
0.6400000000000006
 20
2.277499999999999
 30
0.0
 11
0.7200000000000025
 21
2.277499999999999
 31
0.0
  0
ARC
  5
225
330
26
100
AcDbEntity
  8
BUMPER
100
AcDbCircle
 10
1.800500000000004
 20
2.561491562471213
 30
0.0
 40
0.078
100
AcDbArc
 50
180.0
 51
275.1535333127373
  0
LINE
  5
226
330
26
100
AcDbEntity
  8
LABEL
100
AcDbLine
 10
1.491800000000011
 20
2.282202687264609
 30
0.0
 11
1.062346888445188
 21
2.282202687264609
 31
0.0
  0
LINE
  5
227
330
26
100
AcDbEntity
  8
LABEL
100
AcDbLine
 10
1.491800000000011
 20
2.135441156911759
 30
0.0
 11
1.062346888445188
 21
2.135441156911759
 31
0.0
  0
LINE
  5
228
330
26
100
AcDbEntity
  8
LABEL
100
AcDbLine
 10
1.292346888445187
 20
2.282202687264609
 30
0.0
 11
1.292346888445187
 21
2.135441156911759
 31
0.0
  0
LINE
  5
229
330
26
100
AcDbEntity
  8
LABEL
100
AcDbLine
 10
1.302346888445188
 20
2.282202687264609
 30
0.0
 11
1.302346888445188
 21
2.135441156911759
 31
0.0
  0
LINE
  5
22A
330
26
100
AcDbEntity
  8
LABEL
100
AcDbLine
 10
1.312346888445188
 20
2.282202687264609
 30
0.0
 11
1.312346888445188
 21
2.135441156911759
 31
0.0
  0
LINE
  5
22B
330
26
100
AcDbEntity
  8
LABEL
100
AcDbLine
 10
1.322346888445188
 20
2.282202687264609
 30
0.0
 11
1.322346888445188
 21
2.135441156911759
 31
0.0
  0
LINE
  5
22C
330
26
100
AcDbEntity
  8
LABEL
100
AcDbLine
 10
1.332346888445187
 20
2.282202687264609
 30
0.0
 11
1.332346888445187
 21
2.135441156911759
 31
0.0
  0
LINE
  5
22D
330
26
100
AcDbEntity
  8
LABEL
100
AcDbLine
 10
1.342346888445188
 20
2.282202687264609
 30
0.0
 11
1.342346888445188
 21
2.135441156911759
 31
0.0
  0
LINE
  5
22E
330
26
100
AcDbEntity
  8
LABEL
100
AcDbLine
 10
1.352346888445188
 20
2.282202687264609
 30
0.0
 11
1.352346888445188
 21
2.135441156911759
 31
0.0
  0
LINE
  5
22F
330
26
100
AcDbEntity
  8
LABEL
100
AcDbLine
 10
1.292346888445187
 20
2.282202687264609
 30
0.0
 11
1.292346888445187
 21
2.135441156911759
 31
0.0
  0
LINE
  5
230
330
26
100
AcDbEntity
  8
LABEL
100
AcDbLine
 10
1.282346888445188
 20
2.282202687264609
 30
0.0
 11
1.282346888445188
 21
2.135441156911759
 31
0.0
  0
LINE
  5
231
330
26
100
AcDbEntity
  8
LABEL
100
AcDbLine
 10
1.272346888445188
 20
2.282202687264609
 30
0.0
 11
1.272346888445188
 21
2.135441156911759
 31
0.0
  0
LINE
  5
232
330
26
100
AcDbEntity
  8
LABEL
100
AcDbLine
 10
1.262346888445188
 20
2.282202687264609
 30
0.0
 11
1.262346888445188
 21
2.135441156911759
 31
0.0
  0
LINE
  5
233
330
26
100
AcDbEntity
  8
LABEL
100
AcDbLine
 10
1.252346888445187
 20
2.282202687264609
 30
0.0
 11
1.252346888445187
 21
2.135441156911759
 31
0.0
  0
LINE
  5
234
330
26
100
AcDbEntity
  8
LABEL
100
AcDbLine
 10
1.242346888445188
 20
2.282202687264609
 30
0.0
 11
1.242346888445188
 21
2.135441156911759
 31
0.0
  0
LINE
  5
235
330
26
100
AcDbEntity
  8
LABEL
100
AcDbLine
 10
1.232346888445188
 20
2.282202687264609
 30
0.0
 11
1.232346888445188
 21
2.135441156911759
 31
0.0
  0
LINE
  5
236
330
26
100
AcDbEntity
  8
LABEL
100
AcDbLine
 10
1.222346888445188
 20
2.282202687264609
 30
0.0
 11
1.222346888445188
 21
2.135441156911759
 31
0.0
  0
LINE
  5
237
330
26
100
AcDbEntity
  8
LABEL
100
AcDbLine
 10
1.212346888445187
 20
2.282202687264609
 30
0.0
 11
1.212346888445187
 21
2.135441156911759
 31
0.0
  0
LINE
  5
238
330
26
100
AcDbEntity
  8
LABEL
100
AcDbLine
 10
1.202346888445188
 20
2.282202687264609
 30
0.0
 11
1.202346888445188
 21
2.135441156911759
 31
0.0
  0
LINE
  5
239
330
26
100
AcDbEntity
  8
LABEL
100
AcDbLine
 10
1.192346888445188
 20
2.282202687264609
 30
0.0
 11
1.192346888445188
 21
2.135441156911759
 31
0.0
  0
LINE
  5
23A
330
26
100
AcDbEntity
  8
LABEL
100
AcDbLine
 10
1.182346888445188
 20
2.282202687264609
 30
0.0
 11
1.182346888445188
 21
2.135441156911759
 31
0.0
  0
LINE
  5
23B
330
26
100
AcDbEntity
  8
LABEL
100
AcDbLine
 10
1.172346888445187
 20
2.282202687264609
 30
0.0
 11
1.172346888445187
 21
2.135441156911759
 31
0.0
  0
LINE
  5
23C
330
26
100
AcDbEntity
  8
LABEL
100
AcDbLine
 10
1.162346888445187
 20
2.282202687264609
 30
0.0
 11
1.162346888445187
 21
2.135441156911759
 31
0.0
  0
LINE
  5
23D
330
26
100
AcDbEntity
  8
LABEL
100
AcDbLine
 10
1.152346888445188
 20
2.282202687264609
 30
0.0
 11
1.152346888445188
 21
2.135441156911759
 31
0.0
  0
LINE
  5
23E
330
26
100
AcDbEntity
  8
LABEL
100
AcDbLine
 10
1.142346888445188
 20
2.282202687264609
 30
0.0
 11
1.142346888445188
 21
2.135441156911759
 31
0.0
  0
LINE
  5
23F
330
26
100
AcDbEntity
  8
LABEL
100
AcDbLine
 10
1.132346888445187
 20
2.282202687264609
 30
0.0
 11
1.132346888445187
 21
2.135441156911759
 31
0.0
  0
LINE
  5
240
330
26
100
AcDbEntity
  8
LABEL
100
AcDbLine
 10
1.122346888445187
 20
2.282202687264609
 30
0.0
 11
1.122346888445187
 21
2.135441156911759
 31
0.0
  0
LINE
  5
241
330
26
100
AcDbEntity
  8
LABEL
100
AcDbLine
 10
1.112346888445188
 20
2.282202687264609
 30
0.0
 11
1.112346888445188
 21
2.135441156911759
 31
0.0
  0
LINE
  5
242
330
26
100
AcDbEntity
  8
LABEL
100
AcDbLine
 10
1.102346888445188
 20
2.282202687264609
 30
0.0
 11
1.102346888445188
 21
2.135441156911759
 31
0.0
  0
LINE
  5
243
330
26
100
AcDbEntity
  8
LABEL
100
AcDbLine
 10
1.092346888445187
 20
2.282202687264609
 30
0.0
 11
1.092346888445187
 21
2.135441156911759
 31
0.0
  0
LINE
  5
244
330
26
100
AcDbEntity
  8
LABEL
100
AcDbLine
 10
1.082346888445187
 20
2.282202687264609
 30
0.0
 11
1.082346888445187
 21
2.135441156911759
 31
0.0
  0
LINE
  5
245
330
26
100
AcDbEntity
  8
LABEL
100
AcDbLine
 10
1.072346888445188
 20
2.282202687264609
 30
0.0
 11
1.072346888445188
 21
2.135441156911759
 31
0.0
  0
LINE
  5
246
330
26
100
AcDbEntity
  8
LABEL
100
AcDbLine
 10
1.062346888445188
 20
2.282202687264609
 30
0.0
 11
1.062346888445188
 21
2.135441156911759
 31
0.0
  0
LINE
  5
247
330
26
100
AcDbEntity
  8
LABEL
100
AcDbLine
 10
1.062346888445188
 20
2.091675947187703
 30
0.0
 11
1.062346888445188
 21
2.325967896988665
 31
0.0
  0
LINE
  5
248
330
26
100
AcDbEntity
  8
LABEL
100
AcDbLine
 10
1.027795407084091
 20
2.325967896988665
 30
0.0
 11
1.027795407084091
 21
2.091675947187703
 31
0.0
  0
LINE
  5
249
330
26
100
AcDbEntity
  8
PART
100
AcDbLine
 10
0.9350000000000022
 20
2.120962440912823
 30
0.0
 11
0.9350000000000022
 21
2.296681403263545
 31
0.0
  0
LINE
  5
24A
330
26
100
AcDbEntity
  8
LABEL
100
AcDbLine
 10
1.027795407084091
 20
2.091675947187703
 30
0.0
 11
1.062346888445188
 21
2.091675947187703
 31
0.0
  0
LINE
  5
24B
330
26
100
AcDbEntity
  8
LABEL
100
AcDbLine
 10
1.027795407084091
 20
2.120962440912823
 30
0.0
 11
0.9350000000000022
 21
2.120962440912823
 31
0.0
  0
LINE
  5
24C
330
26
100
AcDbEntity
  8
LABEL
100
AcDbLine
 10
1.062346888445188
 20
2.325967896988665
 30
0.0
 11
1.027795407084091
 21
2.325967896988665
 31
0.0
  0
LINE
  5
24D
330
26
100
AcDbEntity
  8
LABEL
100
AcDbLine
 10
0.9350000000000022
 20
2.296681403263545
 30
0.0
 11
1.027795407084091
 21
2.296681403263545
 31
0.0
  0
LINE
  5
24E
330
26
100
AcDbEntity
  8
LABEL
100
AcDbLine
 10
1.362346888445188
 20
2.282202687264609
 30
0.0
 11
1.362346888445188
 21
2.135441156911759
 31
0.0
  0
LINE
  5
24F
330
26
100
AcDbEntity
  8
LABEL
100
AcDbLine
 10
1.372346888445187
 20
2.282202687264609
 30
0.0
 11
1.372346888445187
 21
2.135441156911759
 31
0.0
  0
LINE
  5
250
330
26
100
AcDbEntity
  8
LABEL
100
AcDbLine
 10
1.382346888445187
 20
2.282202687264609
 30
0.0
 11
1.382346888445187
 21
2.135441156911759
 31
0.0
  0
LINE
  5
251
330
26
100
AcDbEntity
  8
LABEL
100
AcDbLine
 10
1.392346888445188
 20
2.282202687264609
 30
0.0
 11
1.392346888445188
 21
2.135441156911759
 31
0.0
  0
LINE
  5
252
330
26
100
AcDbEntity
  8
LABEL
100
AcDbLine
 10
1.402346888445188
 20
2.282202687264609
 30
0.0
 11
1.402346888445188
 21
2.135441156911759
 31
0.0
  0
LINE
  5
253
330
26
100
AcDbEntity
  8
LABEL
100
AcDbLine
 10
1.412346888445187
 20
2.282202687264609
 30
0.0
 11
1.412346888445187
 21
2.135441156911759
 31
0.0
  0
LINE
  5
254
330
26
100
AcDbEntity
  8
LABEL
100
AcDbLine
 10
1.422346888445187
 20
2.282202687264609
 30
0.0
 11
1.422346888445187
 21
2.135441156911759
 31
0.0
  0
LINE
  5
255
330
26
100
AcDbEntity
  8
LABEL
100
AcDbLine
 10
1.432346888445188
 20
2.282202687264609
 30
0.0
 11
1.432346888445188
 21
2.135441156911759
 31
0.0
  0
LINE
  5
256
330
26
100
AcDbEntity
  8
LABEL
100
AcDbLine
 10
1.442346888445188
 20
2.282202687264609
 30
0.0
 11
1.442346888445188
 21
2.135441156911759
 31
0.0
  0
LINE
  5
257
330
26
100
AcDbEntity
  8
LABEL
100
AcDbLine
 10
1.452346888445188
 20
2.282202687264609
 30
0.0
 11
1.452346888445188
 21
2.135441156911759
 31
0.0
  0
LINE
  5
258
330
26
100
AcDbEntity
  8
LABEL
100
AcDbLine
 10
1.462346888445187
 20
2.282202687264609
 30
0.0
 11
1.462346888445187
 21
2.135441156911759
 31
0.0
  0
LINE
  5
259
330
26
100
AcDbEntity
  8
LABEL
100
AcDbLine
 10
1.472346888445188
 20
2.282202687264609
 30
0.0
 11
1.472346888445188
 21
2.135441156911759
 31
0.0
  0
LINE
  5
25A
330
26
100
AcDbEntity
  8
LABEL
100
AcDbLine
 10
1.482346888445188
 20
2.282202687264609
 30
0.0
 11
1.482346888445188
 21
2.135441156911759
 31
0.0
  0
LINE
  5
25B
330
26
100
AcDbEntity
  8
PART
100
AcDbLine
 10
1.660000000000001
 20
2.639382492844575
 30
0.0
 11
1.491800000000009
 21
2.522576937289023
 31
0.0
  0
LINE
  5
25C
330
26
100
AcDbEntity
  8
BUMPER
100
AcDbLine
 10
1.660000000000001
 20
2.700076937289023
 30
0.0
 11
1.660000000000001
 21
2.732507022895727
 31
0.0
  0
ARC
  5
25D
330
26
100
AcDbEntity
  8
BUMPER
100
AcDbCircle
 10
1.679999999999997
 20
2.732507022895727
 30
0.0
 40
0.02
100
AcDbArc
 50
96.39658521147234
 51
180.0
  0
LINE
  5
25E
330
26
100
AcDbEntity
  8
BUMPER
100
AcDbLine
 10
1.722500000000001
 20
2.632304839415641
 30
0.0
 11
1.722500000000001
 21
2.561491562471213
 31
0.0
  0
LINE
  5
25F
330
26
100
AcDbEntity
  8
BUMPER
100
AcDbLine
 10
3.737060177577467
 20
1.926715580426379
 30
0.0
 11
3.737060177577467
 21
1.296065697934174
 31
0.0
  0
LINE
  5
260
330
26
100
AcDbEntity
  8
BUMPER
100
AcDbLine
 10
3.792303008975308
 20
1.98277080808898
 30
0.0
 11
3.792303008975308
 21
1.26092077080409
 31
0.0
  0
LINE
  5
261
330
26
100
AcDbEntity
  8
BUMPER
100
AcDbLine
 10
3.737060177577467
 20
1.296065697934174
 30
0.0
 11
1.878488760645153
 21
1.296065697934174
 31
0.0
  0
LINE
  5
262
330
26
100
AcDbEntity
  8
BUMPER
100
AcDbLine
 10
3.737060177577467
 20
0.9840881766438718
 30
0.0
 11
1.878488760645153
 21
0.9840881766438718
 31
0.0
  0
POLYLINE
  5
263
330
26
100
AcDbEntity
  8
BUMPER
100
AcDb2dPolyline
 66
     1
 10
0.0
 20
0.0
 30
0.0
  0
VERTEX
  5
264
330
263
100
AcDbEntity
  8
BUMPER
100
AcDbVertex
100
AcDb2dVertex
 10
3.824713061205363
 20
1.140076937289021
 30
0.0
 42
-0.0570684702191636
  0
VERTEX
  5
265
330
263
100
AcDbEntity
  8
BUMPER
100
AcDbVertex
100
AcDb2dVertex
 10
3.817508866159561
 20
1.077424869859519
 30
0.0
 42
-0.070891436554057
  0
VERTEX
  5
266
330
263
100
AcDbEntity
  8
BUMPER
100
AcDbVertex
100
AcDb2dVertex
 10
3.799040147744802
 20
1.029814484465711
 30
0.0
 42
-0.1062939648795223
 70
     2
 50
240.6880545407753
  0
VERTEX
  5
267
330
263
100
AcDbEntity
  8
BUMPER
100
AcDbVertex
100
AcDb2dVertex
 10
3.76750456787588
 20
0.9941032004331527
 30
0.0
 42
-0.1602564004738186
  0
VERTEX
  5
268
330
263
100
AcDbEntity
  8
BUMPER
100
AcDbVertex
100
AcDb2dVertex
 10
3.737060177577467
 20
0.9840881766438718
 30
0.0
 42
-0.1602564004738183
  0
SEQEND
  5
269
330
263
100
AcDbEntity
  8
BUMPER
  0
POLYLINE
  5
26A
330
26
100
AcDbEntity
  8
BUMPER
100
AcDb2dPolyline
 66
     1
 10
0.0
 20
0.0
 30
0.0
  0
VERTEX
  5
26B
330
26A
100
AcDbEntity
  8
BUMPER
100
AcDbVertex
100
AcDb2dVertex
 10
3.824713061205363
 20
1.140076937289024
 30
0.0
 42
0.0570684702191636
  0
VERTEX
  5
26C
330
26A
100
AcDbEntity
  8
BUMPER
100
AcDbVertex
100
AcDb2dVertex
 10
3.817508866159561
 20
1.202729004718526
 30
0.0
 42
0.070891436554057
  0
VERTEX
  5
26D
330
26A
100
AcDbEntity
  8
BUMPER
100
AcDbVertex
100
AcDb2dVertex
 10
3.799040147744802
 20
1.250339390112334
 30
0.0
 42
0.1062939648795223
 70
     2
 50
119.3119454592246
  0
VERTEX
  5
26E
330
26A
100
AcDbEntity
  8
BUMPER
100
AcDbVertex
100
AcDb2dVertex
 10
3.76750456787588
 20
1.286050674144893
 30
0.0
 42
0.1602564004738186
 50
119.3119454592246
  0
VERTEX
  5
26F
330
26A
100
AcDbEntity
  8
BUMPER
100
AcDbVertex
100
AcDb2dVertex
 10
3.737060177577467
 20
1.296065697934174
 30
0.0
 42
0.1602564004738183
  0
SEQEND
  5
270
330
26A
100
AcDbEntity
  8
BUMPER
  0
LINE
  5
271
330
26
100
AcDbEntity
  8
BUMPER
  6
Continuous
100
AcDbLine
 10
1.861165271737766
 20
2.920108493757408
 30
0.0
 11
3.824712994659341
 21
3.140237162246379
 31
0.0
  0
LINE
  5
272
330
26
100
AcDbEntity
  8
BUMPER
100
AcDbLine
 10
3.737060177577467
 20
1.926715580426379
 30
0.0
 11
1.864561603206729
 21
1.828634328945764
 31
0.0
  0
LINE
  5
273
330
26
100
AcDbEntity
  8
BUMPER
100
AcDbLine
 10
3.792303008975308
 20
2.713887548439514
 30
0.0
 11
3.792303008975308
 21
2.177036285442635
 31
0.0
  0
LINE
  5
274
330
26
100
AcDbEntity
  8
BUMPER
100
AcDbLine
 10
3.737060177577467
 20
2.657832320775999
 30
0.0
 11
3.737060177577467
 21
2.197137073211092
 31
0.0
  0
POLYLINE
  5
275
330
26
100
AcDbEntity
  8
BUMPER
100
AcDb2dPolyline
 66
     1
 10
0.0
 20
0.0
 30
0.0
  0
VERTEX
  5
276
330
275
100
AcDbEntity
  8
BUMPER
100
AcDbVertex
100
AcDb2dVertex
 10
3.826742143290884
 20
2.08715303901289
 30
0.0
 42
0.0544311820488789
 70
     2
 50
74.43230388977735
  0
VERTEX
  5
277
330
275
100
AcDbEntity
  8
BUMPER
100
AcDbVertex
100
AcDb2dVertex
 10
3.825152098077252
 20
2.121241919986581
 30
0.0
 42
0.1445844733358062
 50
74.43230388977735
  0
VERTEX
  5
278
330
275
100
AcDbEntity
  8
BUMPER
100
AcDbVertex
100
AcDb2dVertex
 10
3.803804672925684
 20
2.166288911177791
 30
0.0
 42
0.1445844733358098
  0
VERTEX
  5
279
330
275
100
AcDbEntity
  8
BUMPER
100
AcDbVertex
100
AcDb2dVertex
 10
3.761408789671135
 20
2.192509762785801
 30
0.0
 42
0.0394759969565136
  0
VERTEX
  5
27A
330
275
100
AcDbEntity
  8
BUMPER
100
AcDbVertex
100
AcDb2dVertex
 10
3.737060177577467
 20
2.197137073211092
 30
0.0
 42
0.0777060857282009
 70
     2
 50
189.1878006188981
  0
SEQEND
  5
27B
330
275
100
AcDbEntity
  8
BUMPER
  0
ARC
  5
27C
330
26
100
AcDbEntity
  8
BUMPER
100
AcDbCircle
 10
3.730097071069158
 20
1.988826490480522
 30
0.0
 40
0.0625
100
AcDbArc
 50
276.3965852114724
 51
354.4398363951321
  0
POLYLINE
  5
27D
330
26
100
AcDbEntity
  8
BUMPER
100
AcDb2dPolyline
 66
     1
 10
0.0
 20
0.0
 30
0.0
  0
VERTEX
  5
27E
330
27D
100
AcDbEntity
  8
BUMPER
100
AcDbVertex
100
AcDb2dVertex
 10
3.792093364930073
 20
1.990549976421283
 30
0.0
 42
0.0027572072551682
  0
VERTEX
  5
27F
330
27D
100
AcDbEntity
  8
BUMPER
100
AcDbVertex
100
AcDb2dVertex
 10
3.793464942250968
 20
1.992660007996762
 30
0.0
 42
0.1071757873307809
 70
     2
 50
74.43230388977735
  0
SEQEND
  5
280
330
27D
100
AcDbEntity
  8
BUMPER
  0
ARC
  5
281
330
26
100
AcDbEntity
  8
BUMPER
100
AcDbCircle
 10
4.041126760599984
 20
1.958548078528347
 30
0.0
 40
0.25
100
AcDbArc
 50
149.0413157045724
 51
174.4398363951322
  0
LINE
  5
282
330
26
100
AcDbEntity
  8
BUMPER
100
AcDbLine
 10
3.737060177577467
 20
2.197348519109014
 30
0.0
 11
3.737060177577467
 21
2.197137073211092
 31
0.0
  0
LINE
  5
283
330
26
100
AcDbEntity
  8
BUMPER
100
AcDbLine
 10
3.737060177577467
 20
2.983244439187063
 30
0.0
 11
3.737060177577467
 21
2.855313622546584
 31
0.0
  0
POLYLINE
  5
284
330
26
100
AcDbEntity
  8
BUMPER
100
AcDb2dPolyline
 66
     1
 10
0.0
 20
0.0
 30
0.0
  0
VERTEX
  5
285
330
284
100
AcDbEntity
  8
BUMPER
100
AcDbVertex
100
AcDb2dVertex
 10
3.805087850455938
 20
2.772039771976655
 30
0.0
 42
0.0090039863235147
  0
VERTEX
  5
286
330
284
100
AcDbEntity
  8
BUMPER
100
AcDbVertex
100
AcDb2dVertex
 10
3.811311647046542
 20
2.786798272802777
 30
0.0
 42
0.0744653926551327
 70
     2
 50
68.16614925260184
  0
VERTEX
  5
287
330
284
100
AcDbEntity
  8
BUMPER
100
AcDbVertex
100
AcDb2dVertex
 10
3.824486379671467
 20
2.842459861154307
 30
0.0
 42
0.2631700873813878
 50
68.16614925260184
  0
VERTEX
  5
288
330
284
100
AcDbEntity
  8
BUMPER
100
AcDbVertex
100
AcDb2dVertex
 10
3.817297616101923
 20
2.858097007988528
 30
0.0
 42
0.2027288591661507
  0
VERTEX
  5
289
330
284
100
AcDbEntity
  8
BUMPER
100
AcDbVertex
100
AcDb2dVertex
 10
3.804025005632764
 20
2.861137288117372
 30
0.0
 42
0.0744653926551238
  0
SEQEND
  5
28A
330
284
100
AcDbEntity
  8
BUMPER
  0
ARC
  5
28B
330
26
100
AcDbEntity
  8
BUMPER
100
AcDbCircle
 10
4.041126760599984
 20
2.689664818877967
 30
0.0
 40
0.25
100
AcDbArc
 50
155.1190304341546
 51
174.4398363951322
  0
ARC
  5
28C
330
26
100
AcDbEntity
  8
BUMPER
100
AcDbCircle
 10
3.730097071069158
 20
2.719943230830142
 30
0.0
 40
0.0625
100
AcDbArc
 50
276.3965852114724
 51
354.4398363951321
  0
ARC
  5
28D
330
26
100
AcDbEntity
  8
BUMPER
100
AcDbCircle
 10
3.730097071069158
 20
3.045355349241206
 30
0.0
 40
0.0625
100
AcDbArc
 50
276.3965852114724
 51
354.4398363951321
  0
LINE
  5
28E
330
26
100
AcDbEntity
  8
BUMPER
100
AcDbLine
 10
3.792303008975308
 20
3.039299666850772
 30
0.0
 11
3.792303008975308
 21
2.860117872547475
 31
0.0
  0
LINE
  5
28F
330
26
100
AcDbEntity
  8
BUMPER
100
AcDbLine
 10
4.041126760599984
 20
3.265076937289031
 30
0.0
 11
4.041126760599984
 21
1.140076937289026
 31
0.0
  0
LINE
  5
290
330
26
100
AcDbEntity
  8
BUMPER
100
AcDbLine
 10
4.641126760599986
 20
3.265076937289037
 30
0.0
 11
4.641126760599986
 21
-0.9849230627109806
 31
0.0
  0
LINE
  5
291
330
26
100
AcDbEntity
  8
BUMPER
100
AcDbLine
 10
4.041126760599984
 20
-0.9849230627109859
 30
0.0
 11
4.041126760599984
 21
1.140076937289019
 31
0.0
  0
LINE
  5
292
330
26
100
AcDbEntity
  8
BUMPER
100
AcDbLine
 10
4.041126760599984
 20
-0.9849230627109859
 30
0.0
 11
4.641126760599986
 21
-0.9849230627109895
 31
0.0
  0
LINE
  5
293
330
26
100
AcDbEntity
  8
BUMPER
100
AcDbLine
 10
4.041126760599984
 20
3.265076937289031
 30
0.0
 11
4.641126760599986
 21
3.265076937289035
 31
0.0
  0
ENDBLK
  5
294
330
26
100
AcDbEntity
  8
0
100
AcDbBlockEnd
  0
BLOCK
  5
51C
330
513
100
AcDbEntity
  8
0
100
AcDbBlockBegin
  2
PLTWIN
 70
     0
 10
0.0
 20
0.0
 30
0.0
  3
PLTWIN
  1

  0
TEXT
  5
514
330
513
100
AcDbEntity
  8
DIM
100
AcDbText
 10
-4.151277514662579
 20
-9.035059345522228
 30
0.0
 40
0.25
  1
WINDOWS
100
AcDbText
  0
TEXT
  5
515
330
513
100
AcDbEntity
  8
DIM
100
AcDbText
 10
-4.151277514662579
 20
-8.606487916950799
 30
0.0
 40
0.25
  1
USING THESE
100
AcDbText
  0
TEXT
  5
516
330
513
100
AcDbEntity
  8
DIM
100
AcDbText
 10
-4.151277514662579
 20
-8.17791648837937
 30
0.0
 40
0.25
  1
SCALE: 1=1.5
100
AcDbText
  0
TEXT
  5
517
330
513
100
AcDbEntity
  8
DIM
100
AcDbText
 10
-4.151277514662579
 20
-7.749345059807941
 30
0.0
 40
0.25
  1
PLOT IN HPGL
100
AcDbText
  0
LINE
  5
518
330
513
100
AcDbEntity
  8
DIM
100
AcDbLine
 10
-1.673642543552229
 20
-7.236905120927104
 30
0.0
 11
-0.9532945094085967
 21
-7.236905120927104
 31
0.0
  0
LINE
  5
519
330
513
100
AcDbEntity
  8
DIM
100
AcDbLine
 10
-0.9532945094085967
 20
-7.236905120927104
 30
0.0
 11
-0.9532945094085967
 21
-7.729098376425682
 31
0.0
  0
LINE
  5
51A
330
513
100
AcDbEntity
  8
DIM
100
AcDbLine
 10
12.24044560918471
 20
2.64482129185254
 30
0.0
 11
12.92288043796049
 21
2.64482129185254
 31
0.0
  0
LINE
  5
51B
330
513
100
AcDbEntity
  8
DIM
100
AcDbLine
 10
12.24044560918471
 20
3.326319681014098
 30
0.0
 11
12.24044560918471
 21
2.64482129185254
 31
0.0
  0
ENDBLK
  5
51D
330
513
100
AcDbEntity
  8
0
100
AcDbBlockEnd
  0
BLOCK
  5
5A1
330
52C
100
AcDbEntity
  8
0
100
AcDbBlockBegin
  2
A$C435B465C
 70
     0
 10
0.0
 20
0.0
 30
0.0
  3
A$C435B465C
  1

  0
LINE
  5
52D
330
52C
100
AcDbEntity
  8
TRIM
100
AcDbLine
 10
10.41999999853406
 20
7.86999999827346
 30
0.0
 11
0.0299999985340644
 21
7.86999999827346
 31
0.0
  0
LINE
  5
52E
330
52C
100
AcDbEntity
  8
TRIM
100
AcDbLine
 10
-0.0000000014659345
 20
7.899999998273461
 30
0.0
 11
10.44999999853406
 21
7.899999998273461
 31
0.0
  0
LINE
  5
52F
330
52C
100
AcDbEntity
  8
TRIM
100
AcDbLine
 10
0.0299999985340644
 20
7.86999999827346
 30
0.0
 11
0.0299999985340652
 21
0.9877074628274646
 31
0.0
  0
LINE
  5
530
330
52C
100
AcDbEntity
  8
TRIM
100
AcDbLine
 10
-0.0000000014659349
 20
7.899999998273461
 30
0.0
 11
-0.0000000014659349
 21
-0.000000001726538
 31
0.0
  0
LINE
  5
531
330
52C
100
AcDbEntity
  8
TRIM
100
AcDbLine
 10
10.41999999853406
 20
2.432499998273461
 30
0.0
 11
10.41999999853406
 21
7.869999998273458
 31
0.0
  0
LINE
  5
532
330
52C
100
AcDbEntity
  8
TRIM
100
AcDbLine
 10
10.44999999853406
 20
-0.0000000017265407
 30
0.0
 11
10.44999999853406
 21
7.899999998273459
 31
0.0
  0
SOLID
  5
533
330
52C
100
AcDbEntity
  8
SOLID
 62
     1
100
AcDbTrace
 10
8.850645714660327
 20
1.336824719979944
 30
0.0
 11
8.953204583077742
 21
1.529709898068546
 31
0.0
 12
8.844321504076491
 22
1.344775342338473
 32
0.0
 13
8.947606642518891
 23
1.539026435684056
 33
0.0
  0
SOLID
  5
534
330
52C
100
AcDbEntity
  8
SOLID
 62
     1
100
AcDbTrace
 10
8.743633161575985
 20
1.330656234914544
 30
0.0
 11
8.928899857892716
 21
1.55144848583807
 31
0.0
 12
8.835889223298043
 22
1.355376172149846
 32
0.0
 13
8.94014272177376
 23
1.55144848583807
 33
0.0
  0
SOLID
  5
535
330
52C
100
AcDbEntity
  8
SOLID
 62
     1
100
AcDbTrace
 10
8.775982480684099
 20
1.551448485838069
 30
0.0
 11
9.123139625704464
 21
1.644468962492971
 31
0.0
 12
9.073679760929408
 22
1.551448485838069
 32
0.0
 13
9.073679760929408
 23
1.551448485838069
 33
0.0
  0
SOLID
  5
536
330
52C
100
AcDbEntity
  8
SOLID
 62
     1
100
AcDbTrace
 10
8.816585180362723
 20
1.57518819906379
 30
0.0
 11
9.147519865140669
 21
1.663861880597488
 31
0.0
 12
8.834870359939877
 22
1.589732887642179
 32
0.0
 13
9.165805044717822
 23
1.678406569175877
 33
0.0
  0
LINE
  5
537
330
52C
100
AcDbEntity
  8
TRIM
100
AcDbLine
 10
10.41999999853406
 20
2.402499998273461
 30
0.0
 11
8.026999998534064
 21
2.402499998273462
 31
0.0
  0
TEXT
  5
538
330
52C
100
AcDbEntity
  8
TRIM
100
AcDbText
 10
8.093749998534065
 20
2.232876334230538
 30
0.0
 40
0.1
  1
TASK FORCE TIPS, INC.
 51
10.0
  7
ROMAND
100
AcDbText
  0
TEXT
  5
539
330
52C
100
AcDbEntity
  8
TRIM
100
AcDbText
 10
8.128853318574009
 20
1.795200536343402
 30
0.0
 40
0.09
  1
219-462-6161
  7
SIMPLEX
100
AcDbText
  0
TEXT
  5
53A
330
52C
100
AcDbEntity
  8
TRIM
 62
     2
100
AcDbText
 10
8.128853318574009
 20
1.945864616217594
 30
0.0
 40
0.09
  1
VALPARAISO, IN 46383
  7
SIMPLEX
100
AcDbText
  0
TEXT
  5
53B
330
52C
100
AcDbEntity
  8
TRIM
 62
     2
100
AcDbText
 10
8.128853318574009
 20
2.090582801482295
 30
0.0
 40
0.09
  1
2800 E. EVANS AVE.
  7
SIMPLEX
100
AcDbText
  0
LINE
  5
53C
330
52C
100
AcDbEntity
  8
TRIM
100
AcDbLine
 10
10.41999999853406
 20
2.432499998273461
 30
0.0
 11
7.996999998534068
 21
2.432499998273462
 31
0.0
  0
LINE
  5
53D
330
52C
100
AcDbEntity
  8
TRIM
100
AcDbLine
 10
8.026999998534062
 20
1.224315403424987
 30
0.0
 11
8.026999998534064
 21
2.402499998273462
 31
0.0
  0
LINE
  5
53E
330
52C
100
AcDbEntity
  8
TRIM
100
AcDbLine
 10
7.996999998534064
 20
0.6684716413094636
 30
0.0
 11
7.996999998534068
 21
2.432499998273462
 31
0.0
  0
SOLID
  5
53F
330
52C
100
AcDbEntity
  8
SOLID
 62
     1
100
AcDbTrace
 10
8.043289409296239
 20
1.529709898068546
 30
0.0
 11
8.307257975069029
 21
1.529709898068546
 31
0.0
 12
8.114055538205608
 22
1.539026435684056
 32
0.0
 13
8.327237354460679
 23
1.539026435684056
 33
0.0
  0
SOLID
  5
540
330
52C
100
AcDbEntity
  8
SOLID
 62
     1
100
AcDbTrace
 10
8.043289409296239
 20
1.529709898068546
 30
0.0
 11
8.598232940785159
 21
1.678406569175877
 31
0.0
 12
8.114055538205608
 22
1.539026435684056
 32
0.0
 13
8.579947761208007
 23
1.663861880597489
 33
0.0
  0
SOLID
  5
541
330
52C
100
AcDbEntity
  8
SOLID
 62
     1
100
AcDbTrace
 10
8.168609830666147
 20
1.330656234914544
 30
0.0
 11
8.353876526982878
 21
1.551448485838069
 31
0.0
 12
8.260865892388205
 22
1.355376172149845
 32
0.0
 13
8.365119390863922
 23
1.551448485838069
 33
0.0
  0
SOLID
  5
542
330
52C
100
AcDbEntity
  8
SOLID
 62
     1
100
AcDbTrace
 10
8.107639476921409
 20
1.29181383575286
 30
0.0
 11
8.307257975069029
 21
1.529709898068546
 31
0.0
 12
8.133769628526296
 22
1.308460578250724
 32
0.0
 13
8.327237354460679
 23
1.539026435684056
 33
0.0
  0
SOLID
  5
543
330
52C
100
AcDbEntity
  8
SOLID
 62
     1
100
AcDbTrace
 10
8.269298173166653
 20
1.344775342338473
 30
0.0
 11
8.372583311609053
 21
1.539026435684056
 31
0.0
 12
8.275622383750489
 22
1.336824719979944
 32
0.0
 13
8.378181252167903
 23
1.529709898068546
 33
0.0
  0
SOLID
  5
544
330
52C
100
AcDbEntity
  8
SOLID
 62
     1
100
AcDbTrace
 10
8.519123822871026
 20
1.446010323780124
 30
0.0
 11
8.389737606638517
 21
1.29181383575286
 31
0.0
 12
8.53420778556849
 22
1.449492730963093
 32
0.0
 13
8.415867758243402
 23
1.308460578250724
 33
0.0
  0
SOLID
  5
545
330
52C
100
AcDbEntity
  8
SOLID
 62
     1
100
AcDbTrace
 10
8.557720513467595
 20
1.336824719979944
 30
0.0
 11
8.597274694021209
 21
1.411215314162212
 31
0.0
 12
8.551396302883759
 22
1.344775342338473
 32
0.0
 13
8.593127360178915
 23
1.423260046220356
 33
0.0
  0
SOLID
  5
546
330
52C
100
AcDbEntity
  8
SOLID
 62
     1
100
AcDbTrace
 10
8.902260685370517
 20
1.539026435684056
 30
0.0
 11
8.708792959436136
 21
1.308460578250725
 31
0.0
 12
8.882281305978867
 22
1.529709898068546
 32
0.0
 13
8.682662807831249
 23
1.29181383575286
 33
0.0
  0
SOLID
  5
547
330
52C
100
AcDbEntity
  8
SOLID
 62
     1
100
AcDbTrace
 10
8.450707960383251
 20
1.330656234914544
 30
0.0
 11
8.554319735831773
 21
1.454135940540385
 31
0.0
 12
8.54296402210531
 22
1.355376172149845
 32
0.0
 13
8.587597581722521
 23
1.439319688964547
 33
0.0
  0
SOLID
  5
548
330
52C
100
AcDbEntity
  8
SOLID
 62
     1
100
AcDbTrace
 10
8.389737606638517
 20
1.29181383575286
 30
0.0
 11
8.557720513467595
 21
1.336824719979944
 31
0.0
 12
8.415867758243402
 22
1.308460578250724
 32
0.0
 13
8.551396302883759
 23
1.344775342338473
 33
0.0
  0
SOLID
  5
549
330
52C
100
AcDbEntity
  8
SOLID
 62
     1
100
AcDbTrace
 10
8.107639476921409
 20
1.29181383575286
 30
0.0
 11
8.275622383750489
 21
1.336824719979944
 31
0.0
 12
8.133769628526296
 22
1.308460578250724
 32
0.0
 13
8.269298173166653
 23
1.344775342338473
 33
0.0
  0
SOLID
  5
54A
330
52C
100
AcDbEntity
  8
SOLID
 62
     1
100
AcDbTrace
 10
8.682662807831249
 20
1.29181383575286
 30
0.0
 11
8.850645714660327
 21
1.336824719979944
 31
0.0
 12
8.708792959436136
 22
1.308460578250725
 32
0.0
 13
8.844321504076491
 23
1.344775342338473
 33
0.0
  0
SOLID
  5
54B
330
52C
100
AcDbEntity
  8
SOLID
 62
     1
100
AcDbTrace
 10
8.208410376751436
 20
1.551448485838069
 30
0.0
 11
8.555567521771804
 21
1.644468962492971
 31
0.0
 12
8.506107656996745
 22
1.551448485838069
 32
0.0
 13
8.506107656996745
 23
1.551448485838069
 33
0.0
  0
SOLID
  5
54C
330
52C
100
AcDbEntity
  8
SOLID
 62
     1
100
AcDbTrace
 10
8.372583311609053
 20
1.539026435684056
 30
0.0
 11
8.609335484177783
 21
1.539026435684056
 31
0.0
 12
8.378181252167903
 22
1.529709898068546
 32
0.0
 13
8.589356104786135
 23
1.529709898068546
 33
0.0
  0
SOLID
  5
54D
330
52C
100
AcDbEntity
  8
SOLID
 62
     1
100
AcDbTrace
 10
8.572168427478533
 20
1.509226421888862
 30
0.0
 11
8.457090830046876
 21
1.473629191620975
 31
0.0
 12
8.577542130581782
 22
1.501136592315402
 32
0.0
 13
8.483530452159383
 23
1.472055733491771
 33
0.0
  0
SOLID
  5
54E
330
52C
100
AcDbEntity
  8
SOLID
 62
     1
100
AcDbTrace
 10
8.457090830046876
 20
1.473629191620975
 30
0.0
 11
8.519123822871026
 21
1.446010323780124
 31
0.0
 12
8.483530452159383
 22
1.472055733491771
 32
0.0
 13
8.53420778556849
 23
1.449492730963093
 33
0.0
  0
SOLID
  5
54F
330
52C
100
AcDbEntity
  8
SOLID
 62
     1
100
AcDbTrace
 10
8.492196428717766
 20
1.551448485838069
 30
0.0
 11
8.839353573738133
 21
1.644468962492971
 31
0.0
 12
8.789893708963075
 22
1.551448485838069
 32
0.0
 13
8.789893708963075
 23
1.551448485838069
 33
0.0
  0
SOLID
  5
550
330
52C
100
AcDbEntity
  8
SOLID
 62
     1
100
AcDbTrace
 10
8.710751962356022
 20
1.539026435684056
 30
0.0
 11
8.902260685370517
 21
1.539026435684056
 31
0.0
 12
8.71634990291487
 22
1.529709898068546
 32
0.0
 13
8.882281305978867
 23
1.529709898068546
 33
0.0
  0
SOLID
  5
551
330
52C
100
AcDbEntity
  8
SOLID
 62
     1
100
AcDbTrace
 10
8.551084307973546
 20
1.589732887642179
 30
0.0
 11
8.88201899275149
 21
1.678406569175877
 31
0.0
 12
8.532799128396392
 22
1.575188199063791
 32
0.0
 13
8.863733813174338
 23
1.663861880597489
 33
0.0
  0
SOLID
  5
552
330
52C
100
AcDbEntity
  8
SOLID
 62
     1
100
AcDbTrace
 10
8.532799128396392
 20
1.575188199063791
 30
0.0
 11
8.579947761208007
 21
1.663861880597489
 31
0.0
 12
8.551084307973546
 22
1.589732887642179
 32
0.0
 13
8.598232940785159
 23
1.678406569175877
 33
0.0
  0
SOLID
  5
553
330
52C
100
AcDbEntity
  8
SOLID
 62
     1
100
AcDbTrace
 10
8.593127360178915
 20
1.423260046220356
 30
0.0
 11
8.638464998265758
 21
1.403074429219956
 31
0.0
 12
8.597274694021209
 22
1.411215314162212
 32
0.0
 13
8.642612332108052
 23
1.391029697161812
 33
0.0
  0
SOLID
  5
554
330
52C
100
AcDbEntity
  8
SOLID
 62
     1
100
AcDbTrace
 10
8.518783281642729
 20
1.4699577893195
 30
0.0
 11
8.687749358113208
 21
1.522224472547337
 31
0.0
 12
8.632935219809365
 22
1.419134071964148
 32
0.0
 13
8.632935219809365
 23
1.419134071964148
 33
0.0
  0
SOLID
  5
555
330
52C
100
AcDbEntity
  8
SOLID
 62
     1
100
AcDbTrace
 10
8.584707068052781
 20
1.490350152884122
 30
0.0
 11
8.635974656699984
 21
1.551448485838069
 31
0.0
 12
8.620641230585929
 22
1.501465753893571
 32
0.0
 13
8.647217520581028
 23
1.551448485838069
 33
0.0
  0
SOLID
  5
556
330
52C
100
AcDbEntity
  8
SOLID
 62
     1
100
AcDbTrace
 10
8.589356104786135
 20
1.529709898068546
 30
0.0
 11
8.572168427478533
 21
1.509226421888862
 31
0.0
 12
8.609335484177783
 22
1.539026435684056
 32
0.0
 13
8.577542130581782
 23
1.501136592315402
 33
0.0
  0
SOLID
  5
557
330
52C
100
AcDbEntity
  8
SOLID
 62
     1
100
AcDbTrace
 10
8.638464998265758
 20
1.403074429219956
 30
0.0
 11
8.710751962356022
 21
1.539026435684056
 31
0.0
 12
8.642612332108052
 22
1.391029697161812
 32
0.0
 13
8.71634990291487
 23
1.529709898068546
 33
0.0
  0
SOLID
  5
558
330
52C
100
AcDbEntity
  8
SOLID
 62
     1
100
AcDbTrace
 10
8.645754237745254
 20
1.522236807647912
 30
0.0
 11
8.70003121496035
 21
1.539026435684056
 31
0.0
 12
8.654681441326159
 22
1.539026435684056
 32
0.0
 13
8.654681441326159
 23
1.539026435684056
 33
0.0
  0
SOLID
  5
559
330
52C
100
AcDbEntity
  8
SOLID
 62
     1
100
AcDbTrace
 10
8.816585180362723
 20
1.57518819906379
 30
0.0
 11
8.863733813174338
 21
1.663861880597489
 31
0.0
 12
8.834870359939877
 22
1.589732887642179
 32
0.0
 13
8.88201899275149
 23
1.678406569175877
 33
0.0
  0
LINE
  5
55A
330
52C
100
AcDbEntity
  8
TRIM
100
AcDbLine
 10
10.41999999853406
 20
1.780339596352224
 30
0.0
 11
10.41999999853406
 21
2.402499998273461
 31
0.0
  0
LINE
  5
55B
330
52C
100
AcDbEntity
  8
TRIM
100
AcDbLine
 10
9.212094455479999
 20
1.750339596352224
 30
0.0
 11
9.212094455480064
 21
0.3543154034249878
 31
0.0
  0
LINE
  5
55C
330
52C
100
AcDbEntity
  8
TRIM
100
AcDbLine
 10
10.41999999853406
 20
0.3543154034249873
 30
0.0
 11
10.41999999853406
 21
1.750339596352224
 31
0.0
  0
LINE
  5
55D
330
52C
100
AcDbEntity
  8
TRIM
100
AcDbLine
 10
9.212094455479999
 20
1.750339596352224
 30
0.0
 11
10.41999999853406
 21
1.750339596352224
 31
0.0
  0
LINE
  5
55E
330
52C
100
AcDbEntity
  8
TRIM
100
AcDbLine
 10
9.182094455479997
 20
1.780339596352224
 30
0.0
 11
10.41999999853406
 21
1.780339596352224
 31
0.0
  0
TEXT
  5
55F
330
52C
100
AcDbEntity
  8
DIM
100
AcDbText
 10
9.571579664239893
 20
1.615565403424988
 30
0.0
 40
0.09
  1
DATE
 41
0.9
 72
     1
 11
9.714293949954178
 21
1.615565403424988
 31
0.0
100
AcDbText
  0
LINE
  5
560
330
52C
100
AcDbEntity
  8
TRIM
100
AcDbLine
 10
9.994468264419049
 20
1.584315403424988
 30
0.0
 11
9.434119635489306
 21
1.584315403424988
 31
0.0
  0
LINE
  5
561
330
52C
100
AcDbEntity
  8
TRIM
100
AcDbLine
 10
10.41999999853406
 20
1.404315403424988
 30
0.0
 11
9.212094455480011
 21
1.404315403424988
 31
0.0
  0
LINE
  5
562
330
52C
100
AcDbEntity
  8
TRIM
100
AcDbLine
 10
9.434119635489306
 20
1.750339596352224
 30
0.0
 11
9.434119635489302
 21
0.6843154034249875
 31
0.0
  0
LINE
  5
563
330
52C
100
AcDbEntity
  8
TRIM
100
AcDbLine
 10
9.182094455479997
 20
1.780339596352224
 30
0.0
 11
9.182094455480022
 21
1.224315403424987
 31
0.0
  0
TEXT
  5
564
330
52C
100
AcDbEntity
  8
DIM
100
AcDbText
 10
9.227107045484656
 20
1.615565403424988
 30
0.0
 40
0.09
  1
REV
 41
0.8
 72
     1
 11
9.323107045484656
 21
1.615565403424988
 31
0.0
100
AcDbText
  0
LINE
  5
565
330
52C
100
AcDbEntity
  8
TRIM
100
AcDbLine
 10
9.434119635489306
 20
1.584315403424988
 30
0.0
 11
9.212094455480006
 21
1.584315403424988
 31
0.0
  0
SOLID
  5
566
330
52C
100
AcDbEntity
  8
SOLID
 62
     1
100
AcDbTrace
 10
9.086741622233388
 20
1.529709898068546
 30
0.0
 11
9.165805044717822
 21
1.678406569175877
 31
0.0
 12
9.081143681674539
 22
1.539026435684056
 32
0.0
 13
9.147519865140669
 23
1.663861880597488
 33
0.0
  0
SOLID
  5
567
330
52C
100
AcDbEntity
  8
SOLID
 62
     1
100
AcDbTrace
 10
8.953204583077742
 20
1.529709898068546
 30
0.0
 11
9.086741622233388
 21
1.529709898068546
 31
0.0
 12
8.947606642518891
 22
1.539026435684056
 32
0.0
 13
9.081143681674539
 23
1.539026435684056
 33
0.0
  0
LINE
  5
568
330
52C
100
AcDbEntity
  8
TRIM
100
AcDbLine
 10
9.994468264419047
 20
1.750339596352224
 30
0.0
 11
9.994468264419047
 21
0.684315403424987
 31
0.0
  0
TEXT
  5
569
330
52C
100
AcDbEntity
  8
DIM
100
AcDbText
 10
10.0105817160691
 20
1.615565403424988
 30
0.0
 40
0.09
  1
INITIALS
 41
0.8
 72
     1
 11
10.21115314464053
 21
1.615565403424988
 31
0.0
100
AcDbText
  0
LINE
  5
56A
330
52C
100
AcDbEntity
  8
TRIM
100
AcDbLine
 10
10.41999999853406
 20
1.584315403424988
 30
0.0
 11
9.994468264419049
 21
1.584315403424988
 31
0.0
  0
LINE
  5
56B
330
52C
100
AcDbEntity
  8
TRIM
100
AcDbLine
 10
0.0299999985341133
 20
0.3492358197914696
 30
0.0
 11
7.996999998534064
 21
0.3492358197914633
 31
0.0
  0
LINE
  5
56C
330
52C
100
AcDbEntity
  8
TRIM
100
AcDbLine
 10
0.0299999985340644
 20
0.6384716413094696
 30
0.0
 11
7.996999998534064
 21
0.6384716413094634
 31
0.0
  0
LINE
  5
56D
330
52C
100
AcDbEntity
  8
TRIM
100
AcDbLine
 10
-0.0000000014659349
 20
-0.000000001726538
 30
0.0
 11
10.44999999853406
 21
-0.0000000017265371
 31
0.0
  0
LINE
  5
56E
330
52C
100
AcDbEntity
  8
TRIM
100
AcDbLine
 10
0.0299999985340644
 20
0.3192358197914693
 30
0.0
 11
7.996999998534064
 21
0.3192358197914626
 31
0.0
  0
LINE
  5
56F
330
52C
100
AcDbEntity
  8
TRIM
100
AcDbLine
 10
0.0299999985341133
 20
0.0299999982734693
 30
0.0
 11
7.996999998534064
 21
0.0299999982734627
 31
0.0
  0
LINE
  5
570
330
52C
100
AcDbEntity
  8
TRIM
100
AcDbLine
 10
0.0299999985340652
 20
0.9877074628274646
 30
0.0
 11
4.123749998534062
 21
0.9877074628274638
 31
0.0
  0
LINE
  5
571
330
52C
100
AcDbEntity
  8
TRIM
100
AcDbLine
 10
0.0299999985341142
 20
0.9577074628274647
 30
0.0
 11
3.312499998534065
 21
0.9577074628274647
 31
0.0
  0
LINE
  5
572
330
52C
100
AcDbEntity
  8
TRIM
100
AcDbLine
 10
0.0299999985340644
 20
0.6684716413094645
 30
0.0
 11
3.312499998534113
 21
0.6684716413094645
 31
0.0
  0
TEXT
  5
573
330
52C
100
AcDbEntity
  8
TRIM
100
AcDbText
 10
0.1075473542991792
 20
0.4200287859488796
 30
0.0
 40
0.14
  1
DESCRIPTION:
 41
0.9
  7
SIMPLEX
100
AcDbText
  0
TEXT
  5
574
330
52C
100
AcDbEntity
  8
TRIM
100
AcDbText
 10
0.1075473542991792
 20
0.1075287859488796
 30
0.0
 40
0.14
  1
EXTRA DESC:
 41
0.9
  7
SIMPLEX
100
AcDbText
  0
TEXT
  5
575
330
52C
100
AcDbEntity
  8
TRIM
100
AcDbText
 10
0.1101805216547635
 20
0.7431394110287762
 30
0.0
 40
0.14
  1
PART NUMBER:
 41
0.8
  7
SIMPLEX
100
AcDbText
  0
LINE
  5
576
330
52C
100
AcDbEntity
  8
TRIM
100
AcDbLine
 10
0.0299999985340644
 20
0.6384716413094696
 30
0.0
 11
0.0299999985341133
 21
0.3492358197914696
 31
0.0
  0
LINE
  5
577
330
52C
100
AcDbEntity
  8
TRIM
100
AcDbLine
 10
0.0299999985340644
 20
0.3192358197914693
 30
0.0
 11
0.0299999985341133
 21
0.0299999982734693
 31
0.0
  0
LINE
  5
578
330
52C
100
AcDbEntity
  8
TRIM
100
AcDbLine
 10
0.0299999985340653
 20
0.9577074628274653
 30
0.0
 11
0.0299999985340644
 21
0.6684716413094645
 31
0.0
  0
LINE
  5
579
330
52C
100
AcDbEntity
  8
TRIM
100
AcDbLine
 10
3.342499998534066
 20
0.9577074628274647
 30
0.0
 11
4.093749998534065
 21
0.9577074628274647
 31
0.0
  0
TEXT
  5
57A
330
52C
100
AcDbEntity
  8
DIM
 62
     1
100
AcDbText
 10
3.539702379486445
 20
0.8537499982734622
 30
0.0
 40
0.08
  1
SHEET
 72
     1
 11
3.718749998534065
 21
0.8537499982734622
 31
0.0
100
AcDbText
  0
LINE
  5
57B
330
52C
100
AcDbEntity
  8
TRIM
100
AcDbLine
 10
3.342499998534066
 20
0.9577074628274647
 30
0.0
 11
3.342499998534113
 21
0.6684716413094672
 31
0.0
  0
LINE
  5
57C
330
52C
100
AcDbEntity
  8
TRIM
100
AcDbLine
 10
3.312499998534065
 20
0.9577074628274644
 30
0.0
 11
3.312499998534113
 21
0.6684716413094645
 31
0.0
  0
LINE
  5
57D
330
52C
100
AcDbEntity
  8
TRIM
100
AcDbLine
 10
4.123749998534062
 20
0.9877074628274638
 30
0.0
 11
4.123749998534114
 21
0.6684716413094672
 31
0.0
  0
LINE
  5
57E
330
52C
100
AcDbEntity
  8
TRIM
100
AcDbLine
 10
4.093749998534065
 20
0.9577074628274647
 30
0.0
 11
4.093749998534113
 21
0.6684716413094645
 31
0.0
  0
LINE
  5
57F
330
52C
100
AcDbEntity
  8
TRIM
100
AcDbLine
 10
4.123749998534114
 20
0.6684716413094663
 30
0.0
 11
7.996999998534064
 21
0.6684716413094632
 31
0.0
  0
LINE
  5
580
330
52C
100
AcDbEntity
  8
TRIM
100
AcDbLine
 10
9.182094455480024
 20
1.224315403424987
 30
0.0
 11
8.026999998534062
 21
1.224315403424987
 31
0.0
  0
TEXT
  5
581
330
52C
100
AcDbEntity
  8
DIM
100
AcDbText
 10
8.043249998534063
 20
0.2653392262302923
 30
0.0
 40
0.056
  1
DIMENSIONS IN 'INCHES' UNLESS SPECIFIED OTHERWISE
100
AcDbText
  0
LINE
  5
582
330
52C
100
AcDbEntity
  8
TRIM
100
AcDbLine
 10
9.182094455480005
 20
1.044315403424988
 30
0.0
 11
8.026999998534051
 21
1.044315403424987
 31
0.0
  0
LINE
  5
583
330
52C
100
AcDbEntity
  8
TRIM
100
AcDbLine
 10
9.182094455480024
 20
1.194315403424987
 30
0.0
 11
8.026999998534066
 21
1.194315403424987
 31
0.0
  0
LINE
  5
584
330
52C
100
AcDbEntity
  8
TRIM
100
AcDbLine
 10
8.026999998534064
 20
0.0749999982734631
 30
0.0
 11
10.41999999853406
 21
0.0749999982734622
 31
0.0
  0
LINE
  5
585
330
52C
100
AcDbEntity
  8
TRIM
100
AcDbLine
 10
8.026999998534064
 20
0.2249999982734629
 30
0.0
 11
10.41999999853406
 21
0.2249999982734625
 31
0.0
  0
TEXT
  5
586
330
52C
100
AcDbEntity
  8
TRIM
100
AcDbText
 10
8.074563651603105
 20
0.5810145276027239
 30
0.0
 40
0.07
  1
PRINT APPROVED
 41
1.058889550608496
  7
SIMPLEX
 72
     5
 11
9.02403461531539
 21
0.5810145276027239
 31
0.0
100
AcDbText
  0
LINE
  5
587
330
52C
100
AcDbEntity
  8
TRIM
100
AcDbLine
 10
9.182094455480063
 20
0.3543154034249878
 30
0.0
 11
8.026999998534064
 21
0.3543154034249878
 31
0.0
  0
LINE
  5
588
330
52C
100
AcDbEntity
  8
TRIM
 62
     2
100
AcDbLine
 10
9.182094455480012
 20
0.8643154034249874
 30
0.0
 11
8.026999998534064
 21
0.8643154034249874
 31
0.0
  0
LINE
  5
589
330
52C
100
AcDbEntity
  8
TRIM
100
AcDbLine
 10
9.182094455480017
 20
0.6843154034249875
 30
0.0
 11
8.026999998534064
 21
0.684315403424987
 31
0.0
  0
LINE
  5
58A
330
52C
100
AcDbEntity
  8
TRIM
 62
     2
100
AcDbLine
 10
9.182094455480024
 20
0.5457609724770878
 30
0.0
 11
8.026999998534064
 21
0.5457609724770878
 31
0.0
  0
LINE
  5
58B
330
52C
100
AcDbEntity
  8
TRIM
100
AcDbLine
 10
9.182094455480031
 20
0.3543154034249873
 30
0.0
 11
8.026999998534064
 21
0.3543154034249873
 31
0.0
  0
LINE
  5
58C
330
52C
100
AcDbEntity
  8
TRIM
100
AcDbLine
 10
7.996999998534064
 20
0.3492358197914598
 30
0.0
 11
7.996999998534064
 21
0.6384716413094598
 31
0.0
  0
LINE
  5
58D
330
52C
100
AcDbEntity
  8
TRIM
100
AcDbLine
 10
8.026999998534064
 20
0.3543154034249878
 30
0.0
 11
8.026999998534064
 21
0.864315403424988
 31
0.0
  0
TEXT
  5
58E
330
52C
100
AcDbEntity
  8
TRIM
100
AcDbText
 10
8.062499998534065
 20
0.1099999982734623
 30
0.0
 40
0.08
  1
FILE:
  7
SIMPLEX
100
AcDbText
  0
LINE
  5
58F
330
52C
100
AcDbEntity
  8
TRIM
100
AcDbLine
 10
8.026999998534064
 20
0.0749999982734653
 30
0.0
 11
8.099999998534064
 21
0.0749999982734648
 31
0.0
  0
LINE
  5
590
330
52C
100
AcDbEntity
  8
TRIM
100
AcDbLine
 10
8.026999998534064
 20
0.0749999982734622
 30
0.0
 11
8.026999998534064
 21
0.2249999982734629
 31
0.0
  0
LINE
  5
591
330
52C
100
AcDbEntity
  8
TRIM
100
AcDbLine
 10
7.996999998534064
 20
0.0299999982734596
 30
0.0
 11
7.996999998534064
 21
0.3192358197914595
 31
0.0
  0
TEXT
  5
592
330
52C
100
AcDbEntity
  8
TRIM
100
AcDbText
 10
8.074563651603092
 20
0.8995689585506237
 30
0.0
 40
0.07
  1
PRINT DRAWN
 41
1.047995828933662
  7
SIMPLEX
 72
     5
 11
8.811654051286435
 21
0.8995689585506237
 31
0.0
100
AcDbText
  0
TEXT
  5
593
330
52C
100
AcDbEntity
  8
TRIM
100
AcDbText
 10
8.074583587926003
 20
1.067921744520258
 30
0.0
 40
0.09
  1
SCALE:
  7
SIMPLEX
100
AcDbText
  0
LINE
  5
594
330
52C
100
AcDbEntity
  8
TRIM
100
AcDbLine
 10
8.026999998534064
 20
0.864315403424988
 30
0.0
 11
8.026999998534064
 21
1.194315403424987
 31
0.0
  0
LINE
  5
595
330
52C
100
AcDbEntity
  8
TRIM
100
AcDbLine
 10
10.41999999853406
 20
0.3543154034249873
 30
0.0
 11
9.212094455480064
 21
0.3543154034249878
 31
0.0
  0
LINE
  5
596
330
52C
100
AcDbEntity
  8
TRIM
100
AcDbLine
 10
10.41999999853406
 20
0.0749999982734622
 30
0.0
 11
10.41999999853406
 21
0.2249999982734625
 31
0.0
  0
LINE
  5
597
330
52C
100
AcDbEntity
  8
TRIM
100
AcDbLine
 10
10.41999999853406
 20
0.684315403424987
 30
0.0
 11
9.212094455480039
 21
0.6843154034249875
 31
0.0
  0
LINE
  5
598
330
52C
100
AcDbEntity
  8
TRIM
100
AcDbLine
 10
10.41999999853406
 20
0.8643154034249874
 30
0.0
 11
9.212094455480032
 21
0.8643154034249874
 31
0.0
  0
LINE
  5
599
330
52C
100
AcDbEntity
  8
TRIM
100
AcDbLine
 10
10.41999999853406
 20
1.044315403424987
 30
0.0
 11
9.212094455480025
 21
1.044315403424988
 31
0.0
  0
LINE
  5
59A
330
52C
100
AcDbEntity
  8
TRIM
100
AcDbLine
 10
10.41999999853406
 20
1.224315403424987
 30
0.0
 11
9.212094455480018
 21
1.224315403424987
 31
0.0
  0
TEXT
  5
59B
330
52C
100
AcDbEntity
  8
TRIM
100
AcDbText
 10
9.277645854177304
 20
0.5810145276027239
 30
0.0
 40
0.07
  1
DESIGN ENGINEER
  7
SIMPLEX
100
AcDbText
  0
LINE
  5
59C
330
52C
100
AcDbEntity
  8
TRIM
 62
     2
100
AcDbLine
 10
10.41418891242604
 20
0.5457609724770874
 30
0.0
 11
9.212094455480064
 21
0.5457609724770878
 31
0.0
  0
LINE
  5
59D
330
52C
100
AcDbEntity
  8
TRIM
100
AcDbLine
 10
9.182094455480024
 20
1.194315403424987
 30
0.0
 11
9.182094455480063
 21
0.3543154034249878
 31
0.0
  0
LINE
  5
59E
330
52C
100
AcDbEntity
  8
TRIM
 62
     2
100
AcDbLine
 10
8.736598446570452
 20
0.5457609724770878
 30
0.0
 11
8.73659844657045
 21
0.3543154034249878
 31
0.0
  0
LINE
  5
59F
330
52C
100
AcDbEntity
  8
TRIM
 62
     2
100
AcDbLine
 10
8.736598446570452
 20
0.8643154034249874
 30
0.0
 11
8.736598446570452
 21
0.6843154034249875
 31
0.0
  0
LINE
  5
5A0
330
52C
100
AcDbEntity
  8
TRIM
100
AcDbLine
 10
3.342499998534113
 20
0.6684716413094672
 30
0.0
 11
4.093749998534113
 21
0.6684716413094663
 31
0.0
  0
ENDBLK
  5
5A2
330
52C
100
AcDbEntity
  8
0
100
AcDbBlockEnd
  0
BLOCK
  5
5A5
330
5A3
100
AcDbEntity
  8
0
100
AcDbBlockBegin
  2
A$C4FB65283
 70
     2
 10
0.0
 20
0.0
 30
0.0
  3
A$C4FB65283
  1

  0
ATTDEF
  5
5A4
330
5A3
100
AcDbEntity
  8
DIM
100
AcDbText
 10
0.0000000025669991
 20
0.0433333427455174
 30
0.0
 40
0.13
  1

  7
SIMPLEX
100
AcDbAttributeDefinition
  3
PART_#
  2
PART_#
 70
     0
  0
ENDBLK
  5
5A6
330
5A3
100
AcDbEntity
  8
0
100
AcDbBlockEnd
  0
BLOCK
  5
5A9
330
5A7
100
AcDbEntity
  8
0
100
AcDbBlockBegin
  2
A$C2BBE0097
 70
     2
 10
0.0
 20
0.0
 30
0.0
  3
A$C2BBE0097
  1

  0
ATTDEF
  5
5A8
330
5A7
100
AcDbEntity
  8
DIM
100
AcDbText
 10
0.0000000025669991
 20
0.0123809372330444
 30
0.0
 40
0.13
  1

  7
SIMPLEX
100
AcDbAttributeDefinition
  3
PART_DESCRIPTION
  2
PART_DESCRIPTION
 70
     0
  0
ENDBLK
  5
5AA
330
5A7
100
AcDbEntity
  8
0
100
AcDbBlockEnd
  0
BLOCK
  5
5AD
330
5AB
100
AcDbEntity
  8
0
100
AcDbBlockBegin
  2
A$C10236829
 70
     2
 10
0.0
 20
0.0
 30
0.0
  3
A$C10236829
  1

  0
ATTDEF
  5
5AC
330
5AB
100
AcDbEntity
  8
DIM
100
AcDbText
 10
0.0000000025669991
 20
0.0123809528212267
 30
0.0
 40
0.13
  1

  7
SIMPLEX
100
AcDbAttributeDefinition
  3
EXTRA_DESCRIPTION
  2
EXTRA_DESCRIPTION
 70
     0
  0
ENDBLK
  5
5AE
330
5AB
100
AcDbEntity
  8
0
100
AcDbBlockEnd
  0
BLOCK
  5
5B1
330
5AF
100
AcDbEntity
  8
0
100
AcDbBlockBegin
  2
A$C794932C0
 70
     2
 10
0.0
 20
0.0
 30
0.0
  3
A$C794932C0
  1

  0
ATTDEF
  5
5B0
330
5AF
100
AcDbEntity
  8
DIM
100
AcDbText
 10
0.2238095347306626
 20
0.0499999881906419
 30
0.0
 40
0.1
  1

  7
SIMPLEX
 72
     4
 11
0.2238095347306626
 21
0.0499999881906419
 31
0.0
100
AcDbAttributeDefinition
  3
SHEET
  2
SHEET
 70
     0
  0
ENDBLK
  5
5B2
330
5AF
100
AcDbEntity
  8
0
100
AcDbBlockEnd
  0
BLOCK
  5
62F
330
5B3
100
AcDbEntity
  8
0
100
AcDbBlockBegin
  2
TEST
 70
     2
 10
0.0
 20
0.0
 30
0.0
  3
TEST
  1

  0
INSERT
  5
5B4
330
5B3
100
AcDbEntity
  8
DIM
100
AcDbBlockReference
 66
     1
  2
A$C4FB65283
 10
0.9375
 20
-0.9375
 30
0.0
  0
ATTRIB
  5
5B5
330
5B4
100
AcDbEntity
  8
DIM
100
AcDbText
 10
0.937500002566999
 20
-0.8941666572544825
 30
0.0
 40
0.13
  1

  7
SIMPLEX
100
AcDbAttribute
  2
PART_#
 70
     0
  0
SEQEND
  5
5B6
330
5B4
100
AcDbEntity
  8
DIM
  0
LINE
  5
5B7
330
5B3
100
AcDbEntity
  8
TRIM
100
AcDbLine
 10
10.66999999853406
 20
8.11999999827346
 30
0.0
 11
0.2799999985340644
 21
8.11999999827346
 31
0.0
  0
LINE
  5
5B8
330
5B3
100
AcDbEntity
  8
TRIM
100
AcDbLine
 10
0.2499999985340655
 20
8.149999998273461
 30
0.0
 11
10.69999999853406
 21
8.149999998273461
 31
0.0
  0
LINE
  5
5B9
330
5B3
100
AcDbEntity
  8
TRIM
100
AcDbLine
 10
0.2799999985340644
 20
8.11999999827346
 30
0.0
 11
0.2799999985340651
 21
1.237707462827464
 31
0.0
  0
LINE
  5
5BA
330
5B3
100
AcDbEntity
  8
TRIM
100
AcDbLine
 10
0.2499999985340651
 20
8.149999998273461
 30
0.0
 11
0.2499999985340651
 21
0.249999998273462
 31
0.0
  0
LINE
  5
5BB
330
5B3
100
AcDbEntity
  8
TRIM
100
AcDbLine
 10
10.66999999853406
 20
2.682499998273461
 30
0.0
 11
10.66999999853406
 21
8.119999998273458
 31
0.0
  0
LINE
  5
5BC
330
5B3
100
AcDbEntity
  8
TRIM
100
AcDbLine
 10
10.69999999853406
 20
0.2499999982734593
 30
0.0
 11
10.69999999853406
 21
8.149999998273459
 31
0.0
  0
SOLID
  5
5BD
330
5B3
100
AcDbEntity
  8
SOLID
 62
     1
100
AcDbTrace
 10
9.100645714660327
 20
1.586824719979944
 30
0.0
 11
9.203204583077742
 21
1.779709898068546
 31
0.0
 12
9.094321504076491
 22
1.594775342338473
 32
0.0
 13
9.197606642518891
 23
1.789026435684056
 33
0.0
  0
SOLID
  5
5BE
330
5B3
100
AcDbEntity
  8
SOLID
 62
     1
100
AcDbTrace
 10
8.993633161575985
 20
1.580656234914544
 30
0.0
 11
9.178899857892716
 21
1.80144848583807
 31
0.0
 12
9.085889223298043
 22
1.605376172149846
 32
0.0
 13
9.19014272177376
 23
1.80144848583807
 33
0.0
  0
SOLID
  5
5BF
330
5B3
100
AcDbEntity
  8
SOLID
 62
     1
100
AcDbTrace
 10
9.025982480684099
 20
1.801448485838069
 30
0.0
 11
9.373139625704464
 21
1.894468962492971
 31
0.0
 12
9.323679760929408
 22
1.801448485838069
 32
0.0
 13
9.323679760929408
 23
1.801448485838069
 33
0.0
  0
SOLID
  5
5C0
330
5B3
100
AcDbEntity
  8
SOLID
 62
     1
100
AcDbTrace
 10
9.066585180362723
 20
1.82518819906379
 30
0.0
 11
9.397519865140669
 21
1.913861880597488
 31
0.0
 12
9.084870359939877
 22
1.839732887642179
 32
0.0
 13
9.415805044717822
 23
1.928406569175877
 33
0.0
  0
LINE
  5
5C1
330
5B3
100
AcDbEntity
  8
TRIM
100
AcDbLine
 10
10.66999999853406
 20
2.652499998273461
 30
0.0
 11
8.276999998534064
 21
2.652499998273462
 31
0.0
  0
TEXT
  5
5C2
330
5B3
100
AcDbEntity
  8
TRIM
100
AcDbText
 10
8.343749998534065
 20
2.482876334230538
 30
0.0
 40
0.1
  1
TASK FORCE TIPS, INC.
 51
10.0
  7
ROMAND
100
AcDbText
  0
TEXT
  5
5C3
330
5B3
100
AcDbEntity
  8
TRIM
100
AcDbText
 10
8.378853318574009
 20
2.045200536343402
 30
0.0
 40
0.09
  1
219-462-6161
  7
SIMPLEX
100
AcDbText
  0
TEXT
  5
5C4
330
5B3
100
AcDbEntity
  8
TRIM
 62
     2
100
AcDbText
 10
8.378853318574009
 20
2.195864616217594
 30
0.0
 40
0.09
  1
VALPARAISO, IN 46383
  7
SIMPLEX
100
AcDbText
  0
TEXT
  5
5C5
330
5B3
100
AcDbEntity
  8
TRIM
 62
     2
100
AcDbText
 10
8.378853318574009
 20
2.340582801482295
 30
0.0
 40
0.09
  1
2800 E. EVANS AVE.
  7
SIMPLEX
100
AcDbText
  0
LINE
  5
5C6
330
5B3
100
AcDbEntity
  8
TRIM
100
AcDbLine
 10
10.66999999853406
 20
2.682499998273461
 30
0.0
 11
8.246999998534068
 21
2.682499998273462
 31
0.0
  0
LINE
  5
5C7
330
5B3
100
AcDbEntity
  8
TRIM
100
AcDbLine
 10
8.276999998534062
 20
1.474315403424987
 30
0.0
 11
8.276999998534064
 21
2.652499998273462
 31
0.0
  0
LINE
  5
5C8
330
5B3
100
AcDbEntity
  8
TRIM
100
AcDbLine
 10
8.246999998534064
 20
0.9184716413094635
 30
0.0
 11
8.246999998534068
 21
2.682499998273462
 31
0.0
  0
SOLID
  5
5C9
330
5B3
100
AcDbEntity
  8
SOLID
 62
     1
100
AcDbTrace
 10
8.293289409296239
 20
1.779709898068546
 30
0.0
 11
8.557257975069029
 21
1.779709898068546
 31
0.0
 12
8.364055538205608
 22
1.789026435684056
 32
0.0
 13
8.577237354460679
 23
1.789026435684056
 33
0.0
  0
SOLID
  5
5CA
330
5B3
100
AcDbEntity
  8
SOLID
 62
     1
100
AcDbTrace
 10
8.293289409296239
 20
1.779709898068546
 30
0.0
 11
8.848232940785159
 21
1.928406569175877
 31
0.0
 12
8.364055538205608
 22
1.789026435684056
 32
0.0
 13
8.829947761208007
 23
1.913861880597489
 33
0.0
  0
SOLID
  5
5CB
330
5B3
100
AcDbEntity
  8
SOLID
 62
     1
100
AcDbTrace
 10
8.418609830666147
 20
1.580656234914544
 30
0.0
 11
8.603876526982878
 21
1.801448485838069
 31
0.0
 12
8.510865892388205
 22
1.605376172149845
 32
0.0
 13
8.615119390863922
 23
1.801448485838069
 33
0.0
  0
SOLID
  5
5CC
330
5B3
100
AcDbEntity
  8
SOLID
 62
     1
100
AcDbTrace
 10
8.357639476921409
 20
1.54181383575286
 30
0.0
 11
8.557257975069029
 21
1.779709898068546
 31
0.0
 12
8.383769628526296
 22
1.558460578250724
 32
0.0
 13
8.577237354460679
 23
1.789026435684056
 33
0.0
  0
SOLID
  5
5CD
330
5B3
100
AcDbEntity
  8
SOLID
 62
     1
100
AcDbTrace
 10
8.519298173166653
 20
1.594775342338473
 30
0.0
 11
8.622583311609053
 21
1.789026435684056
 31
0.0
 12
8.525622383750489
 22
1.586824719979944
 32
0.0
 13
8.628181252167903
 23
1.779709898068546
 33
0.0
  0
SOLID
  5
5CE
330
5B3
100
AcDbEntity
  8
SOLID
 62
     1
100
AcDbTrace
 10
8.769123822871026
 20
1.696010323780124
 30
0.0
 11
8.639737606638517
 21
1.54181383575286
 31
0.0
 12
8.78420778556849
 22
1.699492730963093
 32
0.0
 13
8.665867758243402
 23
1.558460578250724
 33
0.0
  0
SOLID
  5
5CF
330
5B3
100
AcDbEntity
  8
SOLID
 62
     1
100
AcDbTrace
 10
8.807720513467595
 20
1.586824719979944
 30
0.0
 11
8.847274694021209
 21
1.661215314162212
 31
0.0
 12
8.801396302883759
 22
1.594775342338473
 32
0.0
 13
8.843127360178915
 23
1.673260046220356
 33
0.0
  0
SOLID
  5
5D0
330
5B3
100
AcDbEntity
  8
SOLID
 62
     1
100
AcDbTrace
 10
9.152260685370517
 20
1.789026435684056
 30
0.0
 11
8.958792959436136
 21
1.558460578250725
 31
0.0
 12
9.132281305978867
 22
1.779709898068546
 32
0.0
 13
8.932662807831249
 23
1.54181383575286
 33
0.0
  0
SOLID
  5
5D1
330
5B3
100
AcDbEntity
  8
SOLID
 62
     1
100
AcDbTrace
 10
8.700707960383251
 20
1.580656234914544
 30
0.0
 11
8.804319735831773
 21
1.704135940540385
 31
0.0
 12
8.79296402210531
 22
1.605376172149845
 32
0.0
 13
8.837597581722521
 23
1.689319688964547
 33
0.0
  0
SOLID
  5
5D2
330
5B3
100
AcDbEntity
  8
SOLID
 62
     1
100
AcDbTrace
 10
8.639737606638517
 20
1.54181383575286
 30
0.0
 11
8.807720513467595
 21
1.586824719979944
 31
0.0
 12
8.665867758243402
 22
1.558460578250724
 32
0.0
 13
8.801396302883759
 23
1.594775342338473
 33
0.0
  0
SOLID
  5
5D3
330
5B3
100
AcDbEntity
  8
SOLID
 62
     1
100
AcDbTrace
 10
8.357639476921409
 20
1.54181383575286
 30
0.0
 11
8.525622383750489
 21
1.586824719979944
 31
0.0
 12
8.383769628526296
 22
1.558460578250724
 32
0.0
 13
8.519298173166653
 23
1.594775342338473
 33
0.0
  0
SOLID
  5
5D4
330
5B3
100
AcDbEntity
  8
SOLID
 62
     1
100
AcDbTrace
 10
8.932662807831249
 20
1.54181383575286
 30
0.0
 11
9.100645714660327
 21
1.586824719979944
 31
0.0
 12
8.958792959436136
 22
1.558460578250725
 32
0.0
 13
9.094321504076491
 23
1.594775342338473
 33
0.0
  0
SOLID
  5
5D5
330
5B3
100
AcDbEntity
  8
SOLID
 62
     1
100
AcDbTrace
 10
8.458410376751436
 20
1.801448485838069
 30
0.0
 11
8.805567521771804
 21
1.894468962492971
 31
0.0
 12
8.756107656996745
 22
1.801448485838069
 32
0.0
 13
8.756107656996745
 23
1.801448485838069
 33
0.0
  0
SOLID
  5
5D6
330
5B3
100
AcDbEntity
  8
SOLID
 62
     1
100
AcDbTrace
 10
8.622583311609053
 20
1.789026435684056
 30
0.0
 11
8.859335484177783
 21
1.789026435684056
 31
0.0
 12
8.628181252167903
 22
1.779709898068546
 32
0.0
 13
8.839356104786135
 23
1.779709898068546
 33
0.0
  0
SOLID
  5
5D7
330
5B3
100
AcDbEntity
  8
SOLID
 62
     1
100
AcDbTrace
 10
8.822168427478533
 20
1.759226421888862
 30
0.0
 11
8.707090830046876
 21
1.723629191620975
 31
0.0
 12
8.827542130581782
 22
1.751136592315402
 32
0.0
 13
8.733530452159383
 23
1.722055733491771
 33
0.0
  0
SOLID
  5
5D8
330
5B3
100
AcDbEntity
  8
SOLID
 62
     1
100
AcDbTrace
 10
8.707090830046876
 20
1.723629191620975
 30
0.0
 11
8.769123822871026
 21
1.696010323780124
 31
0.0
 12
8.733530452159383
 22
1.722055733491771
 32
0.0
 13
8.78420778556849
 23
1.699492730963093
 33
0.0
  0
SOLID
  5
5D9
330
5B3
100
AcDbEntity
  8
SOLID
 62
     1
100
AcDbTrace
 10
8.742196428717766
 20
1.801448485838069
 30
0.0
 11
9.089353573738133
 21
1.894468962492971
 31
0.0
 12
9.039893708963075
 22
1.801448485838069
 32
0.0
 13
9.039893708963075
 23
1.801448485838069
 33
0.0
  0
SOLID
  5
5DA
330
5B3
100
AcDbEntity
  8
SOLID
 62
     1
100
AcDbTrace
 10
8.960751962356022
 20
1.789026435684056
 30
0.0
 11
9.152260685370517
 21
1.789026435684056
 31
0.0
 12
8.96634990291487
 22
1.779709898068546
 32
0.0
 13
9.132281305978867
 23
1.779709898068546
 33
0.0
  0
SOLID
  5
5DB
330
5B3
100
AcDbEntity
  8
SOLID
 62
     1
100
AcDbTrace
 10
8.801084307973546
 20
1.839732887642179
 30
0.0
 11
9.13201899275149
 21
1.928406569175877
 31
0.0
 12
8.782799128396392
 22
1.825188199063791
 32
0.0
 13
9.113733813174338
 23
1.913861880597489
 33
0.0
  0
SOLID
  5
5DC
330
5B3
100
AcDbEntity
  8
SOLID
 62
     1
100
AcDbTrace
 10
8.782799128396392
 20
1.825188199063791
 30
0.0
 11
8.829947761208007
 21
1.913861880597489
 31
0.0
 12
8.801084307973546
 22
1.839732887642179
 32
0.0
 13
8.848232940785159
 23
1.928406569175877
 33
0.0
  0
SOLID
  5
5DD
330
5B3
100
AcDbEntity
  8
SOLID
 62
     1
100
AcDbTrace
 10
8.843127360178915
 20
1.673260046220356
 30
0.0
 11
8.888464998265758
 21
1.653074429219956
 31
0.0
 12
8.847274694021209
 22
1.661215314162212
 32
0.0
 13
8.892612332108052
 23
1.641029697161812
 33
0.0
  0
SOLID
  5
5DE
330
5B3
100
AcDbEntity
  8
SOLID
 62
     1
100
AcDbTrace
 10
8.768783281642729
 20
1.7199577893195
 30
0.0
 11
8.937749358113208
 21
1.772224472547337
 31
0.0
 12
8.882935219809365
 22
1.669134071964148
 32
0.0
 13
8.882935219809365
 23
1.669134071964148
 33
0.0
  0
SOLID
  5
5DF
330
5B3
100
AcDbEntity
  8
SOLID
 62
     1
100
AcDbTrace
 10
8.834707068052781
 20
1.740350152884122
 30
0.0
 11
8.885974656699984
 21
1.801448485838069
 31
0.0
 12
8.870641230585929
 22
1.751465753893571
 32
0.0
 13
8.897217520581028
 23
1.801448485838069
 33
0.0
  0
SOLID
  5
5E0
330
5B3
100
AcDbEntity
  8
SOLID
 62
     1
100
AcDbTrace
 10
8.839356104786135
 20
1.779709898068546
 30
0.0
 11
8.822168427478533
 21
1.759226421888862
 31
0.0
 12
8.859335484177783
 22
1.789026435684056
 32
0.0
 13
8.827542130581782
 23
1.751136592315402
 33
0.0
  0
SOLID
  5
5E1
330
5B3
100
AcDbEntity
  8
SOLID
 62
     1
100
AcDbTrace
 10
8.888464998265758
 20
1.653074429219956
 30
0.0
 11
8.960751962356022
 21
1.789026435684056
 31
0.0
 12
8.892612332108052
 22
1.641029697161812
 32
0.0
 13
8.96634990291487
 23
1.779709898068546
 33
0.0
  0
SOLID
  5
5E2
330
5B3
100
AcDbEntity
  8
SOLID
 62
     1
100
AcDbTrace
 10
8.895754237745254
 20
1.772236807647912
 30
0.0
 11
8.95003121496035
 21
1.789026435684056
 31
0.0
 12
8.904681441326159
 22
1.789026435684056
 32
0.0
 13
8.904681441326159
 23
1.789026435684056
 33
0.0
  0
SOLID
  5
5E3
330
5B3
100
AcDbEntity
  8
SOLID
 62
     1
100
AcDbTrace
 10
9.066585180362723
 20
1.82518819906379
 30
0.0
 11
9.113733813174338
 21
1.913861880597489
 31
0.0
 12
9.084870359939877
 22
1.839732887642179
 32
0.0
 13
9.13201899275149
 23
1.928406569175877
 33
0.0
  0
LINE
  5
5E4
330
5B3
100
AcDbEntity
  8
TRIM
100
AcDbLine
 10
10.66999999853406
 20
2.030339596352224
 30
0.0
 11
10.66999999853406
 21
2.652499998273461
 31
0.0
  0
LINE
  5
5E5
330
5B3
100
AcDbEntity
  8
TRIM
100
AcDbLine
 10
9.462094455479999
 20
2.000339596352224
 30
0.0
 11
9.462094455480064
 21
0.6043154034249878
 31
0.0
  0
LINE
  5
5E6
330
5B3
100
AcDbEntity
  8
TRIM
100
AcDbLine
 10
10.66999999853406
 20
0.6043154034249874
 30
0.0
 11
10.66999999853406
 21
2.000339596352224
 31
0.0
  0
LINE
  5
5E7
330
5B3
100
AcDbEntity
  8
TRIM
100
AcDbLine
 10
9.462094455479999
 20
2.000339596352224
 30
0.0
 11
10.66999999853406
 21
2.000339596352224
 31
0.0
  0
LINE
  5
5E8
330
5B3
100
AcDbEntity
  8
TRIM
100
AcDbLine
 10
9.432094455479997
 20
2.030339596352224
 30
0.0
 11
10.66999999853406
 21
2.030339596352224
 31
0.0
  0
TEXT
  5
5E9
330
5B3
100
AcDbEntity
  8
DIM
100
AcDbText
 10
9.821579664239893
 20
1.865565403424988
 30
0.0
 40
0.09
  1
DATE
 41
0.9
 72
     1
 11
9.964293949954178
 21
1.865565403424988
 31
0.0
100
AcDbText
  0
LINE
  5
5EA
330
5B3
100
AcDbEntity
  8
TRIM
100
AcDbLine
 10
10.24446826441905
 20
1.834315403424988
 30
0.0
 11
9.684119635489306
 21
1.834315403424988
 31
0.0
  0
LINE
  5
5EB
330
5B3
100
AcDbEntity
  8
TRIM
100
AcDbLine
 10
10.66999999853406
 20
1.654315403424988
 30
0.0
 11
9.462094455480011
 21
1.654315403424988
 31
0.0
  0
LINE
  5
5EC
330
5B3
100
AcDbEntity
  8
TRIM
100
AcDbLine
 10
9.684119635489306
 20
2.000339596352224
 30
0.0
 11
9.684119635489302
 21
0.9343154034249874
 31
0.0
  0
LINE
  5
5ED
330
5B3
100
AcDbEntity
  8
TRIM
100
AcDbLine
 10
9.432094455479997
 20
2.030339596352224
 30
0.0
 11
9.432094455480022
 21
1.474315403424987
 31
0.0
  0
TEXT
  5
5EE
330
5B3
100
AcDbEntity
  8
DIM
100
AcDbText
 10
9.477107045484656
 20
1.865565403424988
 30
0.0
 40
0.09
  1
REV
 41
0.8
 72
     1
 11
9.573107045484656
 21
1.865565403424988
 31
0.0
100
AcDbText
  0
LINE
  5
5EF
330
5B3
100
AcDbEntity
  8
TRIM
100
AcDbLine
 10
9.684119635489306
 20
1.834315403424988
 30
0.0
 11
9.462094455480006
 21
1.834315403424988
 31
0.0
  0
SOLID
  5
5F0
330
5B3
100
AcDbEntity
  8
SOLID
 62
     1
100
AcDbTrace
 10
9.336741622233388
 20
1.779709898068546
 30
0.0
 11
9.415805044717822
 21
1.928406569175877
 31
0.0
 12
9.331143681674539
 22
1.789026435684056
 32
0.0
 13
9.397519865140669
 23
1.913861880597488
 33
0.0
  0
SOLID
  5
5F1
330
5B3
100
AcDbEntity
  8
SOLID
 62
     1
100
AcDbTrace
 10
9.203204583077742
 20
1.779709898068546
 30
0.0
 11
9.336741622233388
 21
1.779709898068546
 31
0.0
 12
9.197606642518891
 22
1.789026435684056
 32
0.0
 13
9.331143681674539
 23
1.789026435684056
 33
0.0
  0
LINE
  5
5F2
330
5B3
100
AcDbEntity
  8
TRIM
100
AcDbLine
 10
10.24446826441905
 20
2.000339596352224
 30
0.0
 11
10.24446826441905
 21
0.934315403424987
 31
0.0
  0
TEXT
  5
5F3
330
5B3
100
AcDbEntity
  8
DIM
100
AcDbText
 10
10.2605817160691
 20
1.865565403424988
 30
0.0
 40
0.09
  1
INITIALS
 41
0.8
 72
     1
 11
10.46115314464053
 21
1.865565403424988
 31
0.0
100
AcDbText
  0
LINE
  5
5F4
330
5B3
100
AcDbEntity
  8
TRIM
100
AcDbLine
 10
10.66999999853406
 20
1.834315403424988
 30
0.0
 11
10.24446826441905
 21
1.834315403424988
 31
0.0
  0
LINE
  5
5F5
330
5B3
100
AcDbEntity
  8
TRIM
100
AcDbLine
 10
0.2799999985341133
 20
0.5992358197914696
 30
0.0
 11
8.246999998534064
 21
0.5992358197914634
 31
0.0
  0
LINE
  5
5F6
330
5B3
100
AcDbEntity
  8
TRIM
100
AcDbLine
 10
0.2799999985340644
 20
0.8884716413094695
 30
0.0
 11
8.246999998534064
 21
0.8884716413094633
 31
0.0
  0
LINE
  5
5F7
330
5B3
100
AcDbEntity
  8
TRIM
100
AcDbLine
 10
0.2499999985340651
 20
0.249999998273462
 30
0.0
 11
10.69999999853406
 21
0.2499999982734629
 31
0.0
  0
LINE
  5
5F8
330
5B3
100
AcDbEntity
  8
TRIM
100
AcDbLine
 10
0.2799999985340644
 20
0.5692358197914693
 30
0.0
 11
8.246999998534064
 21
0.5692358197914627
 31
0.0
  0
LINE
  5
5F9
330
5B3
100
AcDbEntity
  8
TRIM
100
AcDbLine
 10
0.2799999985341133
 20
0.2799999982734693
 30
0.0
 11
8.246999998534064
 21
0.2799999982734627
 31
0.0
  0
LINE
  5
5FA
330
5B3
100
AcDbEntity
  8
TRIM
100
AcDbLine
 10
0.2799999985340651
 20
1.237707462827464
 30
0.0
 11
4.373749998534062
 21
1.237707462827463
 31
0.0
  0
LINE
  5
5FB
330
5B3
100
AcDbEntity
  8
TRIM
100
AcDbLine
 10
0.2799999985341142
 20
1.207707462827464
 30
0.0
 11
3.562499998534065
 21
1.207707462827464
 31
0.0
  0
LINE
  5
5FC
330
5B3
100
AcDbEntity
  8
TRIM
100
AcDbLine
 10
0.2799999985340644
 20
0.9184716413094644
 30
0.0
 11
3.562499998534113
 21
0.9184716413094644
 31
0.0
  0
TEXT
  5
5FD
330
5B3
100
AcDbEntity
  8
TRIM
100
AcDbText
 10
0.3575473542991792
 20
0.6700287859488796
 30
0.0
 40
0.14
  1
DESCRIPTION:
 41
0.9
  7
SIMPLEX
100
AcDbText
  0
TEXT
  5
5FE
330
5B3
100
AcDbEntity
  8
TRIM
100
AcDbText
 10
0.3575473542991792
 20
0.3575287859488796
 30
0.0
 40
0.14
  1
EXTRA DESC:
 41
0.9
  7
SIMPLEX
100
AcDbText
  0
TEXT
  5
5FF
330
5B3
100
AcDbEntity
  8
TRIM
100
AcDbText
 10
0.3601805216547635
 20
0.9931394110287762
 30
0.0
 40
0.14
  1
PART NUMBER:
 41
0.8
  7
SIMPLEX
100
AcDbText
  0
LINE
  5
600
330
5B3
100
AcDbEntity
  8
TRIM
100
AcDbLine
 10
0.2799999985340644
 20
0.8884716413094695
 30
0.0
 11
0.2799999985341133
 21
0.5992358197914696
 31
0.0
  0
LINE
  5
601
330
5B3
100
AcDbEntity
  8
TRIM
100
AcDbLine
 10
0.2799999985340644
 20
0.5692358197914693
 30
0.0
 11
0.2799999985341133
 21
0.2799999982734693
 31
0.0
  0
LINE
  5
602
330
5B3
100
AcDbEntity
  8
TRIM
100
AcDbLine
 10
0.2799999985340653
 20
1.207707462827465
 30
0.0
 11
0.2799999985340644
 21
0.9184716413094644
 31
0.0
  0
LINE
  5
603
330
5B3
100
AcDbEntity
  8
TRIM
100
AcDbLine
 10
3.592499998534066
 20
1.207707462827464
 30
0.0
 11
4.343749998534065
 21
1.207707462827464
 31
0.0
  0
TEXT
  5
604
330
5B3
100
AcDbEntity
  8
DIM
 62
     1
100
AcDbText
 10
3.789702379486445
 20
1.103749998273462
 30
0.0
 40
0.08
  1
SHEET
 72
     1
 11
3.968749998534065
 21
1.103749998273462
 31
0.0
100
AcDbText
  0
LINE
  5
605
330
5B3
100
AcDbEntity
  8
TRIM
100
AcDbLine
 10
3.592499998534066
 20
1.207707462827464
 30
0.0
 11
3.592499998534113
 21
0.9184716413094671
 31
0.0
  0
LINE
  5
606
330
5B3
100
AcDbEntity
  8
TRIM
100
AcDbLine
 10
3.562499998534065
 20
1.207707462827464
 30
0.0
 11
3.562499998534113
 21
0.9184716413094644
 31
0.0
  0
LINE
  5
607
330
5B3
100
AcDbEntity
  8
TRIM
100
AcDbLine
 10
4.373749998534062
 20
1.237707462827463
 30
0.0
 11
4.373749998534114
 21
0.9184716413094671
 31
0.0
  0
LINE
  5
608
330
5B3
100
AcDbEntity
  8
TRIM
100
AcDbLine
 10
4.343749998534065
 20
1.207707462827464
 30
0.0
 11
4.343749998534113
 21
0.9184716413094644
 31
0.0
  0
LINE
  5
609
330
5B3
100
AcDbEntity
  8
TRIM
100
AcDbLine
 10
4.373749998534114
 20
0.9184716413094662
 30
0.0
 11
8.246999998534064
 21
0.918471641309463
 31
0.0
  0
LINE
  5
60A
330
5B3
100
AcDbEntity
  8
TRIM
100
AcDbLine
 10
9.432094455480024
 20
1.474315403424987
 30
0.0
 11
8.276999998534062
 21
1.474315403424987
 31
0.0
  0
TEXT
  5
60B
330
5B3
100
AcDbEntity
  8
DIM
100
AcDbText
 10
8.293249998534063
 20
0.5153392262302923
 30
0.0
 40
0.056
  1
DIMENSIONS IN 'INCHES' UNLESS SPECIFIED OTHERWISE
100
AcDbText
  0
LINE
  5
60C
330
5B3
100
AcDbEntity
  8
TRIM
100
AcDbLine
 10
9.432094455480005
 20
1.294315403424988
 30
0.0
 11
8.276999998534051
 21
1.294315403424987
 31
0.0
  0
LINE
  5
60D
330
5B3
100
AcDbEntity
  8
TRIM
100
AcDbLine
 10
9.432094455480024
 20
1.444315403424987
 30
0.0
 11
8.276999998534066
 21
1.444315403424987
 31
0.0
  0
LINE
  5
60E
330
5B3
100
AcDbEntity
  8
TRIM
100
AcDbLine
 10
8.276999998534064
 20
0.324999998273463
 30
0.0
 11
10.66999999853406
 21
0.3249999982734621
 31
0.0
  0
LINE
  5
60F
330
5B3
100
AcDbEntity
  8
TRIM
100
AcDbLine
 10
8.276999998534064
 20
0.474999998273463
 30
0.0
 11
10.66999999853406
 21
0.4749999982734625
 31
0.0
  0
TEXT
  5
610
330
5B3
100
AcDbEntity
  8
TRIM
100
AcDbText
 10
8.324563651603105
 20
0.8310145276027238
 30
0.0
 40
0.07
  1
PRINT APPROVED
 41
1.058889550608496
  7
SIMPLEX
 72
     5
 11
9.27403461531539
 21
0.8310145276027238
 31
0.0
100
AcDbText
  0
LINE
  5
611
330
5B3
100
AcDbEntity
  8
TRIM
100
AcDbLine
 10
9.432094455480063
 20
0.6043154034249878
 30
0.0
 11
8.276999998534064
 21
0.6043154034249878
 31
0.0
  0
LINE
  5
612
330
5B3
100
AcDbEntity
  8
TRIM
 62
     2
100
AcDbLine
 10
9.432094455480012
 20
1.114315403424987
 30
0.0
 11
8.276999998534064
 21
1.114315403424987
 31
0.0
  0
LINE
  5
613
330
5B3
100
AcDbEntity
  8
TRIM
100
AcDbLine
 10
9.432094455480017
 20
0.9343154034249874
 30
0.0
 11
8.276999998534064
 21
0.934315403424987
 31
0.0
  0
LINE
  5
614
330
5B3
100
AcDbEntity
  8
TRIM
 62
     2
100
AcDbLine
 10
9.432094455480024
 20
0.7957609724770878
 30
0.0
 11
8.276999998534064
 21
0.7957609724770878
 31
0.0
  0
LINE
  5
615
330
5B3
100
AcDbEntity
  8
TRIM
100
AcDbLine
 10
9.432094455480031
 20
0.6043154034249874
 30
0.0
 11
8.276999998534064
 21
0.6043154034249874
 31
0.0
  0
LINE
  5
616
330
5B3
100
AcDbEntity
  8
TRIM
100
AcDbLine
 10
8.246999998534064
 20
0.5992358197914598
 30
0.0
 11
8.246999998534064
 21
0.8884716413094597
 31
0.0
  0
LINE
  5
617
330
5B3
100
AcDbEntity
  8
TRIM
100
AcDbLine
 10
8.276999998534064
 20
0.6043154034249878
 30
0.0
 11
8.276999998534064
 21
1.114315403424988
 31
0.0
  0
TEXT
  5
618
330
5B3
100
AcDbEntity
  8
TRIM
100
AcDbText
 10
8.312499998534065
 20
0.3599999982734623
 30
0.0
 40
0.08
  1
FILE:
  7
SIMPLEX
100
AcDbText
  0
LINE
  5
619
330
5B3
100
AcDbEntity
  8
TRIM
100
AcDbLine
 10
8.276999998534064
 20
0.3249999982734653
 30
0.0
 11
8.349999998534064
 21
0.3249999982734648
 31
0.0
  0
LINE
  5
61A
330
5B3
100
AcDbEntity
  8
TRIM
100
AcDbLine
 10
8.276999998534064
 20
0.3249999982734621
 30
0.0
 11
8.276999998534064
 21
0.474999998273463
 31
0.0
  0
LINE
  5
61B
330
5B3
100
AcDbEntity
  8
TRIM
100
AcDbLine
 10
8.246999998534064
 20
0.2799999982734596
 30
0.0
 11
8.246999998534064
 21
0.5692358197914596
 31
0.0
  0
TEXT
  5
61C
330
5B3
100
AcDbEntity
  8
TRIM
100
AcDbText
 10
8.324563651603092
 20
1.149568958550623
 30
0.0
 40
0.07
  1
PRINT DRAWN
 41
1.047995828933662
  7
SIMPLEX
 72
     5
 11
9.061654051286435
 21
1.149568958550623
 31
0.0
100
AcDbText
  0
TEXT
  5
61D
330
5B3
100
AcDbEntity
  8
TRIM
100
AcDbText
 10
8.324583587926003
 20
1.317921744520258
 30
0.0
 40
0.09
  1
SCALE:
  7
SIMPLEX
100
AcDbText
  0
LINE
  5
61E
330
5B3
100
AcDbEntity
  8
TRIM
100
AcDbLine
 10
8.276999998534064
 20
1.114315403424988
 30
0.0
 11
8.276999998534064
 21
1.444315403424987
 31
0.0
  0
LINE
  5
61F
330
5B3
100
AcDbEntity
  8
TRIM
100
AcDbLine
 10
10.66999999853406
 20
0.6043154034249874
 30
0.0
 11
9.462094455480064
 21
0.6043154034249878
 31
0.0
  0
LINE
  5
620
330
5B3
100
AcDbEntity
  8
TRIM
100
AcDbLine
 10
10.66999999853406
 20
0.3249999982734621
 30
0.0
 11
10.66999999853406
 21
0.4749999982734625
 31
0.0
  0
LINE
  5
621
330
5B3
100
AcDbEntity
  8
TRIM
100
AcDbLine
 10
10.66999999853406
 20
0.934315403424987
 30
0.0
 11
9.462094455480039
 21
0.9343154034249874
 31
0.0
  0
LINE
  5
622
330
5B3
100
AcDbEntity
  8
TRIM
100
AcDbLine
 10
10.66999999853406
 20
1.114315403424987
 30
0.0
 11
9.462094455480032
 21
1.114315403424987
 31
0.0
  0
LINE
  5
623
330
5B3
100
AcDbEntity
  8
TRIM
100
AcDbLine
 10
10.66999999853406
 20
1.294315403424987
 30
0.0
 11
9.462094455480025
 21
1.294315403424988
 31
0.0
  0
LINE
  5
624
330
5B3
100
AcDbEntity
  8
TRIM
100
AcDbLine
 10
10.66999999853406
 20
1.474315403424987
 30
0.0
 11
9.462094455480018
 21
1.474315403424987
 31
0.0
  0
TEXT
  5
625
330
5B3
100
AcDbEntity
  8
TRIM
100
AcDbText
 10
9.527645854177304
 20
0.8310145276027238
 30
0.0
 40
0.07
  1
DESIGN ENGINEER
  7
SIMPLEX
100
AcDbText
  0
LINE
  5
626
330
5B3
100
AcDbEntity
  8
TRIM
 62
     2
100
AcDbLine
 10
10.66418891242604
 20
0.7957609724770874
 30
0.0
 11
9.462094455480064
 21
0.7957609724770878
 31
0.0
  0
LINE
  5
627
330
5B3
100
AcDbEntity
  8
TRIM
100
AcDbLine
 10
9.432094455480024
 20
1.444315403424987
 30
0.0
 11
9.432094455480063
 21
0.6043154034249878
 31
0.0
  0
LINE
  5
628
330
5B3
100
AcDbEntity
  8
TRIM
 62
     2
100
AcDbLine
 10
8.986598446570452
 20
0.7957609724770878
 30
0.0
 11
8.98659844657045
 21
0.6043154034249878
 31
0.0
  0
LINE
  5
629
330
5B3
100
AcDbEntity
  8
TRIM
 62
     2
100
AcDbLine
 10
8.986598446570452
 20
1.114315403424987
 30
0.0
 11
8.986598446570452
 21
0.9343154034249874
 31
0.0
  0
LINE
  5
62A
330
5B3
100
AcDbEntity
  8
TRIM
100
AcDbLine
 10
3.592499998534113
 20
0.9184716413094671
 30
0.0
 11
4.343749998534113
 21
0.9184716413094662
 31
0.0
  0
ATTDEF
  5
62B
330
5B3
100
AcDbEntity
  8
DIM
100
AcDbText
 10
1.748750001101063
 20
0.9930549840549819
 30
0.0
 40
0.13
  1

  7
SIMPLEX
100
AcDbAttributeDefinition
  3
PART_#
  2
PART_#
 70
     0
  0
ATTDEF
  5
62C
330
5B3
100
AcDbEntity
  8
DIM
100
AcDbText
 10
1.754683743625886
 20
0.6688693887053426
 30
0.0
 40
0.13
  1

  7
SIMPLEX
100
AcDbAttributeDefinition
  3
PART_DESCRIPTION
  2
PART_DESCRIPTION
 70
     0
  0
ATTDEF
  5
62D
330
5B3
100
AcDbEntity
  8
DIM
100
AcDbText
 10
1.75
 20
0.3555424452224223
 30
0.0
 40
0.13
  1

  7
SIMPLEX
100
AcDbAttributeDefinition
  3
EXTRA_DESCRIPTION
  2
EXTRA_DESCRIPTION
 70
     0
  0
ATTDEF
  5
62E
330
5B3
100
AcDbEntity
  8
DIM
100
AcDbText
 10
3.96875
 20
1.0
 30
0.0
 40
0.1
  1

  7
SIMPLEX
 72
     4
 11
3.96875
 21
1.0
 31
0.0
100
AcDbAttributeDefinition
  3
SHEET
  2
SHEET
 70
     0
  0
ENDBLK
  5
630
330
5B3
100
AcDbEntity
  8
0
100
AcDbBlockEnd
  0
BLOCK
  5
633
330
631
100
AcDbEntity
  8
0
100
AcDbBlockBegin
  2
A$C56887695
 70
     2
 10
0.0
 20
0.0
 30
0.0
  3
A$C56887695
  1

  0
ATTDEF
  5
632
330
631
100
AcDbEntity
  8
DIM
100
AcDbText
 10
0.0000000016510064
 20
0.0076190448079387
 30
0.0
 40
0.08
  1

  7
SIMPLEX
100
AcDbAttributeDefinition
  3
FILE_NAME
  2
FILE_NAME
 70
     0
  0
ENDBLK
  5
634
330
631
100
AcDbEntity
  8
0
100
AcDbBlockEnd
  0
BLOCK
  5
637
330
635
100
AcDbEntity
  8
0
100
AcDbBlockBegin
  2
A$C406F4052
 70
     2
 10
0.0
 20
0.0
 30
0.0
  3
A$C406F4052
  1

  0
ATTDEF
  5
636
330
635
100
AcDbEntity
  8
DIM
100
AcDbText
 10
0.0000000097657775
 20
0.0000000059644165
 30
0.0
 40
0.08
  1

  7
SIMPLEX
100
AcDbAttributeDefinition
  3
DRAWING_SCALE
  2
SCALE
 70
     0
  0
ENDBLK
  5
638
330
635
100
AcDbEntity
  8
0
100
AcDbBlockEnd
  0
BLOCK
  5
63B
330
639
100
AcDbEntity
  8
0
100
AcDbBlockBegin
  2
A$C217D2A32
 70
     2
 10
0.0
 20
0.0
 30
0.0
  3
A$C217D2A32
  1

  0
ATTDEF
  5
63A
330
639
100
AcDbEntity
  8
DIM
100
AcDbText
 10
0.1409523881144832
 20
0.0400000152139821
 30
0.0
 40
0.08
  1

  7
SIMPLEX
 72
     4
 11
0.1409523881144832
 21
0.0400000152139821
 31
0.0
100
AcDbAttributeDefinition
  3
DATE_DRAWN
  2
DATE
 70
     0
  0
ENDBLK
  5
63C
330
639
100
AcDbEntity
  8
0
100
AcDbBlockEnd
  0
BLOCK
  5
63F
330
63D
100
AcDbEntity
  8
0
100
AcDbBlockBegin
  2
A$C26835032
 70
     2
 10
0.0
 20
0.0
 30
0.0
  3
A$C26835032
  1

  0
ATTDEF
  5
63E
330
63D
100
AcDbEntity
  8
DIM
100
AcDbText
 10
0.1504761941594115
 20
0.0400000152139821
 30
0.0
 40
0.08
  1

  7
SIMPLEX
 72
     4
 11
0.1504761941594115
 21
0.0400000152139821
 31
0.0
100
AcDbAttributeDefinition
  3
DRAWN_BY?
  2
WHO?
 70
     0
  0
ENDBLK
  5
640
330
63D
100
AcDbEntity
  8
0
100
AcDbBlockEnd
  0
BLOCK
  5
643
330
641
100
AcDbEntity
  8
0
100
AcDbBlockBegin
  2
A$C11730435
 70
     2
 10
0.0
 20
0.0
 30
0.0
  3
A$C11730435
  1

  0
ATTDEF
  5
642
330
641
100
AcDbEntity
  8
DIM
100
AcDbText
 10
0.1542857245995872
 20
0.0399999866443972
 30
0.0
 40
0.08
  1

  7
SCRIPT
 72
     4
 11
0.1542857245995872
 21
0.0399999866443972
 31
0.0
100
AcDbAttributeDefinition
  3
DATE_APPROVED
  2
DATE
 70
     0
  0
ENDBLK
  5
644
330
641
100
AcDbEntity
  8
0
100
AcDbBlockEnd
  0
BLOCK
  5
647
330
645
100
AcDbEntity
  8
0
100
AcDbBlockBegin
  2
A$C740A492C
 70
     2
 10
0.0
 20
0.0
 30
0.0
  3
A$C740A492C
  1

  0
ATTDEF
  5
646
330
645
100
AcDbEntity
  8
DIM
100
AcDbText
 10
0.1676190447818424
 20
0.0399999866443968
 30
0.0
 40
0.08
  1

  7
SCRIPT
 72
     4
 11
0.1676190447818424
 21
0.0399999866443968
 31
0.0
100
AcDbAttributeDefinition
  3
APPROVED_BY?
  2
WHO?
 70
     0
  0
ENDBLK
  5
648
330
645
100
AcDbEntity
  8
0
100
AcDbBlockEnd
  0
BLOCK
  5
64B
330
649
100
AcDbEntity
  8
0
100
AcDbBlockBegin
  2
A$C251463E3
 70
     2
 10
0.0
 20
0.0
 30
0.0
  3
A$C251463E3
  1

  0
ATTDEF
  5
64A
330
649
100
AcDbEntity
  8
DIM
100
AcDbText
 10
-0.0076190422628919
 20
-0.0000000133556033
 30
0.0
 40
0.08
  1

  7
SCRIPT
 11
-0.0076190422628919
 21
0.0399999866443968
 31
0.0
100
AcDbAttributeDefinition
  3
ENGINEER_IN_CHARGE
  2
WHO?
 70
     0
 74
     2
  0
ENDBLK
  5
64C
330
649
100
AcDbEntity
  8
0
100
AcDbBlockEnd
  0
BLOCK
  5
64F
330
64D
100
AcDbEntity
  8
0
100
AcDbBlockBegin
  2
A$C46507260
 70
     0
 10
0.0
 20
0.0
 30
0.0
  3
A$C46507260
  1

  0
TEXT
  5
64E
330
64D
100
AcDbEntity
  8
DIM
100
AcDbText
 10
0.0000000011396958
 20
0.0000000091671084
 30
0.0
 40
0.04
  1
F04-0001-01 REV. 00
 72
     2
 11
0.6933333344730297
 21
0.0000000091671084
 31
0.0
100
AcDbText
  0
ENDBLK
  5
650
330
64D
100
AcDbEntity
  8
0
100
AcDbBlockEnd
  0
BLOCK
  5
6DE
330
65A
100
AcDbEntity
  8
0
100
AcDbBlockBegin
  2
tft_aprlist
 70
     2
 10
0.0
 20
0.0
 30
0.0
  3
tft_aprlist
  1

  0
INSERT
  5
65B
330
65A
100
AcDbEntity
  8
DIM
100
AcDbBlockReference
 66
     1
  2
A$C4FB65283
 10
0.9375
 20
-0.9375
 30
0.0
  0
ATTRIB
  5
65C
330
65B
100
AcDbEntity
  8
DIM
100
AcDbText
 10
0.937500002566999
 20
-0.8941666572544825
 30
0.0
 40
0.13
  1

  7
SIMPLEX
100
AcDbAttribute
  2
PART_#
 70
     0
  0
SEQEND
  5
65D
330
65B
100
AcDbEntity
  8
DIM
  0
LINE
  5
65E
330
65A
100
AcDbEntity
  8
TRIM
100
AcDbLine
 10
10.42
 20
3.919999999999998
 30
0.0
 11
0.0299999999999994
 21
3.919999999999998
 31
0.0
  0
LINE
  5
65F
330
65A
100
AcDbEntity
  8
TRIM
100
AcDbLine
 10
0.0000000000000004
 20
3.949999999999999
 30
0.0
 11
10.45
 21
3.949999999999999
 31
0.0
  0
LINE
  5
660
330
65A
100
AcDbEntity
  8
TRIM
100
AcDbLine
 10
0.0299999999999994
 20
3.919999999999998
 30
0.0
 11
0.0300000000000001
 21
-2.962292535445997
 31
0.0
  0
LINE
  5
661
330
65A
100
AcDbEntity
  8
TRIM
100
AcDbLine
 10
0.0
 20
3.949999999999999
 30
0.0
 11
0.0
 21
-3.95
 31
0.0
  0
LINE
  5
662
330
65A
100
AcDbEntity
  8
TRIM
100
AcDbLine
 10
10.42
 20
-1.5175
 30
0.0
 11
10.42
 21
3.919999999999996
 31
0.0
  0
LINE
  5
663
330
65A
100
AcDbEntity
  8
TRIM
100
AcDbLine
 10
10.45
 20
-3.950000000000002
 30
0.0
 11
10.45
 21
3.949999999999997
 31
0.0
  0
SOLID
  5
664
330
65A
100
AcDbEntity
  8
SOLID
 62
     1
100
AcDbTrace
 10
8.850645716126262
 20
-2.583175278293517
 30
0.0
 11
8.953204584543676
 21
-2.390290100204915
 31
0.0
 12
8.844321505542426
 22
-2.575224655934988
 32
0.0
 13
8.947606643984826
 23
-2.380973562589405
 33
0.0
  0
SOLID
  5
665
330
65A
100
AcDbEntity
  8
SOLID
 62
     1
100
AcDbTrace
 10
8.74363316304192
 20
-2.589343763358917
 30
0.0
 11
8.928899859358651
 21
-2.368551512435391
 31
0.0
 12
8.835889224763977
 22
-2.564623826123615
 32
0.0
 13
8.940142723239695
 23
-2.368551512435391
 33
0.0
  0
SOLID
  5
666
330
65A
100
AcDbEntity
  8
SOLID
 62
     1
100
AcDbTrace
 10
8.775982482150034
 20
-2.368551512435392
 30
0.0
 11
9.123139627170399
 21
-2.27553103578049
 31
0.0
 12
9.073679762395343
 22
-2.368551512435391
 32
0.0
 13
9.073679762395343
 23
-2.368551512435391
 33
0.0
  0
SOLID
  5
667
330
65A
100
AcDbEntity
  8
SOLID
 62
     1
100
AcDbTrace
 10
8.816585181828658
 20
-2.344811799209671
 30
0.0
 11
9.147519866606604
 21
-2.256138117675972
 31
0.0
 12
8.834870361405812
 22
-2.330267110631282
 32
0.0
 13
9.165805046183757
 23
-2.241593429097584
 33
0.0
  0
LINE
  5
668
330
65A
100
AcDbEntity
  8
TRIM
100
AcDbLine
 10
10.42
 20
-1.5475
 30
0.0
 11
8.026999999999999
 21
-1.547499999999999
 31
0.0
  0
TEXT
  5
669
330
65A
100
AcDbEntity
  8
TRIM
100
AcDbText
 10
8.09375
 20
-1.717123664042923
 30
0.0
 40
0.1
  1
TASK FORCE TIPS, INC.
 51
10.0
  7
ROMAND
100
AcDbText
  0
TEXT
  5
66A
330
65A
100
AcDbEntity
  8
TRIM
100
AcDbText
 10
8.128853320039944
 20
-2.15479946193006
 30
0.0
 40
0.09
  1
219-462-6161
  7
SIMPLEX
100
AcDbText
  0
TEXT
  5
66B
330
65A
100
AcDbEntity
  8
TRIM
 62
     2
100
AcDbText
 10
8.128853320039944
 20
-2.004135382055867
 30
0.0
 40
0.09
  1
VALPARAISO, IN 46383
  7
SIMPLEX
100
AcDbText
  0
TEXT
  5
66C
330
65A
100
AcDbEntity
  8
TRIM
 62
     2
100
AcDbText
 10
8.128853320039944
 20
-1.859417196791166
 30
0.0
 40
0.09
  1
2800 E. EVANS AVE.
  7
SIMPLEX
100
AcDbText
  0
LINE
  5
66D
330
65A
100
AcDbEntity
  8
TRIM
100
AcDbLine
 10
10.42
 20
-1.5175
 30
0.0
 11
7.997000000000003
 21
-1.5175
 31
0.0
  0
LINE
  5
66E
330
65A
100
AcDbEntity
  8
TRIM
100
AcDbLine
 10
8.026999999999997
 20
-2.695684594848474
 30
0.0
 11
8.026999999999999
 21
-1.547499999999999
 31
0.0
  0
LINE
  5
66F
330
65A
100
AcDbEntity
  8
TRIM
100
AcDbLine
 10
7.996999999999999
 20
-3.281528356963998
 30
0.0
 11
7.997000000000003
 21
-1.5175
 31
0.0
  0
SOLID
  5
670
330
65A
100
AcDbEntity
  8
SOLID
 62
     1
100
AcDbTrace
 10
8.043289410762174
 20
-2.390290100204915
 30
0.0
 11
8.307257976534964
 21
-2.390290100204915
 31
0.0
 12
8.114055539671543
 22
-2.380973562589405
 32
0.0
 13
8.327237355926614
 23
-2.380973562589405
 33
0.0
  0
SOLID
  5
671
330
65A
100
AcDbEntity
  8
SOLID
 62
     1
100
AcDbTrace
 10
8.043289410762174
 20
-2.390290100204915
 30
0.0
 11
8.598232942251094
 21
-2.241593429097584
 31
0.0
 12
8.114055539671543
 22
-2.380973562589405
 32
0.0
 13
8.579947762673942
 23
-2.256138117675972
 33
0.0
  0
SOLID
  5
672
330
65A
100
AcDbEntity
  8
SOLID
 62
     1
100
AcDbTrace
 10
8.168609832132082
 20
-2.589343763358917
 30
0.0
 11
8.353876528448813
 21
-2.368551512435391
 31
0.0
 12
8.260865893854139
 22
-2.564623826123616
 32
0.0
 13
8.365119392329857
 23
-2.368551512435391
 33
0.0
  0
SOLID
  5
673
330
65A
100
AcDbEntity
  8
SOLID
 62
     1
100
AcDbTrace
 10
8.107639478387344
 20
-2.628186162520601
 30
0.0
 11
8.307257976534964
 21
-2.390290100204915
 31
0.0
 12
8.133769629992231
 22
-2.611539420022737
 32
0.0
 13
8.327237355926614
 23
-2.380973562589405
 33
0.0
  0
SOLID
  5
674
330
65A
100
AcDbEntity
  8
SOLID
 62
     1
100
AcDbTrace
 10
8.269298174632588
 20
-2.575224655934988
 30
0.0
 11
8.372583313074988
 21
-2.380973562589405
 31
0.0
 12
8.275622385216424
 22
-2.583175278293517
 32
0.0
 13
8.378181253633838
 23
-2.390290100204915
 33
0.0
  0
SOLID
  5
675
330
65A
100
AcDbEntity
  8
SOLID
 62
     1
100
AcDbTrace
 10
8.519123824336961
 20
-2.473989674493337
 30
0.0
 11
8.389737608104452
 21
-2.628186162520601
 31
0.0
 12
8.534207787034425
 22
-2.470507267310368
 32
0.0
 13
8.415867759709337
 23
-2.611539420022737
 33
0.0
  0
SOLID
  5
676
330
65A
100
AcDbEntity
  8
SOLID
 62
     1
100
AcDbTrace
 10
8.55772051493353
 20
-2.583175278293517
 30
0.0
 11
8.597274695487143
 21
-2.508784684111249
 31
0.0
 12
8.551396304349694
 22
-2.575224655934988
 32
0.0
 13
8.59312736164485
 23
-2.496739952053105
 33
0.0
  0
SOLID
  5
677
330
65A
100
AcDbEntity
  8
SOLID
 62
     1
100
AcDbTrace
 10
8.902260686836452
 20
-2.380973562589405
 30
0.0
 11
8.708792960902071
 21
-2.611539420022736
 31
0.0
 12
8.882281307444802
 22
-2.390290100204915
 32
0.0
 13
8.682662809297184
 23
-2.628186162520601
 33
0.0
  0
SOLID
  5
678
330
65A
100
AcDbEntity
  8
SOLID
 62
     1
100
AcDbTrace
 10
8.450707961849186
 20
-2.589343763358917
 30
0.0
 11
8.554319737297708
 21
-2.465864057733076
 31
0.0
 12
8.542964023571245
 22
-2.564623826123616
 32
0.0
 13
8.587597583188456
 23
-2.480680309308914
 33
0.0
  0
SOLID
  5
679
330
65A
100
AcDbEntity
  8
SOLID
 62
     1
100
AcDbTrace
 10
8.389737608104452
 20
-2.628186162520601
 30
0.0
 11
8.55772051493353
 21
-2.583175278293517
 31
0.0
 12
8.415867759709337
 22
-2.611539420022737
 32
0.0
 13
8.551396304349694
 23
-2.575224655934988
 33
0.0
  0
SOLID
  5
67A
330
65A
100
AcDbEntity
  8
SOLID
 62
     1
100
AcDbTrace
 10
8.107639478387344
 20
-2.628186162520601
 30
0.0
 11
8.275622385216424
 21
-2.583175278293517
 31
0.0
 12
8.133769629992231
 22
-2.611539420022737
 32
0.0
 13
8.269298174632588
 23
-2.575224655934988
 33
0.0
  0
SOLID
  5
67B
330
65A
100
AcDbEntity
  8
SOLID
 62
     1
100
AcDbTrace
 10
8.682662809297184
 20
-2.628186162520601
 30
0.0
 11
8.850645716126262
 21
-2.583175278293517
 31
0.0
 12
8.708792960902071
 22
-2.611539420022736
 32
0.0
 13
8.844321505542426
 23
-2.575224655934988
 33
0.0
  0
SOLID
  5
67C
330
65A
100
AcDbEntity
  8
SOLID
 62
     1
100
AcDbTrace
 10
8.20841037821737
 20
-2.368551512435391
 30
0.0
 11
8.555567523237739
 21
-2.27553103578049
 31
0.0
 12
8.50610765846268
 22
-2.368551512435391
 32
0.0
 13
8.50610765846268
 23
-2.368551512435391
 33
0.0
  0
SOLID
  5
67D
330
65A
100
AcDbEntity
  8
SOLID
 62
     1
100
AcDbTrace
 10
8.372583313074988
 20
-2.380973562589405
 30
0.0
 11
8.609335485643718
 21
-2.380973562589405
 31
0.0
 12
8.378181253633838
 22
-2.390290100204915
 32
0.0
 13
8.58935610625207
 23
-2.390290100204915
 33
0.0
  0
SOLID
  5
67E
330
65A
100
AcDbEntity
  8
SOLID
 62
     1
100
AcDbTrace
 10
8.572168428944468
 20
-2.410773576384599
 30
0.0
 11
8.457090831512811
 21
-2.446370806652486
 31
0.0
 12
8.577542132047717
 22
-2.418863405958059
 32
0.0
 13
8.483530453625318
 23
-2.44794426478169
 33
0.0
  0
SOLID
  5
67F
330
65A
100
AcDbEntity
  8
SOLID
 62
     1
100
AcDbTrace
 10
8.457090831512811
 20
-2.446370806652486
 30
0.0
 11
8.519123824336961
 21
-2.473989674493337
 31
0.0
 12
8.483530453625318
 22
-2.44794426478169
 32
0.0
 13
8.534207787034425
 23
-2.470507267310368
 33
0.0
  0
SOLID
  5
680
330
65A
100
AcDbEntity
  8
SOLID
 62
     1
100
AcDbTrace
 10
8.492196430183701
 20
-2.368551512435392
 30
0.0
 11
8.839353575204068
 21
-2.27553103578049
 31
0.0
 12
8.78989371042901
 22
-2.368551512435391
 32
0.0
 13
8.78989371042901
 23
-2.368551512435391
 33
0.0
  0
SOLID
  5
681
330
65A
100
AcDbEntity
  8
SOLID
 62
     1
100
AcDbTrace
 10
8.710751963821957
 20
-2.380973562589405
 30
0.0
 11
8.902260686836452
 21
-2.380973562589405
 31
0.0
 12
8.716349904380805
 22
-2.390290100204915
 32
0.0
 13
8.882281307444802
 23
-2.390290100204915
 33
0.0
  0
SOLID
  5
682
330
65A
100
AcDbEntity
  8
SOLID
 62
     1
100
AcDbTrace
 10
8.551084309439481
 20
-2.330267110631282
 30
0.0
 11
8.882018994217425
 21
-2.241593429097584
 31
0.0
 12
8.532799129862327
 22
-2.34481179920967
 32
0.0
 13
8.863733814640273
 23
-2.256138117675972
 33
0.0
  0
SOLID
  5
683
330
65A
100
AcDbEntity
  8
SOLID
 62
     1
100
AcDbTrace
 10
8.532799129862327
 20
-2.34481179920967
 30
0.0
 11
8.579947762673942
 21
-2.256138117675972
 31
0.0
 12
8.551084309439481
 22
-2.330267110631282
 32
0.0
 13
8.598232942251094
 23
-2.241593429097584
 33
0.0
  0
SOLID
  5
684
330
65A
100
AcDbEntity
  8
SOLID
 62
     1
100
AcDbTrace
 10
8.59312736164485
 20
-2.496739952053105
 30
0.0
 11
8.638464999731693
 21
-2.516925569053505
 31
0.0
 12
8.597274695487143
 22
-2.508784684111249
 32
0.0
 13
8.642612333573987
 23
-2.528970301111649
 33
0.0
  0
SOLID
  5
685
330
65A
100
AcDbEntity
  8
SOLID
 62
     1
100
AcDbTrace
 10
8.518783283108664
 20
-2.450042208953961
 30
0.0
 11
8.687749359579143
 21
-2.397775525726124
 31
0.0
 12
8.6329352212753
 22
-2.500865926309313
 32
0.0
 13
8.6329352212753
 23
-2.500865926309313
 33
0.0
  0
SOLID
  5
686
330
65A
100
AcDbEntity
  8
SOLID
 62
     1
100
AcDbTrace
 10
8.584707069518715
 20
-2.429649845389338
 30
0.0
 11
8.635974658165919
 21
-2.368551512435391
 31
0.0
 12
8.620641232051864
 22
-2.41853424437989
 32
0.0
 13
8.647217522046963
 23
-2.368551512435391
 33
0.0
  0
SOLID
  5
687
330
65A
100
AcDbEntity
  8
SOLID
 62
     1
100
AcDbTrace
 10
8.58935610625207
 20
-2.390290100204915
 30
0.0
 11
8.572168428944468
 21
-2.410773576384599
 31
0.0
 12
8.609335485643718
 22
-2.380973562589405
 32
0.0
 13
8.577542132047717
 23
-2.418863405958059
 33
0.0
  0
SOLID
  5
688
330
65A
100
AcDbEntity
  8
SOLID
 62
     1
100
AcDbTrace
 10
8.638464999731693
 20
-2.516925569053505
 30
0.0
 11
8.710751963821957
 21
-2.380973562589405
 31
0.0
 12
8.642612333573987
 22
-2.528970301111649
 32
0.0
 13
8.716349904380805
 23
-2.390290100204915
 33
0.0
  0
SOLID
  5
689
330
65A
100
AcDbEntity
  8
SOLID
 62
     1
100
AcDbTrace
 10
8.645754239211189
 20
-2.397763190625549
 30
0.0
 11
8.700031216426285
 21
-2.380973562589405
 31
0.0
 12
8.654681442792094
 22
-2.380973562589405
 32
0.0
 13
8.654681442792094
 23
-2.380973562589405
 33
0.0
  0
SOLID
  5
68A
330
65A
100
AcDbEntity
  8
SOLID
 62
     1
100
AcDbTrace
 10
8.816585181828658
 20
-2.344811799209671
 30
0.0
 11
8.863733814640273
 21
-2.256138117675972
 31
0.0
 12
8.834870361405812
 22
-2.330267110631282
 32
0.0
 13
8.882018994217425
 23
-2.241593429097584
 33
0.0
  0
LINE
  5
68B
330
65A
100
AcDbEntity
  8
TRIM
100
AcDbLine
 10
10.42
 20
-2.169660401921237
 30
0.0
 11
10.42
 21
-1.5475
 31
0.0
  0
LINE
  5
68C
330
65A
100
AcDbEntity
  8
TRIM
100
AcDbLine
 10
9.212094456945933
 20
-2.199660401921237
 30
0.0
 11
9.212094456945999
 21
-3.595684594848474
 31
0.0
  0
LINE
  5
68D
330
65A
100
AcDbEntity
  8
TRIM
100
AcDbLine
 10
10.42
 20
-3.595684594848474
 30
0.0
 11
10.42
 21
-2.199660401921237
 31
0.0
  0
LINE
  5
68E
330
65A
100
AcDbEntity
  8
TRIM
100
AcDbLine
 10
9.212094456945933
 20
-2.199660401921237
 30
0.0
 11
10.42
 21
-2.199660401921237
 31
0.0
  0
LINE
  5
68F
330
65A
100
AcDbEntity
  8
TRIM
100
AcDbLine
 10
9.182094456945932
 20
-2.169660401921237
 30
0.0
 11
10.42
 21
-2.169660401921237
 31
0.0
  0
TEXT
  5
690
330
65A
100
AcDbEntity
  8
DIM
100
AcDbText
 10
9.571579665705828
 20
-2.334434594848473
 30
0.0
 40
0.09
  1
DATE
 41
0.9
 72
     1
 11
9.714293951420113
 21
-2.334434594848473
 31
0.0
100
AcDbText
  0
LINE
  5
691
330
65A
100
AcDbEntity
  8
TRIM
100
AcDbLine
 10
9.994468265884984
 20
-2.365684594848473
 30
0.0
 11
9.434119636955241
 21
-2.365684594848473
 31
0.0
  0
LINE
  5
692
330
65A
100
AcDbEntity
  8
TRIM
100
AcDbLine
 10
10.42
 20
-2.545684594848474
 30
0.0
 11
9.212094456945946
 21
-2.545684594848474
 31
0.0
  0
LINE
  5
693
330
65A
100
AcDbEntity
  8
TRIM
100
AcDbLine
 10
9.434119636955241
 20
-2.199660401921237
 30
0.0
 11
9.434119636955237
 21
-3.265684594848474
 31
0.0
  0
LINE
  5
694
330
65A
100
AcDbEntity
  8
TRIM
100
AcDbLine
 10
9.182094456945932
 20
-2.169660401921237
 30
0.0
 11
9.182094456945957
 21
-2.695684594848474
 31
0.0
  0
TEXT
  5
695
330
65A
100
AcDbEntity
  8
DIM
100
AcDbText
 10
9.227107046950591
 20
-2.334434594848473
 30
0.0
 40
0.09
  1
REV
 41
0.8
 72
     1
 11
9.323107046950591
 21
-2.334434594848473
 31
0.0
100
AcDbText
  0
LINE
  5
696
330
65A
100
AcDbEntity
  8
TRIM
100
AcDbLine
 10
9.434119636955241
 20
-2.365684594848473
 30
0.0
 11
9.212094456945941
 21
-2.365684594848473
 31
0.0
  0
SOLID
  5
697
330
65A
100
AcDbEntity
  8
SOLID
 62
     1
100
AcDbTrace
 10
9.086741623699323
 20
-2.390290100204915
 30
0.0
 11
9.165805046183757
 21
-2.241593429097584
 31
0.0
 12
9.081143683140474
 22
-2.380973562589405
 32
0.0
 13
9.147519866606604
 23
-2.256138117675972
 33
0.0
  0
SOLID
  5
698
330
65A
100
AcDbEntity
  8
SOLID
 62
     1
100
AcDbTrace
 10
8.953204584543676
 20
-2.390290100204915
 30
0.0
 11
9.086741623699323
 21
-2.390290100204915
 31
0.0
 12
8.947606643984826
 22
-2.380973562589405
 32
0.0
 13
9.081143683140474
 23
-2.380973562589405
 33
0.0
  0
LINE
  5
699
330
65A
100
AcDbEntity
  8
TRIM
100
AcDbLine
 10
9.994468265884982
 20
-2.199660401921237
 30
0.0
 11
9.994468265884982
 21
-3.265684594848475
 31
0.0
  0
TEXT
  5
69A
330
65A
100
AcDbEntity
  8
DIM
100
AcDbText
 10
10.01058171753503
 20
-2.334434594848473
 30
0.0
 40
0.09
  1
INITIALS
 41
0.8
 72
     1
 11
10.21115314610646
 21
-2.334434594848473
 31
0.0
100
AcDbText
  0
LINE
  5
69B
330
65A
100
AcDbEntity
  8
TRIM
100
AcDbLine
 10
10.42
 20
-2.365684594848473
 30
0.0
 11
9.994468265884984
 21
-2.365684594848473
 31
0.0
  0
LINE
  5
69C
330
65A
100
AcDbEntity
  8
TRIM
100
AcDbLine
 10
0.0300000000000482
 20
-3.600764178481992
 30
0.0
 11
7.996999999999999
 21
-3.600764178481998
 31
0.0
  0
LINE
  5
69D
330
65A
100
AcDbEntity
  8
TRIM
100
AcDbLine
 10
0.0299999999999994
 20
-3.311528356963992
 30
0.0
 11
7.996999999999999
 21
-3.311528356963998
 31
0.0
  0
LINE
  5
69E
330
65A
100
AcDbEntity
  8
TRIM
100
AcDbLine
 10
0.0
 20
-3.95
 30
0.0
 11
10.45
 21
-3.949999999999999
 31
0.0
  0
LINE
  5
69F
330
65A
100
AcDbEntity
  8
TRIM
100
AcDbLine
 10
0.0299999999999994
 20
-3.630764178481992
 30
0.0
 11
7.996999999999999
 21
-3.630764178481999
 31
0.0
  0
LINE
  5
6A0
330
65A
100
AcDbEntity
  8
TRIM
100
AcDbLine
 10
0.0300000000000482
 20
-3.919999999999992
 30
0.0
 11
7.996999999999999
 21
-3.919999999999999
 31
0.0
  0
LINE
  5
6A1
330
65A
100
AcDbEntity
  8
TRIM
100
AcDbLine
 10
0.0300000000000001
 20
-2.962292535445997
 30
0.0
 11
6.060374999999972
 21
-2.962292535446001
 31
0.0
  0
LINE
  5
6A2
330
65A
100
AcDbEntity
  8
TRIM
100
AcDbLine
 10
0.0300000000000491
 20
-2.992292535445997
 30
0.0
 11
5.249124999999975
 21
-2.992292535445999
 31
0.0
  0
LINE
  5
6A3
330
65A
100
AcDbEntity
  8
TRIM
100
AcDbLine
 10
0.0299999999999994
 20
-3.281528356963997
 30
0.0
 11
5.249125000000024
 21
-3.281528356964
 31
0.0
  0
TEXT
  5
6A4
330
65A
100
AcDbEntity
  8
TRIM
100
AcDbText
 10
0.1075473557651141
 20
-3.529971212324582
 30
0.0
 40
0.14
  1
DESCRIPTION:
 41
0.9
  7
SIMPLEX
100
AcDbText
  0
TEXT
  5
6A5
330
65A
100
AcDbEntity
  8
TRIM
100
AcDbText
 10
0.1075473557651141
 20
-3.842471212324582
 30
0.0
 40
0.14
  1
EXTRA DESC:
 41
0.9
  7
SIMPLEX
100
AcDbText
  0
TEXT
  5
6A6
330
65A
100
AcDbEntity
  8
TRIM
100
AcDbText
 10
0.1101805231206985
 20
-3.206860587244686
 30
0.0
 40
0.14
  1
PART NUMBER:
 41
0.8
  7
SIMPLEX
100
AcDbText
  0
LINE
  5
6A7
330
65A
100
AcDbEntity
  8
TRIM
100
AcDbLine
 10
0.0299999999999994
 20
-3.311528356963992
 30
0.0
 11
0.0300000000000482
 21
-3.600764178481992
 31
0.0
  0
LINE
  5
6A8
330
65A
100
AcDbEntity
  8
TRIM
100
AcDbLine
 10
0.0299999999999994
 20
-3.630764178481992
 30
0.0
 11
0.0300000000000482
 21
-3.919999999999992
 31
0.0
  0
LINE
  5
6A9
330
65A
100
AcDbEntity
  8
TRIM
100
AcDbLine
 10
0.0300000000000003
 20
-2.992292535445996
 30
0.0
 11
0.0299999999999994
 21
-3.281528356963997
 31
0.0
  0
LINE
  5
6AA
330
65A
100
AcDbEntity
  8
TRIM
100
AcDbLine
 10
5.279124999999976
 20
-2.992292535445999
 30
0.0
 11
6.030374999999975
 21
-2.992292535445999
 31
0.0
  0
TEXT
  5
6AB
330
65A
100
AcDbEntity
  8
DIM
 62
     1
100
AcDbText
 10
5.476327380952356
 20
-3.096250000000002
 30
0.0
 40
0.08
  1
SHEET
 72
     1
 11
5.655374999999975
 21
-3.096250000000002
 31
0.0
100
AcDbText
  0
LINE
  5
6AC
330
65A
100
AcDbEntity
  8
TRIM
100
AcDbLine
 10
5.279124999999976
 20
-2.992292535445999
 30
0.0
 11
5.279125000000023
 21
-3.281528356963997
 31
0.0
  0
LINE
  5
6AD
330
65A
100
AcDbEntity
  8
TRIM
100
AcDbLine
 10
5.249124999999975
 20
-2.992292535446
 30
0.0
 11
5.249125000000024
 21
-3.281528356964
 31
0.0
  0
LINE
  5
6AE
330
65A
100
AcDbEntity
  8
TRIM
100
AcDbLine
 10
6.060374999999972
 20
-2.962292535446001
 30
0.0
 11
6.060375000000024
 21
-3.281528356963997
 31
0.0
  0
LINE
  5
6AF
330
65A
100
AcDbEntity
  8
TRIM
100
AcDbLine
 10
6.030374999999975
 20
-2.992292535445999
 30
0.0
 11
6.030375000000024
 21
-3.281528356964
 31
0.0
  0
LINE
  5
6B0
330
65A
100
AcDbEntity
  8
TRIM
100
AcDbLine
 10
6.060375000000024
 20
-3.281528356963998
 30
0.0
 11
7.996999999999999
 21
-3.281528356963999
 31
0.0
  0
LINE
  5
6B1
330
65A
100
AcDbEntity
  8
TRIM
100
AcDbLine
 10
9.182094456945959
 20
-2.695684594848474
 30
0.0
 11
8.026999999999997
 21
-2.695684594848474
 31
0.0
  0
TEXT
  5
6B2
330
65A
100
AcDbEntity
  8
DIM
100
AcDbText
 10
8.043249999999998
 20
-3.684660772043169
 30
0.0
 40
0.056
  1
DIMENSIONS IN 'INCHES' UNLESS SPECIFIED OTHERWISE
100
AcDbText
  0
LINE
  5
6B3
330
65A
100
AcDbEntity
  8
TRIM
100
AcDbLine
 10
9.182094456945939
 20
-2.905684594848473
 30
0.0
 11
8.026999999999986
 21
-2.905684594848474
 31
0.0
  0
LINE
  5
6B4
330
65A
100
AcDbEntity
  8
TRIM
100
AcDbLine
 10
9.182094456945959
 20
-2.725684594848474
 30
0.0
 11
8.027000000000001
 21
-2.725684594848474
 31
0.0
  0
LINE
  5
6B5
330
65A
100
AcDbEntity
  8
TRIM
100
AcDbLine
 10
8.026999999999999
 20
-3.874999999999999
 30
0.0
 11
10.42
 21
-3.875
 31
0.0
  0
LINE
  5
6B6
330
65A
100
AcDbEntity
  8
TRIM
100
AcDbLine
 10
8.026999999999999
 20
-3.724999999999999
 30
0.0
 11
10.42
 21
-3.724999999999999
 31
0.0
  0
TEXT
  5
6B7
330
65A
100
AcDbEntity
  8
TRIM
100
AcDbText
 10
8.07456365306904
 20
-3.368985470670738
 30
0.0
 40
0.07
  1
PRINT APPROVED
 41
1.058889550608496
  7
SIMPLEX
 72
     5
 11
9.024034616781325
 21
-3.368985470670738
 31
0.0
100
AcDbText
  0
LINE
  5
6B8
330
65A
100
AcDbEntity
  8
TRIM
100
AcDbLine
 10
9.182094456945998
 20
-3.595684594848474
 30
0.0
 11
8.026999999999999
 21
-3.595684594848474
 31
0.0
  0
LINE
  5
6B9
330
65A
100
AcDbEntity
  8
TRIM
 62
     2
100
AcDbLine
 10
9.182094456945947
 20
-3.085684594848474
 30
0.0
 11
8.026999999999999
 21
-3.085684594848474
 31
0.0
  0
LINE
  5
6BA
330
65A
100
AcDbEntity
  8
TRIM
100
AcDbLine
 10
9.182094456945952
 20
-3.265684594848474
 30
0.0
 11
8.026999999999999
 21
-3.265684594848475
 31
0.0
  0
LINE
  5
6BB
330
65A
100
AcDbEntity
  8
TRIM
 62
     2
100
AcDbLine
 10
9.182094456945959
 20
-3.404239025796374
 30
0.0
 11
8.026999999999999
 21
-3.404239025796374
 31
0.0
  0
LINE
  5
6BC
330
65A
100
AcDbEntity
  8
TRIM
100
AcDbLine
 10
9.182094456945966
 20
-3.595684594848474
 30
0.0
 11
8.026999999999999
 21
-3.595684594848474
 31
0.0
  0
LINE
  5
6BD
330
65A
100
AcDbEntity
  8
TRIM
100
AcDbLine
 10
7.996999999999999
 20
-3.600764178482002
 30
0.0
 11
7.996999999999999
 21
-3.311528356964002
 31
0.0
  0
LINE
  5
6BE
330
65A
100
AcDbEntity
  8
TRIM
100
AcDbLine
 10
8.026999999999999
 20
-3.595684594848474
 30
0.0
 11
8.026999999999999
 21
-3.085684594848474
 31
0.0
  0
TEXT
  5
6BF
330
65A
100
AcDbEntity
  8
TRIM
100
AcDbText
 10
8.0625
 20
-3.839999999999999
 30
0.0
 40
0.08
  1
FILE:
  7
SIMPLEX
100
AcDbText
  0
LINE
  5
6C0
330
65A
100
AcDbEntity
  8
TRIM
100
AcDbLine
 10
8.026999999999999
 20
-3.874999999999996
 30
0.0
 11
8.099999999999999
 21
-3.874999999999997
 31
0.0
  0
LINE
  5
6C1
330
65A
100
AcDbEntity
  8
TRIM
100
AcDbLine
 10
8.026999999999999
 20
-3.875
 30
0.0
 11
8.026999999999999
 21
-3.724999999999999
 31
0.0
  0
LINE
  5
6C2
330
65A
100
AcDbEntity
  8
TRIM
100
AcDbLine
 10
7.996999999999999
 20
-3.920000000000002
 30
0.0
 11
7.996999999999999
 21
-3.630764178482002
 31
0.0
  0
TEXT
  5
6C3
330
65A
100
AcDbEntity
  8
TRIM
100
AcDbText
 10
8.074563653069027
 20
-3.050431039722838
 30
0.0
 40
0.07
  1
PRINT DRAWN
 41
1.047995828933662
  7
SIMPLEX
 72
     5
 11
8.81165405275237
 21
-3.050431039722838
 31
0.0
100
AcDbText
  0
TEXT
  5
6C4
330
65A
100
AcDbEntity
  8
TRIM
100
AcDbText
 10
8.074583589391938
 20
-2.867078253753203
 30
0.0
 40
0.09
  1
SCALE:
  7
SIMPLEX
100
AcDbText
  0
LINE
  5
6C5
330
65A
100
AcDbEntity
  8
TRIM
100
AcDbLine
 10
8.026999999999999
 20
-3.085684594848474
 30
0.0
 11
8.026999999999999
 21
-2.725684594848474
 31
0.0
  0
LINE
  5
6C6
330
65A
100
AcDbEntity
  8
TRIM
100
AcDbLine
 10
10.42
 20
-3.595684594848474
 30
0.0
 11
9.212094456945999
 21
-3.595684594848474
 31
0.0
  0
LINE
  5
6C7
330
65A
100
AcDbEntity
  8
TRIM
100
AcDbLine
 10
10.42
 20
-3.875
 30
0.0
 11
10.42
 21
-3.724999999999999
 31
0.0
  0
LINE
  5
6C8
330
65A
100
AcDbEntity
  8
TRIM
100
AcDbLine
 10
10.42
 20
-3.265684594848475
 30
0.0
 11
9.212094456945974
 21
-3.265684594848474
 31
0.0
  0
LINE
  5
6C9
330
65A
100
AcDbEntity
  8
TRIM
100
AcDbLine
 10
10.42
 20
-3.085684594848474
 30
0.0
 11
9.212094456945967
 21
-3.085684594848474
 31
0.0
  0
LINE
  5
6CA
330
65A
100
AcDbEntity
  8
TRIM
100
AcDbLine
 10
10.42
 20
-2.905684594848474
 30
0.0
 11
9.21209445694596
 21
-2.905684594848473
 31
0.0
  0
LINE
  5
6CB
330
65A
100
AcDbEntity
  8
TRIM
100
AcDbLine
 10
10.42
 20
-2.725684594848474
 30
0.0
 11
9.212094456945953
 21
-2.725684594848474
 31
0.0
  0
TEXT
  5
6CC
330
65A
100
AcDbEntity
  8
TRIM
100
AcDbText
 10
9.277645855643239
 20
-3.368985470670738
 30
0.0
 40
0.07
  1
DESIGN ENGINEER
  7
SIMPLEX
100
AcDbText
  0
LINE
  5
6CD
330
65A
100
AcDbEntity
  8
TRIM
 62
     2
100
AcDbLine
 10
10.41418891389197
 20
-3.404239025796374
 30
0.0
 11
9.212094456945999
 21
-3.404239025796374
 31
0.0
  0
LINE
  5
6CE
330
65A
100
AcDbEntity
  8
TRIM
100
AcDbLine
 10
9.182094456945959
 20
-2.725684594848474
 30
0.0
 11
9.182094456945998
 21
-3.595684594848474
 31
0.0
  0
LINE
  5
6CF
330
65A
100
AcDbEntity
  8
TRIM
 62
     2
100
AcDbLine
 10
8.736598448036387
 20
-3.404239025796374
 30
0.0
 11
8.736598448036385
 21
-3.595684594848474
 31
0.0
  0
LINE
  5
6D0
330
65A
100
AcDbEntity
  8
TRIM
 62
     2
100
AcDbLine
 10
8.736598448036387
 20
-3.085684594848474
 30
0.0
 11
8.736598448036387
 21
-3.265684594848474
 31
0.0
  0
LINE
  5
6D1
330
65A
100
AcDbEntity
  8
TRIM
100
AcDbLine
 10
5.279125000000023
 20
-3.281528356963997
 30
0.0
 11
6.030375000000023
 21
-3.281528356963998
 31
0.0
  0
ATTDEF
  5
6D2
330
65A
100
AcDbEntity
  8
DIM
100
AcDbText
 10
1.498750002566998
 20
-3.20694501421848
 30
0.0
 40
0.13
  1

  7
SIMPLEX
100
AcDbAttributeDefinition
  3
PART_#
  2
PART_#
 70
     0
  0
ATTDEF
  5
6D3
330
65A
100
AcDbEntity
  8
DIM
100
AcDbText
 10
1.504683745091821
 20
-3.531130609568119
 30
0.0
 40
0.13
  1

  7
SIMPLEX
100
AcDbAttributeDefinition
  3
PART_DESCRIPTION
  2
PART_DESCRIPTION
 70
     0
  0
ATTDEF
  5
6D4
330
65A
100
AcDbEntity
  8
DIM
100
AcDbText
 10
1.500000001465934
 20
-3.844457553051039
 30
0.0
 40
0.13
  1

  7
SIMPLEX
100
AcDbAttributeDefinition
  3
EXTRA_DESCRIPTION
  2
EXTRA_DESCRIPTION
 70
     0
  0
ATTDEF
  5
6D5
330
65A
100
AcDbEntity
  8
DIM
100
AcDbText
 10
5.65537500146591
 20
-3.199999998273464
 30
0.0
 40
0.1
  1

  7
SIMPLEX
 72
     4
 11
5.65537500146591
 21
-3.199999998273464
 31
0.0
100
AcDbAttributeDefinition
  3
SHEET
  2
SHEET
 70
     0
  0
ATTDEF
  5
6D6
330
65A
100
AcDbEntity
  8
DIM
100
AcDbText
 10
8.370750001651005
 20
-3.841069024870303
 30
0.0
 40
0.08
  1

  7
SIMPLEX
100
AcDbAttributeDefinition
  3
FILE_NAME
  2
FILE_NAME
 70
     0
  0
ATTDEF
  5
6D7
330
65A
100
AcDbEntity
  8
DIM
100
AcDbText
 10
8.593750001465934
 20
-2.867243860095429
 30
0.0
 40
0.08
  1

  7
SIMPLEX
100
AcDbAttributeDefinition
  3
DRAWING_SCALE
  2
SCALE
 70
     0
  0
ATTDEF
  5
6D8
330
65A
100
AcDbEntity
  8
DIM
100
AcDbText
 10
8.381799224018193
 20
-3.175684594848474
 30
0.0
 40
0.08
  1

  7
SIMPLEX
 72
     4
 11
8.381799224018193
 21
-3.175684594848474
 31
0.0
100
AcDbAttributeDefinition
  3
DATE_DRAWN
  2
DATE
 70
     0
  0
ATTDEF
  5
6D9
330
65A
100
AcDbEntity
  8
DIM
100
AcDbText
 10
8.959346452491169
 20
-3.175684594848474
 30
0.0
 40
0.08
  1

  7
SIMPLEX
 72
     4
 11
8.959346452491169
 21
-3.175684594848474
 31
0.0
100
AcDbAttributeDefinition
  3
DRAWN_BY?
  2
WHO?
 70
     0
  0
ATTDEF
  5
6DA
330
65A
100
AcDbEntity
  8
DIM
100
AcDbText
 10
8.381799224018193
 20
-3.499961810322424
 30
0.0
 40
0.08
  1

  7
SCRIPT
 72
     4
 11
8.381799224018193
 21
-3.499961810322424
 31
0.0
100
AcDbAttributeDefinition
  3
DATE_APPROVED
  2
DATE
 70
     0
  0
ATTDEF
  5
6DB
330
65A
100
AcDbEntity
  8
DIM
100
AcDbText
 10
8.959346452491192
 20
-3.499961810322424
 30
0.0
 40
0.08
  1

  7
SCRIPT
 72
     4
 11
8.959346452491192
 21
-3.499961810322424
 31
0.0
100
AcDbAttributeDefinition
  3
APPROVED_BY?
  2
WHO?
 70
     0
  0
ATTDEF
  5
6DC
330
65A
100
AcDbEntity
  8
DIM
100
AcDbText
 10
9.277645855643239
 20
-3.539961810322424
 30
0.0
 40
0.08
  1

  7
SCRIPT
 11
9.277645855643239
 21
-3.499961810322424
 31
0.0
100
AcDbAttributeDefinition
  3
ENGINEER_IN_CHARGE
  2
WHO?
 70
     0
 74
     2
  0
TEXT
  5
6DD
330
65A
100
AcDbEntity
  8
DIM
100
AcDbText
 10
9.716766296807861
 20
-3.931972942467266
 30
0.0
 40
0.04
  1
F04-0052-01 REV. 00
 72
     2
 11
10.41771867776024
 21
-3.931972942467266
 31
0.0
100
AcDbText
  0
ENDBLK
  5
6DF
330
65A
100
AcDbEntity
  8
0
100
AcDbBlockEnd
  0
BLOCK
  5
86A
330
866
100
AcDbEntity
  8
0
100
AcDbBlockBegin
  2
rvsn_blk
 70
     2
 10
0.0
 20
0.0
 30
0.0
  3
rvsn_blk
  1

  0
ATTDEF
  5
867
330
866
100
AcDbEntity
  8
DIM
100
AcDbText
 10
-0.1443252782292399
 20
0.0442732402878181
 30
1.0
 40
0.07
  1

  7
SIMPLEX
100
AcDbAttributeDefinition
  3
REV_#
  2
X
 70
     0
  0
ATTDEF
  5
868
330
866
100
AcDbEntity
  8
DIM
100
AcDbText
 10
0.269150253848311
 20
0.0469563354417511
 30
1.0
 40
0.07
  1

  7
SIMPLEX
 72
     1
 11
0.269150253848311
 21
0.0469563354417511
 31
1.0
100
AcDbAttributeDefinition
  3
DATE
  2
DATE
 70
     0
  0
ATTDEF
  5
869
330
866
100
AcDbEntity
  8
DIM
100
AcDbText
 10
0.7631729674994113
 20
0.0469563354417511
 30
1.0
 40
0.07
  1

  7
SIMPLEX
 72
     1
 11
0.7631729674994113
 21
0.0469563354417511
 31
1.0
100
AcDbAttributeDefinition
  3
INITIALS
  2
XXX
 70
     0
  0
ENDBLK
  5
86B
330
866
100
AcDbEntity
  8
0
100
AcDbBlockEnd
  0
ENDSEC
  0
SECTION
  2
ENTITIES
  0
TEXT
  5
295
330
18
100
AcDbEntity
  8
LABEL
100
AcDbText
 10
-5.98947245385751
 20
-1.214345583682277
 30
0.0
 40
0.2137377891644277
  1
HUNDER
 50
270.0
 41
0.8092885375494079
 51
15.0
  7
COMPLEX
 72
     5
 11
-5.98947245385751
 21
-2.301620424214366
 31
0.0
100
AcDbText
  0
TEXT
  5
296
330
18
100
AcDbEntity
  8
LABEL
100
AcDbText
 10
-5.98947245385751
 20
-1.036230759378587
 30
0.0
 40
0.3294753238181605
  1
T       F  
 50
270.0
 41
0.5994552123363233
 51
15.0
  7
COMPLEX
 72
     5
 11
-5.98947245385751
 21
-3.180578361539097
 31
0.0
100
AcDbText
  0
TEXT
  5
297
330
18
100
AcDbEntity
  8
LABEL
100
AcDbText
 10
-5.98947245385751
 20
-2.776722357737469
 30
0.0
 40
0.2137377891644277
  1
OG
 50
270.0
 41
0.9197010869565231
 51
15.0
  7
COMPLEX
 72
     5
 11
-5.98947245385751
 21
-3.151150694915008
 31
0.0
100
AcDbText
  0
ARC
  5
298
330
18
100
AcDbEntity
  8
PART
100
AcDbCircle
 10
-8.489022200802736
 20
-3.482500000000007
 30
0.0
 40
0.03
100
AcDbArc
 50
180.0
 51
270.0
  0
LINE
  5
299
330
18
100
AcDbEntity
  8
PART
100
AcDbLine
 10
-6.189022200802737
 20
-3.250000000000007
 30
0.0
 11
-6.209022200802735
 21
-3.270000000000004
 31
0.0
  0
LINE
  5
29A
330
18
100
AcDbEntity
  8
PART
100
AcDbLine
 10
-6.189022200802737
 20
-3.250000000000007
 30
0.0
 11
-5.549022200802737
 21
-3.250000000000007
 31
0.0
  0
LINE
  5
29B
330
18
100
AcDbEntity
  8
PART
100
AcDbLine
 10
-7.659022200802734
 20
-3.500000000000007
 30
0.0
 11
-7.209022200802735
 21
-3.500000000000007
 31
0.0
  0
LINE
  5
29C
330
18
100
AcDbEntity
  8
PART
100
AcDbLine
 10
-7.149022200802734
 20
-3.725000000000006
 30
0.0
 11
-6.269022200802735
 21
-3.725000000000006
 31
0.0
  0
ARC
  5
29D
330
18
100
AcDbEntity
  8
PART
100
AcDbCircle
 10
-7.149022200802734
 20
-3.665000000000006
 30
0.0
 40
0.06
100
AcDbArc
 50
180.0
 51
270.0
  0
ARC
  5
29E
330
18
100
AcDbEntity
  8
PART
100
AcDbCircle
 10
-6.269022200802735
 20
-3.665000000000006
 30
0.0
 40
0.06
100
AcDbArc
 50
270.0
 51
0.0
  0
LINE
  5
29F
330
18
100
AcDbEntity
  8
PART
100
AcDbLine
 10
-7.149022200802734
 20
-2.459827468662119
 30
0.0
 11
-6.269022200802735
 21
-2.459827468662119
 31
0.0
  0
LINE
  5
2A0
330
18
100
AcDbEntity
  8
PART
100
AcDbLine
 10
-7.209022200802735
 20
-2.519335669365689
 30
0.0
 11
-6.209022200802735
 21
-2.519335669365689
 31
0.0
  0
LINE
  5
2A1
330
18
100
AcDbEntity
  8
PART
100
AcDbLine
 10
-7.209022200802735
 20
-2.538599832890902
 30
0.0
 11
-6.209022200802735
 21
-2.538599832890902
 31
0.0
  0
LINE
  5
2A2
330
18
100
AcDbEntity
  8
PART
100
AcDbLine
 10
-7.209022200802735
 20
-2.770899740802374
 30
0.0
 11
-6.209022200802735
 21
-2.770899740802374
 31
0.0
  0
LINE
  5
2A3
330
18
100
AcDbEntity
  8
PART
100
AcDbLine
 10
-7.209022200802735
 20
-2.797518570830185
 30
0.0
 11
-6.209022200802735
 21
-2.797518570830185
 31
0.0
  0
LINE
  5
2A4
330
18
100
AcDbEntity
  8
PART
100
AcDbLine
 10
-7.149022200802734
 20
-3.016262788575337
 30
0.0
 11
-6.269022200802735
 21
-3.016262788575339
 31
0.0
  0
LINE
  5
2A5
330
18
100
AcDbEntity
  8
PART
100
AcDbLine
 10
-7.149022200802734
 20
-3.449613615723409
 30
0.0
 11
-6.269022200802735
 21
-3.449613615723409
 31
0.0
  0
LINE
  5
2A6
330
18
100
AcDbEntity
  8
PART
100
AcDbLine
 10
-7.149022200802734
 20
-3.683917990886843
 30
0.0
 11
-6.269022200802735
 21
-3.683917990886843
 31
0.0
  0
LINE
  5
2A7
330
18
100
AcDbEntity
  8
PART
100
AcDbLine
 10
-7.149022200802734
 20
-3.725000000000006
 30
0.0
 11
-7.149022200802734
 21
-3.683917990886842
 31
0.0
  0
ARC
  5
2A8
330
18
100
AcDbEntity
  8
PART
100
AcDbCircle
 10
-7.149022200802734
 20
-3.389613615723408
 30
0.0
 40
0.06
100
AcDbArc
 50
180.0
 51
270.0
  0
ARC
  5
2A9
330
18
100
AcDbEntity
  8
PART
100
AcDbCircle
 10
-7.149022200802734
 20
-3.623917990886843
 30
0.0
 40
0.06
100
AcDbArc
 50
180.0
 51
270.0
  0
LINE
  5
2AA
330
18
100
AcDbEntity
  8
PART
100
AcDbLine
 10
-7.149022200802734
 20
-3.449613615723409
 30
0.0
 11
-7.149022200802734
 21
-3.016262788575337
 31
0.0
  0
ARC
  5
2AB
330
18
100
AcDbEntity
  8
PART
100
AcDbCircle
 10
-7.149022200802734
 20
-2.956262788575337
 30
0.0
 40
0.06
100
AcDbArc
 50
180.0
 51
270.0
  0
ARC
  5
2AC
330
18
100
AcDbEntity
  8
PART
100
AcDbCircle
 10
-7.149022200802734
 20
-2.51982746866212
 30
0.0
 40
0.06
100
AcDbArc
 50
90.00000000000003
 51
180.0
  0
LINE
  5
2AD
330
18
100
AcDbEntity
  8
PART
100
AcDbLine
 10
-7.149022200802734
 20
-2.459827468662119
 30
0.0
 11
-7.149022200802735
 21
-1.790172531337894
 31
0.0
  0
ARC
  5
2AE
330
18
100
AcDbEntity
  8
PART
100
AcDbCircle
 10
-6.269022200802735
 20
-2.519335669365689
 30
0.0
 40
0.06
100
AcDbArc
 50
0.0
 51
89.99999999999996
  0
ARC
  5
2AF
330
18
100
AcDbEntity
  8
PART
100
AcDbCircle
 10
-6.269022200802734
 20
-2.956262788575337
 30
0.0
 40
0.06
100
AcDbArc
 50
270.0
 51
0.0
  0
LINE
  5
2B0
330
18
100
AcDbEntity
  8
PART
100
AcDbLine
 10
-6.269022200802735
 20
-3.449613615723409
 30
0.0
 11
-6.269022200802735
 21
-3.016262788575339
 31
0.0
  0
LINE
  5
2B1
330
18
100
AcDbEntity
  8
PART
100
AcDbLine
 10
-6.269022200802735
 20
-3.725000000000006
 30
0.0
 11
-6.269022200802735
 21
-3.683917990886842
 31
0.0
  0
ARC
  5
2B2
330
18
100
AcDbEntity
  8
PART
100
AcDbCircle
 10
-6.269022200802735
 20
-3.389613615723408
 30
0.0
 40
0.06
100
AcDbArc
 50
270.0
 51
0.0
  0
ARC
  5
2B3
330
18
100
AcDbEntity
  8
PART
100
AcDbCircle
 10
-6.269022200802735
 20
-3.623917990886841
 30
0.0
 40
0.06
100
AcDbArc
 50
270.0
 51
0.0
  0
LINE
  5
2B4
330
18
100
AcDbEntity
  8
PART
100
AcDbLine
 10
-8.489022200802736
 20
-3.512500000000006
 30
0.0
 11
-7.669022200802736
 21
-3.512500000000006
 31
0.0
  0
LINE
  5
2B5
330
18
100
AcDbEntity
  8
PART
100
AcDbLine
 10
-8.489022200802736
 20
-0.7375000000000079
 30
0.0
 11
-7.669022200802736
 21
-0.7375000000000079
 31
0.0
  0
ARC
  5
2B6
330
18
100
AcDbEntity
  8
PART
100
AcDbCircle
 10
-8.489022200802736
 20
-0.7675000000000072
 30
0.0
 40
0.03
100
AcDbArc
 50
90.0
 51
180.0
  0
LINE
  5
2B7
330
18
100
AcDbEntity
  8
PART
100
AcDbLine
 10
-8.519022200802737
 20
-3.482500000000007
 30
0.0
 11
-8.519022200802737
 21
-0.7675000000000072
 31
0.0
  0
LINE
  5
2B8
330
18
100
AcDbEntity
  8
PART
100
AcDbLine
 10
-7.669022200802736
 20
-3.512500000000006
 30
0.0
 11
-7.669022200802734
 21
-0.7375000000000079
 31
0.0
  0
LINE
  5
2B9
330
18
100
AcDbEntity
  8
PART
100
AcDbLine
 10
-7.669022200802736
 20
-0.9725000000000072
 30
0.0
 11
-7.659022200802734
 21
-0.9725000000000072
 31
0.0
  0
ARC
  5
2BA
330
18
100
AcDbEntity
  8
PART
100
AcDbCircle
 10
-6.269022200802735
 20
-0.6260820091131727
 30
0.0
 40
0.06
100
AcDbArc
 50
0.0000000000000254
 51
90.00000000000003
  0
ARC
  5
2BB
330
18
100
AcDbEntity
  8
PART
100
AcDbCircle
 10
-6.269022200802735
 20
-0.8603863842766052
 30
0.0
 40
0.06
100
AcDbArc
 50
0.0000000000000254
 51
90.00000000000003
  0
LINE
  5
2BC
330
18
100
AcDbEntity
  8
PART
100
AcDbLine
 10
-6.269022200802735
 20
-0.5250000000000075
 30
0.0
 11
-6.269022200802735
 21
-0.5660820091131722
 31
0.0
  0
LINE
  5
2BD
330
18
100
AcDbEntity
  8
PART
100
AcDbLine
 10
-6.269022200802735
 20
-0.8003863842766048
 30
0.0
 11
-6.269022200802735
 21
-1.233737211424674
 31
0.0
  0
ARC
  5
2BE
330
18
100
AcDbEntity
  8
PART
100
AcDbCircle
 10
-6.269022200802734
 20
-1.293737211424677
 30
0.0
 40
0.06
100
AcDbArc
 50
0.0
 51
90.0
  0
LINE
  5
2BF
330
18
100
AcDbEntity
  8
PART
100
AcDbLine
 10
-6.209022200802735
 20
-3.665000000000006
 30
0.0
 11
-6.209022200802735
 21
-0.585000000000008
 31
0.0
  0
ARC
  5
2C0
330
18
100
AcDbEntity
  8
PART
100
AcDbCircle
 10
-6.269022200802735
 20
-1.730664330634324
 30
0.0
 40
0.06
100
AcDbArc
 50
270.0000000000001
 51
0.0
  0
LINE
  5
2C1
330
18
100
AcDbEntity
  8
PART
100
AcDbLine
 10
-6.269022200802735
 20
-1.790664330634324
 30
0.0
 11
-6.269022200802735
 21
-2.459827468662119
 31
0.0
  0
ARC
  5
2C2
330
18
100
AcDbEntity
  8
PART
100
AcDbCircle
 10
-7.149022200802734
 20
-1.730172531337894
 30
0.0
 40
0.06
100
AcDbArc
 50
180.0
 51
270.0
  0
ARC
  5
2C3
330
18
100
AcDbEntity
  8
PART
100
AcDbCircle
 10
-7.149022200802734
 20
-1.293737211424677
 30
0.0
 40
0.06
100
AcDbArc
 50
90.0
 51
180.0
  0
LINE
  5
2C4
330
18
100
AcDbEntity
  8
PART
100
AcDbLine
 10
-7.149022200802734
 20
-0.8003863842766048
 30
0.0
 11
-7.149022200802734
 21
-1.233737211424676
 31
0.0
  0
ARC
  5
2C5
330
18
100
AcDbEntity
  8
PART
100
AcDbCircle
 10
-7.149022200802734
 20
-0.626082009113171
 30
0.0
 40
0.06
100
AcDbArc
 50
90.0
 51
180.0
  0
ARC
  5
2C6
330
18
100
AcDbEntity
  8
PART
100
AcDbCircle
 10
-7.149022200802734
 20
-0.8603863842766052
 30
0.0
 40
0.06
100
AcDbArc
 50
90.0
 51
180.0
  0
LINE
  5
2C7
330
18
100
AcDbEntity
  8
PART
100
AcDbLine
 10
-7.149022200802734
 20
-0.5250000000000075
 30
0.0
 11
-7.149022200802734
 21
-0.5660820091131722
 31
0.0
  0
LINE
  5
2C8
330
18
100
AcDbEntity
  8
PART
100
AcDbLine
 10
-7.149022200802734
 20
-0.5660820091131705
 30
0.0
 11
-6.269022200802735
 21
-0.5660820091131705
 31
0.0
  0
LINE
  5
2C9
330
18
100
AcDbEntity
  8
PART
100
AcDbLine
 10
-7.149022200802734
 20
-0.8003863842766048
 30
0.0
 11
-6.269022200802735
 21
-0.8003863842766048
 31
0.0
  0
LINE
  5
2CA
330
18
100
AcDbEntity
  8
PART
100
AcDbLine
 10
-7.149022200802734
 20
-1.233737211424676
 30
0.0
 11
-6.269022200802735
 21
-1.233737211424674
 31
0.0
  0
LINE
  5
2CB
330
18
100
AcDbEntity
  8
PART
100
AcDbLine
 10
-7.209022200802735
 20
-1.452481429169829
 30
0.0
 11
-6.209022200802735
 21
-1.452481429169829
 31
0.0
  0
LINE
  5
2CC
330
18
100
AcDbEntity
  8
PART
100
AcDbLine
 10
-7.209022200802735
 20
-1.47910025919764
 30
0.0
 11
-6.209022200802735
 21
-1.47910025919764
 31
0.0
  0
LINE
  5
2CD
330
18
100
AcDbEntity
  8
PART
100
AcDbLine
 10
-7.209022200802735
 20
-1.711400167109111
 30
0.0
 11
-6.209022200802735
 21
-1.711400167109111
 31
0.0
  0
LINE
  5
2CE
330
18
100
AcDbEntity
  8
PART
100
AcDbLine
 10
-7.209022200802735
 20
-1.730664330634324
 30
0.0
 11
-6.209022200802735
 21
-1.730664330634324
 31
0.0
  0
LINE
  5
2CF
330
18
100
AcDbEntity
  8
PART
100
AcDbLine
 10
-7.149022200802735
 20
-1.790172531337894
 30
0.0
 11
-6.269022200802735
 21
-1.790172531337894
 31
0.0
  0
ARC
  5
2D0
330
18
100
AcDbEntity
  8
PART
100
AcDbCircle
 10
-6.269022200802735
 20
-0.585000000000008
 30
0.0
 40
0.06
100
AcDbArc
 50
0.0
 51
90.0
  0
ARC
  5
2D1
330
18
100
AcDbEntity
  8
PART
100
AcDbCircle
 10
-7.149022200802734
 20
-0.585000000000008
 30
0.0
 40
0.06
100
AcDbArc
 50
90.0
 51
180.0
  0
LINE
  5
2D2
330
18
100
AcDbEntity
  8
PART
100
AcDbLine
 10
-7.149022200802734
 20
-0.5250000000000075
 30
0.0
 11
-6.269022200802735
 21
-0.5250000000000075
 31
0.0
  0
LINE
  5
2D3
330
18
100
AcDbEntity
  8
PART
100
AcDbLine
 10
-7.209022200802735
 20
-3.665000000000006
 30
0.0
 11
-7.209022200802735
 21
-0.585000000000008
 31
0.0
  0
LINE
  5
2D4
330
18
100
AcDbEntity
  8
PART
100
AcDbLine
 10
-7.659022200802734
 20
-0.7500000000000071
 30
0.0
 11
-7.209022200802735
 21
-0.7500000000000071
 31
0.0
  0
LINE
  5
2D5
330
18
100
AcDbEntity
  8
PART
100
AcDbLine
 10
-7.659022200802734
 20
-3.500000000000007
 30
0.0
 11
-7.659022200802734
 21
-0.7500000000000071
 31
0.0
  0
LINE
  5
2D6
330
18
100
AcDbEntity
  8
PART
100
AcDbLine
 10
-6.189022200802737
 20
-1.000000000000007
 30
0.0
 11
-5.549022200802737
 21
-1.000000000000007
 31
0.0
  0
LINE
  5
2D7
330
18
100
AcDbEntity
  8
PART
100
AcDbLine
 10
-6.189022200802737
 20
-1.000000000000007
 30
0.0
 11
-6.209022200802735
 21
-0.9800000000000093
 31
0.0
  0
LINE
  5
32F
330
18
100
AcDbEntity
  8
PART
100
AcDbLine
 10
-6.269022200802735
 20
-1.831000771493469
 30
0.0
 11
-6.395537837081375
 21
-1.790172531337894
 31
0.0
  0
LINE
  5
330
330
18
100
AcDbEntity
  8
PART
100
AcDbLine
 10
-6.451920433573457
 20
-1.233737211424674
 30
0.0
 11
-7.149022200802734
 21
-1.047086970165505
 31
0.0
  0
LINE
  5
331
330
18
100
AcDbEntity
  8
PART
100
AcDbLine
 10
-7.149022200802734
 20
-1.047086970165505
 30
0.0
 11
-6.269022200802735
 21
-0.8481724363516178
 31
0.0
  0
LINE
  5
332
330
18
100
AcDbEntity
  8
PART
100
AcDbLine
 10
-6.269022200802735
 20
-0.8481724363516178
 30
0.0
 11
-6.539566652516342
 21
-0.8003863842766048
 31
0.0
  0
LINE
  5
333
330
18
100
AcDbEntity
  8
PART
100
AcDbLine
 10
-6.593375040131942
 20
-0.5660820091131705
 30
0.0
 11
-7.149022200802734
 21
-0.531825317927952
 31
0.0
  0
LINE
  5
334
330
18
100
AcDbEntity
  8
PART
100
AcDbLine
 10
-7.149022200802734
 20
-1.977370624858695
 30
0.0
 11
-6.581425733967408
 21
-1.790172531337894
 31
0.0
  0
LINE
  5
335
330
18
100
AcDbEntity
  8
PART
100
AcDbLine
 10
-6.52475768505503
 20
-1.233737211424674
 30
0.0
 11
-6.269022200802735
 21
-1.160784581793184
 31
0.0
  0
LINE
  5
336
330
18
100
AcDbEntity
  8
PART
100
AcDbLine
 10
-6.269022200802735
 20
-1.160784581793184
 30
0.0
 11
-7.149022200802734
 21
-0.9425857324469451
 31
0.0
  0
LINE
  5
337
330
18
100
AcDbEntity
  8
PART
100
AcDbLine
 10
-7.149022200802734
 20
-0.9425857324469451
 30
0.0
 11
-6.445750063704425
 21
-0.8003863842766048
 31
0.0
  0
LINE
  5
338
330
18
100
AcDbEntity
  8
PART
100
AcDbLine
 10
-6.419741043704668
 20
-0.5660820091131705
 30
0.0
 11
-6.269022200802735
 21
-0.552243040505763
 31
0.0
  0
LINE
  5
339
330
18
100
AcDbEntity
  8
PART
100
AcDbLine
 10
-6.269022200802735
 20
-0.552243040505763
 30
0.0
 11
-7.149022200802734
 21
-0.5250000000000075
 31
0.0
  0
LINE
  5
33A
330
18
100
AcDbEntity
  8
PART
100
AcDbLine
 10
-6.269022200802735
 20
-2.124999999999976
 30
0.0
 11
-7.149022200802735
 21
-1.831000771493469
 31
0.0
  0
LINE
  5
33B
330
18
100
AcDbEntity
  8
PART
100
AcDbLine
 10
-7.149022200802735
 20
-1.831000771493469
 30
0.0
 11
-7.022506564524096
 21
-1.790172531337894
 31
0.0
  0
LINE
  5
33C
330
18
100
AcDbEntity
  8
PART
100
AcDbLine
 10
-6.269022200802735
 20
-1.977370624858695
 30
0.0
 11
-6.836618667638061
 21
-1.790172531337894
 31
0.0
  0
LINE
  5
33D
330
18
100
AcDbEntity
  8
PART
100
AcDbLine
 10
-6.893286716550438
 20
-1.233737211424675
 30
0.0
 11
-7.149022200802735
 21
-1.160784581793184
 31
0.0
  0
LINE
  5
33E
330
18
100
AcDbEntity
  8
PART
100
AcDbLine
 10
-6.966123968032016
 20
-1.233737211424675
 30
0.0
 11
-6.269022200802735
 21
-1.047086970165505
 31
0.0
  0
LINE
  5
33F
330
18
100
AcDbEntity
  8
PART
100
AcDbLine
 10
-7.149022200802735
 20
-1.160784581793184
 30
0.0
 11
-6.269022200802735
 21
-0.9425857324469451
 31
0.0
  0
LINE
  5
340
330
18
100
AcDbEntity
  8
PART
100
AcDbLine
 10
-6.269022200802735
 20
-1.047086970165505
 30
0.0
 11
-7.149022200802735
 21
-0.8481724363516178
 31
0.0
  0
LINE
  5
341
330
18
100
AcDbEntity
  8
PART
100
AcDbLine
 10
-6.269022200802735
 20
-0.9425857324469451
 30
0.0
 11
-6.972294337901047
 21
-0.8003863842766048
 31
0.0
  0
LINE
  5
342
330
18
100
AcDbEntity
  8
PART
100
AcDbLine
 10
-7.149022200802735
 20
-0.8481724363516178
 30
0.0
 11
-6.878477749089128
 21
-0.8003863842766048
 31
0.0
  0
LINE
  5
343
330
18
100
AcDbEntity
  8
PART
100
AcDbLine
 10
-6.998303357900802
 20
-0.5660820091131705
 30
0.0
 11
-7.149022200802735
 21
-0.552243040505763
 31
0.0
  0
LINE
  5
344
330
18
100
AcDbEntity
  8
PART
100
AcDbLine
 10
-6.824669361473526
 20
-0.5660820091131705
 30
0.0
 11
-6.269022200802735
 21
-0.531825317927952
 31
0.0
  0
LINE
  5
345
330
18
100
AcDbEntity
  8
PART
100
AcDbLine
 10
-7.149022200802735
 20
-0.552243040505763
 30
0.0
 11
-6.269022200802735
 21
-0.5250000000000075
 31
0.0
  0
LINE
  5
346
330
18
100
AcDbEntity
  8
PART
100
AcDbLine
 10
-6.269022200802735
 20
-2.272629375141256
 30
0.0
 11
-6.836618667638061
 21
-2.459827468662059
 31
0.0
  0
LINE
  5
347
330
18
100
AcDbEntity
  8
PART
100
AcDbLine
 10
-7.149022200802735
 20
-2.418999228506483
 30
0.0
 11
-7.022506564524096
 21
-2.459827468662059
 31
0.0
  0
LINE
  5
348
330
18
100
AcDbEntity
  8
PART
100
AcDbLine
 10
-6.269022200802735
 20
-2.124999999999976
 30
0.0
 11
-7.149022200802734
 21
-2.418999228506483
 31
0.0
  0
LINE
  5
349
330
18
100
AcDbEntity
  8
PART
100
AcDbLine
 10
-7.149022200802734
 20
-2.272629375141256
 30
0.0
 11
-6.581425733967408
 21
-2.459827468662059
 31
0.0
  0
LINE
  5
34A
330
18
100
AcDbEntity
  8
PART
100
AcDbLine
 10
-6.269022200802735
 20
-2.418999228506483
 30
0.0
 11
-6.395537837081375
 21
-2.459827468662059
 31
0.0
  0
LINE
  5
34B
330
18
100
AcDbEntity
  8
PART
100
AcDbLine
 10
-7.149022200802735
 20
-3.697756959494189
 30
0.0
 11
-6.269022200802735
 21
-3.724999999999946
 31
0.0
  0
LINE
  5
34C
330
18
100
AcDbEntity
  8
PART
100
AcDbLine
 10
-6.824669361473526
 20
-3.683917990886782
 30
0.0
 11
-6.269022200802735
 21
-3.718174682072001
 31
0.0
  0
LINE
  5
34D
330
18
100
AcDbEntity
  8
PART
100
AcDbLine
 10
-6.998303357900802
 20
-3.683917990886782
 30
0.0
 11
-7.149022200802735
 21
-3.697756959494189
 31
0.0
  0
LINE
  5
34E
330
18
100
AcDbEntity
  8
PART
100
AcDbLine
 10
-7.149022200802735
 20
-3.401827563648335
 30
0.0
 11
-6.878477749089128
 21
-3.449613615723349
 31
0.0
  0
LINE
  5
34F
330
18
100
AcDbEntity
  8
PART
100
AcDbLine
 10
-6.269022200802735
 20
-3.307414267553008
 30
0.0
 11
-6.972294337901047
 21
-3.449613615723348
 31
0.0
  0
LINE
  5
350
330
18
100
AcDbEntity
  8
PART
100
AcDbLine
 10
-6.269022200802735
 20
-3.202913029834447
 30
0.0
 11
-7.149022200802735
 21
-3.401827563648335
 31
0.0
  0
LINE
  5
351
330
18
100
AcDbEntity
  8
PART
100
AcDbLine
 10
-7.149022200802735
 20
-3.089215418206768
 30
0.0
 11
-6.269022200802735
 21
-3.307414267553008
 31
0.0
  0
LINE
  5
352
330
18
100
AcDbEntity
  8
PART
100
AcDbLine
 10
-6.966123968032016
 20
-3.016262788575277
 30
0.0
 11
-6.269022200802735
 21
-3.202913029834447
 31
0.0
  0
LINE
  5
353
330
18
100
AcDbEntity
  8
PART
100
AcDbLine
 10
-6.893286716550438
 20
-3.016262788575277
 30
0.0
 11
-7.149022200802735
 21
-3.089215418206768
 31
0.0
  0
LINE
  5
354
330
18
100
AcDbEntity
  8
PART
100
AcDbLine
 10
-6.269022200802735
 20
-3.697756959494189
 30
0.0
 11
-7.149022200802734
 21
-3.724999999999946
 31
0.0
  0
LINE
  5
355
330
18
100
AcDbEntity
  8
PART
100
AcDbLine
 10
-6.419741043704668
 20
-3.683917990886782
 30
0.0
 11
-6.269022200802735
 21
-3.697756959494189
 31
0.0
  0
LINE
  5
356
330
18
100
AcDbEntity
  8
PART
100
AcDbLine
 10
-7.149022200802734
 20
-3.307414267553008
 30
0.0
 11
-6.445750063704425
 21
-3.449613615723348
 31
0.0
  0
LINE
  5
357
330
18
100
AcDbEntity
  8
PART
100
AcDbLine
 10
-6.269022200802735
 20
-3.089215418206768
 30
0.0
 11
-7.149022200802734
 21
-3.307414267553008
 31
0.0
  0
LINE
  5
358
330
18
100
AcDbEntity
  8
PART
100
AcDbLine
 10
-6.52475768505503
 20
-3.016262788575278
 30
0.0
 11
-6.269022200802735
 21
-3.089215418206768
 31
0.0
  0
LINE
  5
359
330
18
100
AcDbEntity
  8
PART
100
AcDbLine
 10
-6.593375040131942
 20
-3.683917990886782
 30
0.0
 11
-7.149022200802734
 21
-3.718174682072001
 31
0.0
  0
LINE
  5
35A
330
18
100
AcDbEntity
  8
PART
100
AcDbLine
 10
-6.269022200802735
 20
-3.401827563648335
 30
0.0
 11
-6.539566652516342
 21
-3.449613615723349
 31
0.0
  0
LINE
  5
35B
330
18
100
AcDbEntity
  8
PART
100
AcDbLine
 10
-7.149022200802734
 20
-3.202913029834447
 30
0.0
 11
-6.269022200802735
 21
-3.401827563648335
 31
0.0
  0
LINE
  5
35C
330
18
100
AcDbEntity
  8
PART
100
AcDbLine
 10
-6.451920433573457
 20
-3.016262788575278
 30
0.0
 11
-7.149022200802734
 21
-3.202913029834447
 31
0.0
  0
LINE
  5
35D
330
18
100
AcDbEntity
  8
PART
100
AcDbLine
 10
-7.149022200802734
 20
-3.724999999999946
 30
0.0
 11
-6.269022200802735
 21
-3.724999999999946
 31
0.0
  0
LINE
  5
35E
330
18
100
AcDbEntity
  8
PART
100
AcDbLine
 10
-7.149022200802734
 20
-3.016262788575277
 30
0.0
 11
-6.269022200802735
 21
-3.016262788575279
 31
0.0
  0
LINE
  5
35F
330
18
100
AcDbEntity
  8
PART
100
AcDbLine
 10
-7.149022200802734
 20
-3.449613615723349
 30
0.0
 11
-6.269022200802735
 21
-3.449613615723349
 31
0.0
  0
LINE
  5
360
330
18
100
AcDbEntity
  8
PART
100
AcDbLine
 10
-7.149022200802734
 20
-3.683917990886783
 30
0.0
 11
-6.269022200802735
 21
-3.683917990886783
 31
0.0
  0
LINE
  5
361
330
18
100
AcDbEntity
  8
PART
100
AcDbLine
 10
-7.149022200802734
 20
-3.724999999999946
 30
0.0
 11
-7.149022200802734
 21
-3.683917990886781
 31
0.0
  0
LINE
  5
362
330
18
100
AcDbEntity
  8
PART
100
AcDbLine
 10
-7.149022200802734
 20
-3.449613615723349
 30
0.0
 11
-7.149022200802734
 21
-3.016262788575277
 31
0.0
  0
LINE
  5
363
330
18
100
AcDbEntity
  8
PART
100
AcDbLine
 10
-6.269022200802735
 20
-3.449613615723349
 30
0.0
 11
-6.269022200802735
 21
-3.016262788575279
 31
0.0
  0
LINE
  5
364
330
18
100
AcDbEntity
  8
PART
100
AcDbLine
 10
-6.269022200802735
 20
-3.724999999999946
 30
0.0
 11
-6.269022200802735
 21
-3.683917990886781
 31
0.0
  0
LINE
  5
365
330
18
100
AcDbEntity
  8
PART
100
AcDbLine
 10
-6.269022200802735
 20
-2.272629375141256
 30
0.0
 11
-7.149022200802735
 21
-1.977370624858695
 31
0.0
  0
LINE
  5
366
330
18
100
AcDbEntity
  8
PART
100
AcDbLine
 10
-7.149022200802735
 20
-2.124999999999976
 30
0.0
 11
-6.269022200802735
 21
-1.831000771493469
 31
0.0
  0
LINE
  5
367
330
18
100
AcDbEntity
  8
PART
100
AcDbLine
 10
-7.149022200802734
 20
-2.272629375141256
 30
0.0
 11
-6.269022200802735
 21
-1.977370624858695
 31
0.0
  0
LINE
  5
368
330
18
100
AcDbEntity
  8
PART
100
AcDbLine
 10
-7.149022200802735
 20
-2.124999999999976
 30
0.0
 11
-6.269022200802735
 21
-2.418999228506483
 31
0.0
  0
POLYLINE
  5
369
330
18
100
AcDbEntity
  8
POLYLINE
100
AcDb2dPolyline
 66
     1
 10
0.0
 20
0.0
 30
0.0
 40
0.015
 41
0.015
  0
VERTEX
  5
36A
330
369
100
AcDbEntity
  8
POLYLINE
100
AcDbVertex
100
AcDb2dVertex
 10
0.1500000000000003
 20
1.415000000000005
 30
0.0
  0
VERTEX
  5
36B
330
369
100
AcDbEntity
  8
POLYLINE
100
AcDbVertex
100
AcDb2dVertex
 10
0.1200000000000001
 20
1.385000000000006
 30
0.0
  0
VERTEX
  5
36C
330
369
100
AcDbEntity
  8
POLYLINE
100
AcDbVertex
100
AcDb2dVertex
 10
0.0600000000000001
 20
1.385000000000005
 30
0.0
 42
0.4142135623730934
  0
VERTEX
  5
36D
330
369
100
AcDbEntity
  8
POLYLINE
100
AcDbVertex
100
AcDb2dVertex
 10
0.0
 20
1.325000000000005
 30
0.0
  0
VERTEX
  5
36E
330
369
100
AcDbEntity
  8
POLYLINE
100
AcDbVertex
100
AcDb2dVertex
 10
0.0
 20
-1.325000000000005
 30
0.0
 42
0.4142135623730928
  0
VERTEX
  5
36F
330
369
100
AcDbEntity
  8
POLYLINE
100
AcDbVertex
100
AcDb2dVertex
 10
0.0600000000000001
 20
-1.385000000000006
 30
0.0
  0
VERTEX
  5
370
330
369
100
AcDbEntity
  8
POLYLINE
100
AcDbVertex
100
AcDb2dVertex
 10
0.1200000000000001
 20
-1.385000000000005
 30
0.0
  0
VERTEX
  5
371
330
369
100
AcDbEntity
  8
POLYLINE
100
AcDbVertex
100
AcDb2dVertex
 10
0.1500000000000003
 20
-1.415000000000005
 30
0.0
  0
SEQEND
  5
372
330
369
100
AcDbEntity
  8
POLYLINE
  0
POLYLINE
  5
373
330
18
100
AcDbEntity
  8
POLYLINE
100
AcDb2dPolyline
 66
     1
 10
0.0
 20
0.0
 30
0.0
 40
0.015
 41
0.015
  0
VERTEX
  5
374
330
373
100
AcDbEntity
  8
POLYLINE
100
AcDbVertex
100
AcDb2dVertex
 10
0.1200000000000001
 20
1.385000000000005
 30
0.0
  0
VERTEX
  5
375
330
373
100
AcDbEntity
  8
POLYLINE
100
AcDbVertex
100
AcDb2dVertex
 10
0.1200000000000001
 20
-1.385000000000006
 30
0.0
  0
SEQEND
  5
376
330
373
100
AcDbEntity
  8
POLYLINE
  0
POLYLINE
  5
377
330
18
100
AcDbEntity
  8
POLYLINE
100
AcDb2dPolyline
 66
     1
 10
0.0
 20
0.0
 30
0.0
 40
0.015
 41
0.015
  0
VERTEX
  5
378
330
377
100
AcDbEntity
  8
POLYLINE
100
AcDbVertex
100
AcDb2dVertex
 10
0.7900000000000005
 20
1.415000000000005
 30
0.0
  0
VERTEX
  5
379
330
377
100
AcDbEntity
  8
POLYLINE
100
AcDbVertex
100
AcDb2dVertex
 10
0.8199999999999999
 20
1.385000000000005
 30
0.0
  0
VERTEX
  5
37A
330
377
100
AcDbEntity
  8
POLYLINE
100
AcDbVertex
100
AcDb2dVertex
 10
0.93
 20
1.385000000000006
 30
0.0
 42
-0.4142135623730978
  0
VERTEX
  5
37B
330
377
100
AcDbEntity
  8
POLYLINE
100
AcDbVertex
100
AcDb2dVertex
 10
0.9399999999999998
 20
1.375000000000006
 30
0.0
  0
VERTEX
  5
37C
330
377
100
AcDbEntity
  8
POLYLINE
100
AcDbVertex
100
AcDb2dVertex
 10
0.9399999999999998
 20
-1.375000000000005
 30
0.0
 42
-0.4142135623730885
  0
VERTEX
  5
37D
330
377
100
AcDbEntity
  8
POLYLINE
100
AcDbVertex
100
AcDb2dVertex
 10
0.93
 20
-1.385000000000006
 30
0.0
  0
VERTEX
  5
37E
330
377
100
AcDbEntity
  8
POLYLINE
100
AcDbVertex
100
AcDb2dVertex
 10
0.8199999999999999
 20
-1.385000000000006
 30
0.0
  0
VERTEX
  5
37F
330
377
100
AcDbEntity
  8
POLYLINE
100
AcDbVertex
100
AcDb2dVertex
 10
0.7900000000000005
 20
-1.415000000000005
 30
0.0
  0
SEQEND
  5
380
330
377
100
AcDbEntity
  8
POLYLINE
  0
POLYLINE
  5
381
330
18
100
AcDbEntity
  8
POLYLINE
100
AcDb2dPolyline
 66
     1
 10
0.0
 20
0.0
 30
0.0
 40
0.015
 41
0.015
  0
VERTEX
  5
382
330
381
100
AcDbEntity
  8
POLYLINE
100
AcDbVertex
100
AcDb2dVertex
 10
0.8199999999999999
 20
-1.385000000000006
 30
0.0
  0
VERTEX
  5
383
330
381
100
AcDbEntity
  8
POLYLINE
100
AcDbVertex
100
AcDb2dVertex
 10
0.8199999999999999
 20
1.385000000000005
 30
0.0
  0
SEQEND
  5
384
330
381
100
AcDbEntity
  8
POLYLINE
  0
POLYLINE
  5
385
330
18
100
AcDbEntity
  8
POLYLINE
100
AcDb2dPolyline
 66
     1
 10
0.0
 20
0.0
 30
0.0
 40
0.015
 41
0.015
  0
VERTEX
  5
386
330
385
100
AcDbEntity
  8
POLYLINE
100
AcDbVertex
100
AcDb2dVertex
 10
1.845910243542546
 20
1.387499999999968
 30
0.0
  0
VERTEX
  5
387
330
385
100
AcDbEntity
  8
POLYLINE
100
AcDbVertex
100
AcDb2dVertex
 10
1.025910243542545
 20
1.387499999999968
 30
0.0
 42
0.4142135623730868
  0
VERTEX
  5
388
330
385
100
AcDbEntity
  8
POLYLINE
100
AcDbVertex
100
AcDb2dVertex
 10
0.995910243542545
 20
1.357499999999969
 30
0.0
  0
VERTEX
  5
389
330
385
100
AcDbEntity
  8
POLYLINE
100
AcDbVertex
100
AcDb2dVertex
 10
0.995910243542545
 20
-1.35750000000003
 30
0.0
 42
0.4142135623731058
  0
VERTEX
  5
38A
330
385
100
AcDbEntity
  8
POLYLINE
100
AcDbVertex
100
AcDb2dVertex
 10
1.025910243542545
 20
-1.387500000000029
 30
0.0
  0
VERTEX
  5
38B
330
385
100
AcDbEntity
  8
POLYLINE
100
AcDbVertex
100
AcDb2dVertex
 10
1.845910243542546
 20
-1.387500000000029
 30
0.0
  0
VERTEX
  5
38C
330
385
100
AcDbEntity
  8
POLYLINE
100
AcDbVertex
100
AcDb2dVertex
 10
1.845910243542546
 20
1.387499999999968
 30
0.0
  0
SEQEND
  5
38D
330
385
100
AcDbEntity
  8
POLYLINE
  0
POLYLINE
  5
38E
330
18
100
AcDbEntity
  8
POLYLINE
100
AcDb2dPolyline
 66
     1
 10
0.0
 20
0.0
 30
0.0
 40
0.015
 41
0.015
  0
VERTEX
  5
38F
330
38E
100
AcDbEntity
  8
POLYLINE
100
AcDbVertex
100
AcDb2dVertex
 10
2.305910243542547
 20
1.374999999999969
 30
0.0
  0
VERTEX
  5
390
330
38E
100
AcDbEntity
  8
POLYLINE
100
AcDbVertex
100
AcDb2dVertex
 10
1.855910243542547
 20
1.374999999999969
 30
0.0
  0
VERTEX
  5
391
330
38E
100
AcDbEntity
  8
POLYLINE
100
AcDbVertex
100
AcDb2dVertex
 10
1.855910243542547
 20
-1.37500000000003
 30
0.0
  0
VERTEX
  5
392
330
38E
100
AcDbEntity
  8
POLYLINE
100
AcDbVertex
100
AcDb2dVertex
 10
2.305910243542547
 20
-1.37500000000003
 30
0.0
  0
SEQEND
  5
393
330
38E
100
AcDbEntity
  8
POLYLINE
  0
POLYLINE
  5
394
330
18
100
AcDbEntity
  8
POLYLINE
100
AcDb2dPolyline
 66
     1
 10
0.0
 20
0.0
 30
0.0
 40
0.015
 41
0.015
  0
VERTEX
  5
395
330
394
100
AcDbEntity
  8
POLYLINE
100
AcDbVertex
100
AcDb2dVertex
 10
2.365910243542546
 20
1.599999999999968
 30
0.0
 42
0.4626981467721722
  0
VERTEX
  5
396
330
394
100
AcDbEntity
  8
POLYLINE
100
AcDbVertex
100
AcDb2dVertex
 10
2.305910243542546
 20
1.539999999999968
 30
0.0
  0
VERTEX
  5
397
330
394
100
AcDbEntity
  8
POLYLINE
100
AcDbVertex
100
AcDb2dVertex
 10
2.305910243542546
 20
-1.540000000000029
 30
0.0
  0
SEQEND
  5
398
330
394
100
AcDbEntity
  8
POLYLINE
  0
POLYLINE
  5
399
330
18
100
AcDbEntity
  8
POLYLINE
100
AcDb2dPolyline
 66
     1
 10
0.0
 20
0.0
 30
0.0
 40
0.015
 41
0.015
  0
VERTEX
  5
39A
330
399
100
AcDbEntity
  8
POLYLINE
100
AcDbVertex
100
AcDb2dVertex
 10
2.365910243542546
 20
-1.600000000000029
 30
0.0
 42
-0.4142135623730949
  0
VERTEX
  5
39B
330
399
100
AcDbEntity
  8
POLYLINE
100
AcDbVertex
100
AcDb2dVertex
 10
2.305910243542546
 20
-1.540000000000029
 30
0.0
 42
0.9999999999999998
  0
SEQEND
  5
39C
330
399
100
AcDbEntity
  8
POLYLINE
  0
POLYLINE
  5
39D
330
18
100
AcDbEntity
  8
POLYLINE
100
AcDb2dPolyline
 66
     1
 10
0.0
 20
0.0
 30
0.0
 40
0.015
 41
0.015
  0
VERTEX
  5
39E
330
39D
100
AcDbEntity
  8
POLYLINE
100
AcDbVertex
100
AcDb2dVertex
 10
2.305910243542546
 20
1.264613615723371
 30
0.0
 42
-0.4142135623730896
  0
VERTEX
  5
39F
330
39D
100
AcDbEntity
  8
POLYLINE
100
AcDbVertex
100
AcDb2dVertex
 10
2.365910243542546
 20
1.324613615723372
 30
0.0
  0
VERTEX
  5
3A0
330
39D
100
AcDbEntity
  8
POLYLINE
100
AcDbVertex
100
AcDb2dVertex
 10
3.245910243542546
 20
1.324613615723372
 30
0.0
 42
-0.4142135623731025
  0
VERTEX
  5
3A1
330
39D
100
AcDbEntity
  8
POLYLINE
100
AcDbVertex
100
AcDb2dVertex
 10
3.305910243542546
 20
1.264613615723371
 30
0.0
 42
-0.9999999999999737
  0
SEQEND
  5
3A2
330
39D
100
AcDbEntity
  8
POLYLINE
  0
POLYLINE
  5
3A3
330
18
100
AcDbEntity
  8
POLYLINE
100
AcDb2dPolyline
 66
     1
 10
0.0
 20
0.0
 30
0.0
 40
0.015
 41
0.015
  0
VERTEX
  5
3A4
330
3A3
100
AcDbEntity
  8
POLYLINE
100
AcDbVertex
100
AcDb2dVertex
 10
2.305910243542546
 20
0.8312627885753022
 30
0.0
 42
-0.4142135623730896
  0
VERTEX
  5
3A5
330
3A3
100
AcDbEntity
  8
POLYLINE
100
AcDbVertex
100
AcDb2dVertex
 10
2.365910243542546
 20
0.8912627885753034
 30
0.0
  0
VERTEX
  5
3A6
330
3A3
100
AcDbEntity
  8
POLYLINE
100
AcDbVertex
100
AcDb2dVertex
 10
3.245910243542546
 20
0.8912627885753034
 30
0.0
 42
-0.4142135623731025
  0
VERTEX
  5
3A7
330
3A3
100
AcDbEntity
  8
POLYLINE
100
AcDbVertex
100
AcDb2dVertex
 10
3.305910243542546
 20
0.8312627885753022
 30
0.0
 42
-0.9999999999999737
  0
SEQEND
  5
3A8
330
3A3
100
AcDbEntity
  8
POLYLINE
  0
POLYLINE
  5
3A9
330
18
100
AcDbEntity
  8
POLYLINE
100
AcDb2dPolyline
 66
     1
 10
0.0
 20
0.0
 30
0.0
 40
0.015
 41
0.015
  0
VERTEX
  5
3AA
330
3A9
100
AcDbEntity
  8
POLYLINE
100
AcDbVertex
100
AcDb2dVertex
 10
2.305910243542546
 20
1.498917990886803
 30
0.0
 42
-0.4142135623730896
  0
VERTEX
  5
3AB
330
3A9
100
AcDbEntity
  8
POLYLINE
100
AcDbVertex
100
AcDb2dVertex
 10
2.365910243542546
 20
1.558917990886804
 30
0.0
  0
VERTEX
  5
3AC
330
3A9
100
AcDbEntity
  8
POLYLINE
100
AcDbVertex
100
AcDb2dVertex
 10
3.245910243542546
 20
1.558917990886804
 30
0.0
 42
-0.4142135623731025
  0
VERTEX
  5
3AD
330
3A9
100
AcDbEntity
  8
POLYLINE
100
AcDbVertex
100
AcDb2dVertex
 10
3.305910243542546
 20
1.498917990886803
 30
0.0
 42
-0.9999999999999737
  0
SEQEND
  5
3AE
330
3A9
100
AcDbEntity
  8
POLYLINE
  0
POLYLINE
  5
3AF
330
18
100
AcDbEntity
  8
POLYLINE
100
AcDb2dPolyline
 66
     1
 10
0.0
 20
0.0
 30
0.0
 40
0.015
 41
0.015
  0
VERTEX
  5
3B0
330
3AF
100
AcDbEntity
  8
POLYLINE
100
AcDbVertex
100
AcDb2dVertex
 10
2.305910243542546
 20
-0.3943356693657147
 30
0.0
 42
-0.4142135623730896
  0
VERTEX
  5
3B1
330
3AF
100
AcDbEntity
  8
POLYLINE
100
AcDbVertex
100
AcDb2dVertex
 10
2.365910243542546
 20
-0.3343356693657134
 30
0.0
  0
VERTEX
  5
3B2
330
3AF
100
AcDbEntity
  8
POLYLINE
100
AcDbVertex
100
AcDb2dVertex
 10
3.245910243542546
 20
-0.3343356693657134
 30
0.0
 42
-0.4142135623731025
  0
VERTEX
  5
3B3
330
3AF
100
AcDbEntity
  8
POLYLINE
100
AcDbVertex
100
AcDb2dVertex
 10
3.305910243542546
 20
-0.3943356693657147
 30
0.0
 42
-0.9999999999999737
  0
SEQEND
  5
3B4
330
3AF
100
AcDbEntity
  8
POLYLINE
  0
POLYLINE
  5
3B5
330
18
100
AcDbEntity
  8
POLYLINE
100
AcDb2dPolyline
 66
     1
 10
0.0
 20
0.0
 30
0.0
 40
0.015
 41
0.015
  0
VERTEX
  5
3B6
330
3B5
100
AcDbEntity
  8
POLYLINE
100
AcDbVertex
100
AcDb2dVertex
 10
2.305910243542546
 20
0.3943356693656532
 30
0.0
 42
0.4142135623730896
  0
VERTEX
  5
3B7
330
3B5
100
AcDbEntity
  8
POLYLINE
100
AcDbVertex
100
AcDb2dVertex
 10
2.365910243542546
 20
0.334335669365652
 30
0.0
  0
VERTEX
  5
3B8
330
3B5
100
AcDbEntity
  8
POLYLINE
100
AcDbVertex
100
AcDb2dVertex
 10
3.245910243542546
 20
0.334335669365652
 30
0.0
 42
0.4142135623731025
  0
VERTEX
  5
3B9
330
3B5
100
AcDbEntity
  8
POLYLINE
100
AcDbVertex
100
AcDb2dVertex
 10
3.305910243542546
 20
0.3943356693656532
 30
0.0
 42
0.9999999999999737
  0
SEQEND
  5
3BA
330
3B5
100
AcDbEntity
  8
POLYLINE
  0
POLYLINE
  5
3BB
330
18
100
AcDbEntity
  8
POLYLINE
100
AcDb2dPolyline
 66
     1
 10
0.0
 20
0.0
 30
0.0
 40
0.015
 41
0.015
  0
VERTEX
  5
3BC
330
3BB
100
AcDbEntity
  8
POLYLINE
100
AcDbVertex
100
AcDb2dVertex
 10
2.305910243542546
 20
-0.8312627885753618
 30
0.0
 42
0.4142135623730896
  0
VERTEX
  5
3BD
330
3BB
100
AcDbEntity
  8
POLYLINE
100
AcDbVertex
100
AcDb2dVertex
 10
2.365910243542546
 20
-0.8912627885753629
 30
0.0
  0
VERTEX
  5
3BE
330
3BB
100
AcDbEntity
  8
POLYLINE
100
AcDbVertex
100
AcDb2dVertex
 10
3.245910243542546
 20
-0.8912627885753629
 30
0.0
 42
0.4142135623731025
  0
VERTEX
  5
3BF
330
3BB
100
AcDbEntity
  8
POLYLINE
100
AcDbVertex
100
AcDb2dVertex
 10
3.305910243542546
 20
-0.8312627885753618
 30
0.0
 42
0.9999999999999737
  0
SEQEND
  5
3C0
330
3BB
100
AcDbEntity
  8
POLYLINE
  0
POLYLINE
  5
3C1
330
18
100
AcDbEntity
  8
POLYLINE
100
AcDb2dPolyline
 66
     1
 10
0.0
 20
0.0
 30
0.0
 40
0.015
 41
0.015
  0
VERTEX
  5
3C2
330
3C1
100
AcDbEntity
  8
POLYLINE
100
AcDbVertex
100
AcDb2dVertex
 10
2.305910243542546
 20
-1.264613615723431
 30
0.0
 42
0.4142135623730896
  0
VERTEX
  5
3C3
330
3C1
100
AcDbEntity
  8
POLYLINE
100
AcDbVertex
100
AcDb2dVertex
 10
2.365910243542546
 20
-1.324613615723432
 30
0.0
  0
VERTEX
  5
3C4
330
3C1
100
AcDbEntity
  8
POLYLINE
100
AcDbVertex
100
AcDb2dVertex
 10
3.245910243542546
 20
-1.324613615723432
 30
0.0
 42
0.4142135623731025
  0
VERTEX
  5
3C5
330
3C1
100
AcDbEntity
  8
POLYLINE
100
AcDbVertex
100
AcDb2dVertex
 10
3.305910243542546
 20
-1.264613615723431
 30
0.0
 42
0.9999999999999737
  0
SEQEND
  5
3C6
330
3C1
100
AcDbEntity
  8
POLYLINE
  0
POLYLINE
  5
3C7
330
18
100
AcDbEntity
  8
POLYLINE
100
AcDb2dPolyline
 66
     1
 10
0.0
 20
0.0
 30
0.0
 40
0.015
 41
0.015
  0
VERTEX
  5
3C8
330
3C7
100
AcDbEntity
  8
POLYLINE
100
AcDbVertex
100
AcDb2dVertex
 10
2.305910243542546
 20
-1.498917990886864
 30
0.0
 42
0.4142135623730896
  0
VERTEX
  5
3C9
330
3C7
100
AcDbEntity
  8
POLYLINE
100
AcDbVertex
100
AcDb2dVertex
 10
2.365910243542546
 20
-1.558917990886865
 30
0.0
  0
VERTEX
  5
3CA
330
3C7
100
AcDbEntity
  8
POLYLINE
100
AcDbVertex
100
AcDb2dVertex
 10
3.245910243542546
 20
-1.558917990886865
 30
0.0
 42
0.4142135623731025
  0
VERTEX
  5
3CB
330
3C7
100
AcDbEntity
  8
POLYLINE
100
AcDbVertex
100
AcDb2dVertex
 10
3.305910243542546
 20
-1.498917990886864
 30
0.0
 42
0.9999999999999737
  0
SEQEND
  5
3CC
330
3C7
100
AcDbEntity
  8
POLYLINE
  0
POLYLINE
  5
3CD
330
18
100
AcDbEntity
  8
POLYLINE
100
AcDb2dPolyline
 66
     1
 10
0.0
 20
0.0
 30
0.0
 40
0.015
 41
0.015
  0
VERTEX
  5
3CE
330
3CD
100
AcDbEntity
  8
POLYLINE
100
AcDbVertex
100
AcDb2dVertex
 10
3.245910243542547
 20
1.599999999999968
 30
0.0
 42
-0.4626981467721722
  0
VERTEX
  5
3CF
330
3CD
100
AcDbEntity
  8
POLYLINE
100
AcDbVertex
100
AcDb2dVertex
 10
3.305910243542547
 20
1.539999999999968
 30
0.0
  0
VERTEX
  5
3D0
330
3CD
100
AcDbEntity
  8
POLYLINE
100
AcDbVertex
100
AcDb2dVertex
 10
3.305910243542548
 20
-1.540000000000029
 30
0.0
  0
SEQEND
  5
3D1
330
3CD
100
AcDbEntity
  8
POLYLINE
  0
POLYLINE
  5
3D2
330
18
100
AcDbEntity
  8
POLYLINE
100
AcDb2dPolyline
 66
     1
 10
0.0
 20
0.0
 30
0.0
 40
0.015
 41
0.015
  0
VERTEX
  5
3D3
330
3D2
100
AcDbEntity
  8
POLYLINE
100
AcDbVertex
100
AcDb2dVertex
 10
3.245910243542547
 20
-1.600000000000029
 30
0.0
 42
0.4142135623730949
  0
VERTEX
  5
3D4
330
3D2
100
AcDbEntity
  8
POLYLINE
100
AcDbVertex
100
AcDb2dVertex
 10
3.305910243542547
 20
-1.540000000000029
 30
0.0
 42
-0.9999999999999998
  0
SEQEND
  5
3D5
330
3D2
100
AcDbEntity
  8
POLYLINE
  0
POLYLINE
  5
3D6
330
18
100
AcDbEntity
  8
POLYLINE
100
AcDb2dPolyline
 66
     1
 10
0.0
 20
0.0
 30
0.0
 40
0.015
 41
0.015
  0
VERTEX
  5
3D7
330
3D6
100
AcDbEntity
  8
POLYLINE
100
AcDbVertex
100
AcDb2dVertex
 10
3.325910243542545
 20
1.124999999999969
 30
0.0
  0
VERTEX
  5
3D8
330
3D6
100
AcDbEntity
  8
POLYLINE
100
AcDbVertex
100
AcDb2dVertex
 10
3.965910243542545
 20
1.124999999999969
 30
0.0
  0
SEQEND
  5
3D9
330
3D6
100
AcDbEntity
  8
POLYLINE
  0
POLYLINE
  5
3DA
330
18
100
AcDbEntity
  8
POLYLINE
100
AcDb2dPolyline
 66
     1
 10
0.0
 20
0.0
 30
0.0
 40
0.015
 41
0.015
  0
VERTEX
  5
3DB
330
3DA
100
AcDbEntity
  8
POLYLINE
100
AcDbVertex
100
AcDb2dVertex
 10
3.325910243542545
 20
-1.12500000000003
 30
0.0
  0
VERTEX
  5
3DC
330
3DA
100
AcDbEntity
  8
POLYLINE
100
AcDbVertex
100
AcDb2dVertex
 10
3.965910243542545
 20
-1.12500000000003
 30
0.0
  0
SEQEND
  5
3DD
330
3DA
100
AcDbEntity
  8
POLYLINE
  0
POLYLINE
  5
3DE
330
18
100
AcDbEntity
  8
POLYLINE
100
AcDb2dPolyline
 66
     1
 10
0.0
 20
0.0
 30
0.0
 40
0.015
 41
0.015
  0
VERTEX
  5
3DF
330
3DE
100
AcDbEntity
  8
POLYLINE
100
AcDbVertex
100
AcDb2dVertex
 10
4.005910243542546
 20
1.152499999999969
 30
0.0
  0
VERTEX
  5
3E0
330
3DE
100
AcDbEntity
  8
POLYLINE
100
AcDbVertex
100
AcDb2dVertex
 10
3.965910243542545
 20
1.152499999999969
 30
0.0
  0
VERTEX
  5
3E1
330
3DE
100
AcDbEntity
  8
POLYLINE
100
AcDbVertex
100
AcDb2dVertex
 10
3.965910243542545
 20
-1.15250000000003
 30
0.0
  0
VERTEX
  5
3E2
330
3DE
100
AcDbEntity
  8
POLYLINE
100
AcDbVertex
100
AcDb2dVertex
 10
4.005910243542546
 20
-1.15250000000003
 30
0.0
  0
SEQEND
  5
3E3
330
3DE
100
AcDbEntity
  8
POLYLINE
  0
POLYLINE
  5
3E4
330
18
100
AcDbEntity
  8
POLYLINE
100
AcDb2dPolyline
 66
     1
 10
0.0
 20
0.0
 30
0.0
 40
0.015
 41
0.015
  0
VERTEX
  5
3E5
330
3E4
100
AcDbEntity
  8
POLYLINE
100
AcDbVertex
100
AcDb2dVertex
 10
5.495910243542546
 20
1.549999999999969
 30
0.0
  0
VERTEX
  5
3E6
330
3E4
100
AcDbEntity
  8
POLYLINE
100
AcDbVertex
100
AcDb2dVertex
 10
5.295910243542547
 20
1.549999999999969
 30
0.0
  0
VERTEX
  5
3E7
330
3E4
100
AcDbEntity
  8
POLYLINE
100
AcDbVertex
100
AcDb2dVertex
 10
4.985910243542546
 20
1.332499999999969
 30
0.0
  0
VERTEX
  5
3E8
330
3E4
100
AcDbEntity
  8
POLYLINE
100
AcDbVertex
100
AcDb2dVertex
 10
4.055910243542546
 20
1.332499999999969
 30
0.0
 42
0.4142135623730966
  0
VERTEX
  5
3E9
330
3E4
100
AcDbEntity
  8
POLYLINE
100
AcDbVertex
100
AcDb2dVertex
 10
4.005910243542547
 20
1.282499999999969
 30
0.0
  0
VERTEX
  5
3EA
330
3E4
100
AcDbEntity
  8
POLYLINE
100
AcDbVertex
100
AcDb2dVertex
 10
4.005910243542547
 20
-1.28250000000003
 30
0.0
 42
0.4142135623730939
  0
VERTEX
  5
3EB
330
3E4
100
AcDbEntity
  8
POLYLINE
100
AcDbVertex
100
AcDb2dVertex
 10
4.055910243542546
 20
-1.33250000000003
 30
0.0
  0
VERTEX
  5
3EC
330
3E4
100
AcDbEntity
  8
POLYLINE
100
AcDbVertex
100
AcDb2dVertex
 10
4.982710243542546
 20
-1.33250000000003
 30
0.0
  0
VERTEX
  5
3ED
330
3E4
100
AcDbEntity
  8
POLYLINE
100
AcDbVertex
100
AcDb2dVertex
 10
5.295910243542547
 20
-1.55000000000003
 30
0.0
  0
VERTEX
  5
3EE
330
3E4
100
AcDbEntity
  8
POLYLINE
100
AcDbVertex
100
AcDb2dVertex
 10
5.495910243542546
 20
-1.55000000000003
 30
0.0
  0
SEQEND
  5
3EF
330
3E4
100
AcDbEntity
  8
POLYLINE
  0
POLYLINE
  5
3F0
330
18
100
AcDbEntity
  8
POLYLINE
100
AcDb2dPolyline
 66
     1
 10
0.0
 20
0.0
 30
0.0
 40
0.015
 41
0.015
  0
VERTEX
  5
3F1
330
3F0
100
AcDbEntity
  8
POLYLINE
100
AcDbVertex
100
AcDb2dVertex
 10
4.985910243542546
 20
1.334722222222191
 30
0.0
  0
VERTEX
  5
3F2
330
3F0
100
AcDbEntity
  8
POLYLINE
100
AcDbVertex
100
AcDb2dVertex
 10
4.985910243542546
 20
-1.33250000000003
 30
0.0
  0
SEQEND
  5
3F3
330
3F0
100
AcDbEntity
  8
POLYLINE
  0
INSERT
  5
3F4
330
18
100
AcDbEntity
  8
POLYLINE
100
AcDbBlockReference
  2
PLT
 10
1.26314543842742
 20
0.3746635911582379
 30
0.0
  0
TEXT
  5
3F8
330
18
100
AcDbEntity
  8
LABEL
100
AcDbText
 10
-7.549382904069622
 20
-3.022439386172559
 30
0.0
 40
0.1918429869858997
  1
250  
 50
270.0
 41
0.5305687649172621
  7
SIMPLEX
 72
     5
 11
-7.549382904069622
 21
-3.497440237267246
 31
0.0
100
AcDbText
  0
TEXT
  5
3F9
330
18
100
AcDbEntity
  8
PART
100
AcDbText
 10
-7.549991587800242
 20
-1.262619711395946
 30
0.0
 40
0.197
  1
125
 50
270.0
 41
0.5350000000000001
  7
SIMPLEX
 72
     1
 11
-7.549991587800242
 21
-1.388089949491184
 31
0.0
100
AcDbText
  0
TEXT
  5
3FA
330
18
100
AcDbEntity
  8
PART
100
AcDbText
 10
-7.549991587800242
 20
-2.212238158095114
 30
0.0
 40
0.197
  1
200
 50
270.0
 41
0.635
  7
SIMPLEX
 72
     1
 11
-7.549991587800242
 21
-2.373074586666542
 31
0.0
100
AcDbText
  0
TEXT
  5
3FB
330
18
100
AcDbEntity
  8
PART
100
AcDbText
 10
-7.549991587800242
 20
-1.594137447597256
 30
0.0
 40
0.197
  1
150
 50
270.0
 41
0.75
  7
SIMPLEX
 72
     1
 11
-7.549991587800242
 21
-1.770030304740113
 31
0.0
100
AcDbText
  0
TEXT
  5
3FC
330
18
100
AcDbEntity
  8
PART
100
AcDbText
 10
-7.549991587800242
 20
-0.98858780719611
 30
0.0
 40
0.197
  1
95
 50
270.0
 41
0.5
  7
SIMPLEX
 72
     1
 11
-7.549991587800242
 21
-1.068325902434205
 31
0.0
100
AcDbText
  0
TEXT
  5
3FD
330
18
100
AcDbEntity
  8
PART
100
AcDbText
 10
-7.541097089875122
 20
-0.7500000000000071
 30
0.0
 40
0.197
  1
FF
 50
270.0
 41
0.4
  7
SIMPLEX
100
AcDbText
  0
ARC
  5
3FE
330
18
100
AcDbEntity
  8
BUMPER
100
AcDbCircle
 10
-2.147895440202752
 20
-0.2349230627109753
 30
0.0
 40
0.25
100
AcDbArc
 50
90.0
 51
174.4398363951322
  0
ARC
  5
3FF
330
18
100
AcDbEntity
  8
BUMPER
100
AcDbCircle
 10
-2.147895440202752
 20
-3.984923062710993
 30
0.0
 40
0.25
100
AcDbArc
 50
185.5601636048677
 51
270.0
  0
LINE
  5
400
330
18
100
AcDbEntity
  8
PART
100
AcDbLine
 10
-5.319022200802733
 20
-0.727423062710983
 30
0.0
 11
-5.319022200802736
 21
-3.492423062710983
 31
0.0
  0
LINE
  5
401
330
18
100
AcDbEntity
  8
BUMPER
100
AcDbLine
 10
-2.396719191827429
 20
-2.952616933510941
 30
0.0
 11
-2.396719191827429
 21
-2.230766896226051
 31
0.0
  0
LINE
  5
402
330
18
100
AcDbEntity
  8
BUMPER
100
AcDbLine
 10
-2.45196202322527
 20
-2.89656170584834
 30
0.0
 11
-2.45196202322527
 21
-2.265911823356135
 31
0.0
  0
ARC
  5
403
330
18
100
AcDbEntity
  8
BUMPER
100
AcDbCircle
 10
-4.331522200802737
 20
-2.933295638082879
 30
0.0
 40
0.135
100
AcDbArc
 50
87.00159410900054
 51
267.2429265796944
  0
POLYLINE
  5
404
330
18
100
AcDbEntity
  8
BUMPER
100
AcDb2dPolyline
 66
     1
 10
0.0
 20
0.0
 30
0.0
  0
VERTEX
  5
405
330
404
100
AcDbEntity
  8
BUMPER
100
AcDbVertex
100
AcDb2dVertex
 10
-4.413264516030331
 20
-2.825856381285222
 30
0.0
 42
-0.0166284414818466
  0
VERTEX
  5
406
330
404
100
AcDbEntity
  8
BUMPER
100
AcDbVertex
100
AcDb2dVertex
 10
-4.395518114274558
 20
-2.84090453181199
 30
0.0
 42
-0.0754465689062767
  0
VERTEX
  5
407
330
404
100
AcDbEntity
  8
BUMPER
100
AcDbVertex
100
AcDb2dVertex
 10
-4.350234453930973
 20
-2.896489043015887
 30
0.0
 42
-0.107063122092732
 70
     2
 50
300.5398675204594
  0
VERTEX
  5
408
330
404
100
AcDbEntity
  8
BUMPER
100
AcDbVertex
100
AcDb2dVertex
 10
-4.32903555184108
 20
-2.960521513574778
 30
0.0
 42
-0.1496914873490885
  0
VERTEX
  5
409
330
404
100
AcDbEntity
  8
BUMPER
100
AcDbVertex
100
AcDb2dVertex
 10
-4.338282579847891
 20
-3.00840096561935
 30
0.0
 42
-0.1496914873490903
  0
VERTEX
  5
40A
330
404
100
AcDbEntity
  8
BUMPER
100
AcDbVertex
100
AcDb2dVertex
 10
-4.372755030557037
 20
-3.042891538203073
 30
0.0
 42
-0.0378204578423562
  0
VERTEX
  5
40B
330
404
100
AcDbEntity
  8
BUMPER
100
AcDbVertex
100
AcDb2dVertex
 10
-4.394798554181285
 20
-3.052547904741056
 30
0.0
 42
-0.0302197568271049
 70
     2
 50
183.5441537649269
  0
SEQEND
  5
40C
330
404
100
AcDbEntity
  8
BUMPER
  0
LINE
  5
40D
330
18
100
AcDbEntity
  8
BUMPER
100
AcDbLine
 10
-4.529022200802735
 20
-3.669923062710975
 30
0.0
 11
-4.529022200802735
 21
-2.109923062710984
 31
0.0
  0
LINE
  5
40E
330
18
100
AcDbEntity
  8
BUMPER
100
AcDbLine
 10
-4.511250394885394
 20
-3.722228639535015
 30
0.0
 11
-4.511250394885394
 21
-2.109923062710984
 31
0.0
  0
LINE
  5
40F
330
18
100
AcDbEntity
  8
BUMPER
100
AcDbLine
 10
-2.45196202322527
 20
-2.89656170584834
 30
0.0
 11
-4.324460597596008
 21
-2.798480454367726
 31
0.0
  0
LINE
  5
410
330
18
100
AcDbEntity
  8
PART
100
AcDbLine
 10
-4.697222200802725
 20
-0.7274230627109839
 30
0.0
 11
-4.697222200802729
 21
-3.492423062710984
 31
0.0
  0
LINE
  5
411
330
18
100
AcDbEntity
  8
PART
100
AcDbLine
 10
-5.419022200802734
 20
-3.492423062710984
 30
0.0
 11
-5.419022200802734
 21
-0.7274230627109839
 31
0.0
  0
LINE
  5
412
330
18
100
AcDbEntity
  8
PART
100
AcDbLine
 10
-5.469022200802735
 20
-2.10992306271098
 30
0.0
 11
-5.469022200802735
 21
-3.317423062710983
 31
0.0
  0
LINE
  5
413
330
18
100
AcDbEntity
  8
PART
100
AcDbLine
 10
-4.529022200802735
 20
-3.459722222222229
 30
0.0
 11
-4.529022200802735
 21
-2.125000000000007
 31
0.0
  0
LINE
  5
414
330
18
100
AcDbEntity
  8
PART
100
AcDbLine
 10
-5.549022200802737
 20
-3.277500000000006
 30
0.0
 11
-5.549022200802737
 21
-2.125000000000007
 31
0.0
  0
LINE
  5
415
330
18
100
AcDbEntity
  8
LABEL
100
AcDbLine
 10
-5.116675312357549
 20
-3.152936753989668
 30
0.0
 11
-4.697222200802727
 21
-2.80699005771506
 31
0.0
  0
ARC
  5
416
330
18
100
AcDbEntity
  8
BUMPER
100
AcDbCircle
 10
-4.310449162794192
 20
-3.734677344044011
 30
0.0
 40
0.15625
100
AcDbArc
 50
177.2728525935299
 51
263.6034147885283
  0
POLYLINE
  5
417
330
18
100
AcDbEntity
  8
BUMPER
100
AcDb2dPolyline
 66
     1
 10
0.0
 20
0.0
 30
0.0
  0
VERTEX
  5
418
330
417
100
AcDbEntity
  8
BUMPER
100
AcDbVertex
100
AcDb2dVertex
 10
-4.440005362420073
 20
-3.472741748871066
 30
0.0
 42
-0.0147750608122531
  0
VERTEX
  5
419
330
417
100
AcDbEntity
  8
BUMPER
100
AcDbVertex
100
AcDb2dVertex
 10
-4.398169829259295
 20
-3.519156073930003
 30
0.0
 42
-0.0326964228870274
  0
VERTEX
  5
41A
330
417
100
AcDbEntity
  8
BUMPER
100
AcDbVertex
100
AcDb2dVertex
 10
-4.354912395615684
 20
-3.577420246594866
 30
0.0
 42
-0.0701735246354636
 70
     2
 50
302.846131871977
  0
VERTEX
  5
41B
330
417
100
AcDbEntity
  8
BUMPER
100
AcDbVertex
100
AcDb2dVertex
 10
-4.327113561710227
 20
-3.637532834839285
 30
0.0
 42
-0.2727530028059542
  0
VERTEX
  5
41C
330
417
100
AcDbEntity
  8
BUMPER
100
AcDbVertex
100
AcDb2dVertex
 10
-4.331435244919198
 20
-3.655230058820118
 30
0.0
 42
-0.2727530028060096
  0
VERTEX
  5
41D
330
417
100
AcDbEntity
  8
BUMPER
100
AcDbVertex
100
AcDb2dVertex
 10
-4.349010952652314
 20
-3.660022050062452
 30
0.0
 42
-0.0599478487582181
  0
VERTEX
  5
41E
330
417
100
AcDbEntity
  8
BUMPER
100
AcDbVertex
100
AcDb2dVertex
 10
-4.410998823941326
 20
-3.637417062802911
 30
0.0
 42
0.0048945042505762
 70
     2
 50
148.6816724464605
  0
VERTEX
  5
41F
330
417
100
AcDbEntity
  8
BUMPER
100
AcDbVertex
100
AcDb2dVertex
 10
-4.466522200802735
 20
-3.602150964837602
 30
0.0
  0
SEQEND
  5
420
330
417
100
AcDbEntity
  8
BUMPER
  0
LINE
  5
421
330
18
100
AcDbEntity
  8
BUMPER
100
AcDbLine
 10
-2.45196202322527
 20
-3.167194644530975
 30
0.0
 11
-4.339189216245976
 21
-3.068077746963076
 31
0.0
  0
LINE
  5
422
330
18
100
AcDbEntity
  8
BUMPER
100
AcDbLine
 10
-4.511250394885394
 20
-3.722228639535015
 30
0.0
 11
-2.45196202322527
 21
-3.953090564609024
 31
0.0
  0
LINE
  5
423
330
18
100
AcDbEntity
  8
BUMPER
100
AcDbLine
 10
-4.343680914455582
 20
-3.660644456935911
 30
0.0
 11
-2.381932201764669
 21
-3.831249963862652
 31
0.0
  0
LINE
  5
424
330
18
100
AcDbEntity
  8
BUMPER
100
AcDbLine
 10
-2.45196202322527
 20
-3.62767844619796
 30
0.0
 11
-4.381515859263011
 21
-3.453652997134772
 31
0.0
  0
LINE
  5
425
330
18
100
AcDbEntity
  8
PART
100
AcDbLine
 10
-5.419022200802734
 20
-3.492423062710984
 30
0.0
 11
-4.697222200802729
 21
-3.492423062710984
 31
0.0
  0
ARC
  5
426
330
18
100
AcDbEntity
  8
PART
100
AcDbCircle
 10
-5.419022200802734
 20
-3.442423062710983
 30
0.0
 40
0.05
100
AcDbArc
 50
180.0
 51
270.0
  0
LINE
  5
427
330
18
100
AcDbEntity
  8
PART
100
AcDbLine
 10
-5.469022200802735
 20
-3.317423062710983
 30
0.0
 11
-5.469022200802735
 21
-3.442423062710983
 31
0.0
  0
LINE
  5
428
330
18
100
AcDbEntity
  8
PART
100
AcDbLine
 10
-5.549022200802737
 20
-3.277500000000006
 30
0.0
 11
-5.469022200802735
 21
-3.277500000000007
 31
0.0
  0
LINE
  5
429
330
18
100
AcDbEntity
  8
BUMPER
100
AcDbLine
 10
-4.466522200802735
 20
-3.602150964837602
 30
0.0
 11
-4.466522200802735
 21
-3.531337687893175
 31
0.0
  0
LINE
  5
42A
330
18
100
AcDbEntity
  8
PART
100
AcDbLine
 10
-4.529022200802735
 20
-3.609228618266538
 30
0.0
 11
-4.697222200802729
 21
-3.492423062710984
 31
0.0
  0
ARC
  5
42B
330
18
100
AcDbEntity
  8
BUMPER
100
AcDbCircle
 10
-4.509022200802739
 20
-3.702353148317688
 30
0.0
 40
0.02
100
AcDbArc
 50
180.0
 51
263.6034147885276
  0
LINE
  5
42C
330
18
100
AcDbEntity
  8
BUMPER
100
AcDbLine
 10
-4.529022200802735
 20
-3.669923062710984
 30
0.0
 11
-4.529022200802735
 21
-3.702353148317688
 31
0.0
  0
LINE
  5
42D
330
18
100
AcDbEntity
  8
LABEL
100
AcDbLine
 10
-5.116675312357549
 20
-3.253921526038335
 30
0.0
 11
-4.697222200802729
 21
-3.363139145486668
 31
0.0
  0
LINE
  5
42E
330
18
100
AcDbEntity
  8
LABEL
100
AcDbLine
 10
-5.116675312357549
 20
-3.278601155581975
 30
0.0
 11
-4.708276702645989
 21
-3.492423062710984
 31
0.0
  0
LINE
  5
42F
330
18
100
AcDbEntity
  8
LABEL
100
AcDbLine
 10
-5.116675312357549
 20
-3.198713512293851
 30
0.0
 11
-4.697222200802728
 21
-3.089495892845518
 31
0.0
  0
LINE
  5
430
330
18
100
AcDbEntity
  8
LABEL
100
AcDbLine
 10
-5.116675312357549
 20
-3.17403388275021
 30
0.0
 11
-4.697222200802728
 21
-2.954424260848725
 31
0.0
  0
LINE
  5
431
330
18
100
AcDbEntity
  8
LABEL
100
AcDbLine
 10
-5.116675312357549
 20
-3.226317519166093
 30
0.0
 11
-4.697222200802729
 21
-3.226317519166093
 31
0.0
  0
LINE
  5
432
330
18
100
AcDbEntity
  8
LABEL
100
AcDbLine
 10
-5.131611238266278
 20
-3.343463494066574
 30
0.0
 11
-5.131611238266278
 21
-3.109171544265612
 31
0.0
  0
LINE
  5
433
330
18
100
AcDbEntity
  8
LABEL
100
AcDbLine
 10
-5.161226793718646
 20
-3.109171544265612
 30
0.0
 11
-5.161226793718646
 21
-3.343463494066574
 31
0.0
  0
LINE
  5
434
330
18
100
AcDbEntity
  8
LABEL
100
AcDbLine
 10
-5.12667531235755
 20
-3.152936753989668
 30
0.0
 11
-5.12667531235755
 21
-3.299698284342517
 31
0.0
  0
LINE
  5
435
330
18
100
AcDbEntity
  8
LABEL
100
AcDbLine
 10
-5.116675312357549
 20
-3.152936753989668
 30
0.0
 11
-5.116675312357549
 21
-3.299698284342517
 31
0.0
  0
LINE
  5
436
330
18
100
AcDbEntity
  8
PART
100
AcDbLine
 10
-5.254022200802735
 20
-3.314177000341453
 30
0.0
 11
-5.254022200802735
 21
-3.138458037990732
 31
0.0
  0
LINE
  5
437
330
18
100
AcDbEntity
  8
LABEL
100
AcDbLine
 10
-5.116675312357549
 20
-3.299698284342518
 30
0.0
 11
-4.883000561793672
 21
-3.492423062710984
 31
0.0
  0
LINE
  5
438
330
18
100
AcDbEntity
  8
LABEL
100
AcDbLine
 10
-5.161226793718646
 20
-3.314177000341453
 30
0.0
 11
-5.254022200802735
 21
-3.314177000341453
 31
0.0
  0
LINE
  5
439
330
18
100
AcDbEntity
  8
LABEL
100
AcDbLine
 10
-5.161226793718646
 20
-3.343463494066574
 30
0.0
 11
-5.131611238266278
 21
-3.343463494066574
 31
0.0
  0
LINE
  5
43A
330
18
100
AcDbEntity
  8
LABEL
100
AcDbLine
 10
-5.131611238266278
 20
-3.109171544265612
 30
0.0
 11
-5.161226793718646
 21
-3.109171544265612
 31
0.0
  0
LINE
  5
43B
330
18
100
AcDbEntity
  8
LABEL
100
AcDbLine
 10
-5.254022200802735
 20
-3.138458037990732
 30
0.0
 11
-5.161226793718646
 21
-3.138458037990732
 31
0.0
  0
ARC
  5
43C
330
18
100
AcDbEntity
  8
BUMPER
100
AcDbCircle
 10
-4.388522200802732
 20
-3.531337687893175
 30
0.0
 40
0.078
100
AcDbArc
 50
84.84646668726268
 51
180.0
  0
LINE
  5
43D
330
18
100
AcDbEntity
  8
BUMPER
  6
Continuous
100
AcDbLine
 10
-4.327856929064971
 20
-3.889954619179369
 30
0.0
 11
-2.364309206143396
 21
-4.110083287668341
 31
0.0
  0
LINE
  5
43E
330
18
100
AcDbEntity
  8
BUMPER
100
AcDbLine
 10
-2.45196202322527
 20
-3.62767844619796
 30
0.0
 11
-2.45196202322527
 21
-3.166983198633054
 31
0.0
  0
LINE
  5
43F
330
18
100
AcDbEntity
  8
BUMPER
100
AcDbLine
 10
-2.396719191827429
 20
-3.683733673861476
 30
0.0
 11
-2.396719191827429
 21
-3.146882410864596
 31
0.0
  0
LINE
  5
440
330
18
100
AcDbEntity
  8
BUMPER
100
AcDbLine
 10
-2.396719191827429
 20
-4.009145792272733
 30
0.0
 11
-2.396719191827429
 21
-3.829963997969437
 31
0.0
  0
LINE
  5
441
330
18
100
AcDbEntity
  8
BUMPER
100
AcDbLine
 10
-2.45196202322527
 20
-3.953090564609024
 30
0.0
 11
-2.45196202322527
 21
-3.825159747968545
 31
0.0
  0
ARC
  5
442
330
18
100
AcDbEntity
  8
BUMPER
100
AcDbCircle
 10
-2.458925129733579
 20
-4.015201474663167
 30
0.0
 40
0.0625
100
AcDbArc
 50
5.560163604867933
 51
83.60341478852765
  0
ARC
  5
443
330
18
100
AcDbEntity
  8
BUMPER
100
AcDbCircle
 10
-2.458925129733579
 20
-3.689789356252103
 30
0.0
 40
0.0625
100
AcDbArc
 50
5.560163604867933
 51
83.60341478852765
  0
ARC
  5
444
330
18
100
AcDbEntity
  8
BUMPER
100
AcDbCircle
 10
-2.147895440202752
 20
-3.659510944299928
 30
0.0
 40
0.25
100
AcDbArc
 50
185.5601636048677
 51
204.8809695658425
  0
POLYLINE
  5
445
330
18
100
AcDbEntity
  8
BUMPER
100
AcDb2dPolyline
 66
     1
 10
0.0
 20
0.0
 30
0.0
  0
VERTEX
  5
446
330
445
100
AcDbEntity
  8
BUMPER
100
AcDbVertex
100
AcDb2dVertex
 10
-2.383934350346798
 20
-3.741885897398616
 30
0.0
 42
-0.0090039863235147
  0
VERTEX
  5
447
330
445
100
AcDbEntity
  8
BUMPER
100
AcDbVertex
100
AcDb2dVertex
 10
-2.377710553756195
 20
-3.756644398224739
 30
0.0
 42
-0.0744653926551327
 70
     2
 50
291.8338507473982
  0
VERTEX
  5
448
330
445
100
AcDbEntity
  8
BUMPER
100
AcDbVertex
100
AcDb2dVertex
 10
-2.364535821131269
 20
-3.812305986576268
 30
0.0
 42
-0.2631700873813878
  0
VERTEX
  5
449
330
445
100
AcDbEntity
  8
BUMPER
100
AcDbVertex
100
AcDb2dVertex
 10
-2.371724584700814
 20
-3.82794313341049
 30
0.0
 42
-0.2027288591661507
  0
VERTEX
  5
44A
330
445
100
AcDbEntity
  8
BUMPER
100
AcDbVertex
100
AcDb2dVertex
 10
-2.384997195169972
 20
-3.830983413539333
 30
0.0
 42
-0.0744653926551238
  0
SEQEND
  5
44B
330
445
100
AcDbEntity
  8
BUMPER
  0
ARC
  5
44C
330
18
100
AcDbEntity
  8
BUMPER
100
AcDbCircle
 10
-2.147895440202752
 20
-2.928394203950309
 30
0.0
 40
0.25
100
AcDbArc
 50
185.5601636048677
 51
210.9586842954275
  0
POLYLINE
  5
44D
330
18
100
AcDbEntity
  8
BUMPER
100
AcDb2dPolyline
 66
     1
 10
0.0
 20
0.0
 30
0.0
  0
VERTEX
  5
44E
330
44D
100
AcDbEntity
  8
BUMPER
100
AcDbVertex
100
AcDb2dVertex
 10
-2.396928835872664
 20
-2.960396101843245
 30
0.0
 42
-0.0027572072551682
  0
VERTEX
  5
44F
330
44D
100
AcDbEntity
  8
BUMPER
100
AcDbVertex
100
AcDb2dVertex
 10
-2.395557258551768
 20
-2.962506133418723
 30
0.0
 42
-0.1071757873307809
 70
     2
 50
285.5676961102227
  0
SEQEND
  5
450
330
44D
100
AcDbEntity
  8
BUMPER
  0
ARC
  5
451
330
18
100
AcDbEntity
  8
BUMPER
100
AcDbCircle
 10
-2.458925129733579
 20
-2.958672615902483
 30
0.0
 40
0.0625
100
AcDbArc
 50
5.560163604867933
 51
83.60341478852765
  0
LINE
  5
452
330
18
100
AcDbEntity
  8
BUMPER
100
AcDbLine
 10
-2.45196202322527
 20
-3.167194644530975
 30
0.0
 11
-2.45196202322527
 21
-3.166983198633054
 31
0.0
  0
POLYLINE
  5
453
330
18
100
AcDbEntity
  8
BUMPER
100
AcDb2dPolyline
 66
     1
 10
0.0
 20
0.0
 30
0.0
  0
VERTEX
  5
454
330
453
100
AcDbEntity
  8
BUMPER
100
AcDbVertex
100
AcDb2dVertex
 10
-2.362280057511853
 20
-3.056999164434851
 30
0.0
 42
-0.0544311820488789
 70
     2
 50
285.5676961102227
  0
VERTEX
  5
455
330
453
100
AcDbEntity
  8
BUMPER
100
AcDbVertex
100
AcDb2dVertex
 10
-2.363870102725485
 20
-3.091088045408542
 30
0.0
 42
-0.1445844733358062
  0
VERTEX
  5
456
330
453
100
AcDbEntity
  8
BUMPER
100
AcDbVertex
100
AcDb2dVertex
 10
-2.385217527877053
 20
-3.136135036599752
 30
0.0
 42
-0.1445844733358098
  0
VERTEX
  5
457
330
453
100
AcDbEntity
  8
BUMPER
100
AcDbVertex
100
AcDb2dVertex
 10
-2.427613411131602
 20
-3.162355888207762
 30
0.0
 42
-0.0394759969565136
  0
VERTEX
  5
458
330
453
100
AcDbEntity
  8
BUMPER
100
AcDbVertex
100
AcDb2dVertex
 10
-2.45196202322527
 20
-3.166983198633054
 30
0.0
 42
-0.0777060857282009
 70
     2
 50
170.8121993811018
  0
SEQEND
  5
459
330
453
100
AcDbEntity
  8
BUMPER
  0
ARC
  5
45A
330
18
100
AcDbEntity
  8
BUMPER
100
AcDbCircle
 10
-4.310449162794192
 20
-0.4851687813779569
 30
0.0
 40
0.15625
100
AcDbArc
 50
96.39658521147172
 51
182.72714740647
  0
POLYLINE
  5
45B
330
18
100
AcDbEntity
  8
BUMPER
100
AcDb2dPolyline
 66
     1
 10
0.0
 20
0.0
 30
0.0
  0
VERTEX
  5
45C
330
45B
100
AcDbEntity
  8
BUMPER
100
AcDbVertex
100
AcDb2dVertex
 10
-4.440005362420073
 20
-0.7471043765509018
 30
0.0
 42
0.0147750608122531
  0
VERTEX
  5
45D
330
45B
100
AcDbEntity
  8
BUMPER
100
AcDbVertex
100
AcDb2dVertex
 10
-4.398169829259295
 20
-0.7006900514919652
 30
0.0
 42
0.0326964228870274
  0
VERTEX
  5
45E
330
45B
100
AcDbEntity
  8
BUMPER
100
AcDbVertex
100
AcDb2dVertex
 10
-4.354912395615684
 20
-0.642425878827102
 30
0.0
 42
0.0701735246354636
 70
     2
 50
57.15386812802299
  0
VERTEX
  5
45F
330
45B
100
AcDbEntity
  8
BUMPER
100
AcDbVertex
100
AcDb2dVertex
 10
-4.327113561710227
 20
-0.5823132905826834
 30
0.0
 42
0.2727530028059542
 50
57.15386812802299
  0
VERTEX
  5
460
330
45B
100
AcDbEntity
  8
BUMPER
100
AcDbVertex
100
AcDb2dVertex
 10
-4.331435244919198
 20
-0.5646160666018494
 30
0.0
 42
0.2727530028060096
  0
VERTEX
  5
461
330
45B
100
AcDbEntity
  8
BUMPER
100
AcDbVertex
100
AcDb2dVertex
 10
-4.349010952652314
 20
-0.5598240753595159
 30
0.0
 42
0.0599478487582181
  0
VERTEX
  5
462
330
45B
100
AcDbEntity
  8
BUMPER
100
AcDbVertex
100
AcDb2dVertex
 10
-4.410998823941326
 20
-0.582429062619057
 30
0.0
 42
-0.0048945042505762
 70
     2
 50
211.3183275535395
  0
VERTEX
  5
463
330
45B
100
AcDbEntity
  8
BUMPER
100
AcDbVertex
100
AcDb2dVertex
 10
-4.466522200802735
 20
-0.6176951605843657
 30
0.0
 50
211.3183275535395
  0
SEQEND
  5
464
330
45B
100
AcDbEntity
  8
BUMPER
  0
LINE
  5
465
330
18
100
AcDbEntity
  8
BUMPER
100
AcDbLine
 10
-2.45196202322527
 20
-0.5921676792240076
 30
0.0
 11
-4.381515859263011
 21
-0.7661931282871964
 31
0.0
  0
LINE
  5
466
330
18
100
AcDbEntity
  8
BUMPER
100
AcDbLine
 10
-4.343680914455582
 20
-0.5592016684860566
 30
0.0
 11
-2.381932201764669
 21
-0.3885961615593159
 31
0.0
  0
LINE
  5
467
330
18
100
AcDbEntity
  8
BUMPER
100
AcDbLine
 10
-4.511250394885394
 20
-0.4976174858869529
 30
0.0
 11
-2.45196202322527
 21
-0.2667555608129435
 31
0.0
  0
POLYLINE
  5
468
330
18
100
AcDbEntity
  8
BUMPER
100
AcDb2dPolyline
 66
     1
 10
0.0
 20
0.0
 30
0.0
  0
VERTEX
  5
469
330
468
100
AcDbEntity
  8
BUMPER
100
AcDbVertex
100
AcDb2dVertex
 10
-4.413264516030331
 20
-1.393989744136745
 30
0.0
 42
0.0166284414818466
  0
VERTEX
  5
46A
330
468
100
AcDbEntity
  8
BUMPER
100
AcDbVertex
100
AcDb2dVertex
 10
-4.395518114274558
 20
-1.378941593609977
 30
0.0
 42
0.0754465689062767
  0
VERTEX
  5
46B
330
468
100
AcDbEntity
  8
BUMPER
100
AcDbVertex
100
AcDb2dVertex
 10
-4.350234453930973
 20
-1.32335708240608
 30
0.0
 42
0.107063122092732
 70
     2
 50
59.46013247954054
  0
VERTEX
  5
46C
330
468
100
AcDbEntity
  8
BUMPER
100
AcDbVertex
100
AcDb2dVertex
 10
-4.32903555184108
 20
-1.25932461184719
 30
0.0
 42
0.1496914873490885
 50
59.46013247954054
  0
VERTEX
  5
46D
330
468
100
AcDbEntity
  8
BUMPER
100
AcDbVertex
100
AcDb2dVertex
 10
-4.338282579847891
 20
-1.211445159802617
 30
0.0
 42
0.1496914873490903
  0
VERTEX
  5
46E
330
468
100
AcDbEntity
  8
BUMPER
100
AcDbVertex
100
AcDb2dVertex
 10
-4.372755030557037
 20
-1.176954587218895
 30
0.0
 42
0.0378204578423562
  0
VERTEX
  5
46F
330
468
100
AcDbEntity
  8
BUMPER
100
AcDbVertex
100
AcDb2dVertex
 10
-4.394798554181285
 20
-1.167298220680911
 30
0.0
 42
0.0302197568271049
 70
     2
 50
176.4558462350731
  0
SEQEND
  5
470
330
468
100
AcDbEntity
  8
BUMPER
  0
ARC
  5
471
330
18
100
AcDbEntity
  8
BUMPER
100
AcDbCircle
 10
-4.331522200802737
 20
-1.286550487339089
 30
0.0
 40
0.135
100
AcDbArc
 50
92.75707342030566
 51
272.9984058909995
  0
POLYLINE
  5
472
330
18
100
AcDbEntity
  8
BUMPER
100
AcDb2dPolyline
 66
     1
 10
0.0
 20
0.0
 30
0.0
  0
VERTEX
  5
473
330
472
100
AcDbEntity
  8
BUMPER
100
AcDbVertex
100
AcDb2dVertex
 10
-4.327856916175988
 20
-2.109923062710984
 30
0.0
 42
0.0881752286986703
  0
VERTEX
  5
474
330
472
100
AcDbEntity
  8
BUMPER
100
AcDbVertex
100
AcDb2dVertex
 10
-4.338644936752224
 20
-2.049486160045884
 30
0.0
 42
0.0937033183989008
  0
VERTEX
  5
475
330
472
100
AcDbEntity
  8
BUMPER
100
AcDbVertex
100
AcDb2dVertex
 10
-4.368471003340367
 20
-1.999660609887672
 30
0.0
 42
0.0589383168468517
 70
     2
 50
131.6115032410253
  0
VERTEX
  5
476
330
472
100
AcDbEntity
  8
BUMPER
100
AcDbVertex
100
AcDb2dVertex
 10
-4.393221196573186
 20
-1.977653533390873
 30
0.0
 42
0.1095268901796172
 50
131.6115032410253
  0
SEQEND
  5
477
330
472
100
AcDbEntity
  8
BUMPER
  0
ARC
  5
478
330
18
100
AcDbEntity
  8
BUMPER
100
AcDbCircle
 10
-4.310533440157584
 20
-2.109923062710984
 30
0.0
 40
0.1559887606451511
100
AcDbArc
 50
90.0
 51
180.0
  0
ARC
  5
479
330
18
100
AcDbEntity
  8
BUMPER
100
AcDbCircle
 10
-4.310533440157584
 20
-2.109923062710984
 30
0.0
 40
0.1559887606451511
100
AcDbArc
 50
180.0
 51
270.0
  0
POLYLINE
  5
47A
330
18
100
AcDbEntity
  8
BUMPER
100
AcDb2dPolyline
 66
     1
 10
0.0
 20
0.0
 30
0.0
  0
VERTEX
  5
47B
330
47A
100
AcDbEntity
  8
BUMPER
100
AcDbVertex
100
AcDb2dVertex
 10
-4.327856916175988
 20
-2.109923062710984
 30
0.0
 42
-0.0881752286986703
  0
VERTEX
  5
47C
330
47A
100
AcDbEntity
  8
BUMPER
100
AcDbVertex
100
AcDb2dVertex
 10
-4.338644936752224
 20
-2.170359965376083
 30
0.0
 42
-0.0937033183989008
  0
VERTEX
  5
47D
330
47A
100
AcDbEntity
  8
BUMPER
100
AcDbVertex
100
AcDb2dVertex
 10
-4.368471003340367
 20
-2.220185515534295
 30
0.0
 42
-0.0589383168468517
 70
     2
 50
228.3884967589747
  0
VERTEX
  5
47E
330
47A
100
AcDbEntity
  8
BUMPER
100
AcDbVertex
100
AcDb2dVertex
 10
-4.393221196573186
 20
-2.242192592031094
 30
0.0
 42
-0.1095268901796172
  0
SEQEND
  5
47F
330
47A
100
AcDbEntity
  8
BUMPER
  0
LINE
  5
480
330
18
100
AcDbEntity
  8
BUMPER
100
AcDbLine
 10
-2.45196202322527
 20
-1.052651480890992
 30
0.0
 11
-4.339189216245976
 21
-1.151768378458892
 31
0.0
  0
LINE
  5
481
330
18
100
AcDbEntity
  8
BUMPER
100
AcDbLine
 10
-4.511250394885394
 20
-0.4976174858869529
 30
0.0
 11
-4.511250394885394
 21
-2.109923062710984
 31
0.0
  0
LINE
  5
482
330
18
100
AcDbEntity
  8
BUMPER
100
AcDbLine
 10
-4.529022200802735
 20
-0.5499230627109926
 30
0.0
 11
-4.529022200802735
 21
-2.109923062710984
 31
0.0
  0
LINE
  5
483
330
18
100
AcDbEntity
  8
PART
100
AcDbLine
 10
-5.469022200802735
 20
-2.109923062710984
 30
0.0
 11
-5.469022200802735
 21
-0.7774230627109846
 31
0.0
  0
LINE
  5
484
330
18
100
AcDbEntity
  8
PART
100
AcDbLine
 10
-5.549022200802737
 20
-0.9725000000000072
 30
0.0
 11
-5.549022200802737
 21
-2.125000000000007
 31
0.0
  0
LINE
  5
485
330
18
100
AcDbEntity
  8
PART
100
AcDbLine
 10
-4.529022200802735
 20
-0.790277777777785
 30
0.0
 11
-4.529022200802735
 21
-2.125000000000007
 31
0.0
  0
LINE
  5
486
330
18
100
AcDbEntity
  8
LABEL
100
AcDbLine
 10
-5.116675312357549
 20
-2.152886491086999
 30
0.0
 11
-4.697222200802727
 21
-2.219826322361782
 31
0.0
  0
LINE
  5
487
330
18
100
AcDbEntity
  8
LABEL
100
AcDbLine
 10
-5.116675312357549
 20
-2.036542297534559
 30
0.0
 11
-5.116675312357549
 21
-2.183303827887408
 31
0.0
  0
LINE
  5
488
330
18
100
AcDbEntity
  8
LABEL
100
AcDbLine
 10
-5.126675312357549
 20
-2.036542297534559
 30
0.0
 11
-5.126675312357549
 21
-2.183303827887408
 31
0.0
  0
LINE
  5
489
330
18
100
AcDbEntity
  8
LABEL
100
AcDbLine
 10
-5.126675312357549
 20
-2.258988025154573
 30
0.0
 11
-5.126675312357549
 21
-1.962832470630885
 31
0.0
  0
LINE
  5
48A
330
18
100
AcDbEntity
  8
LABEL
100
AcDbLine
 10
-5.161226793718646
 20
-1.962832470630885
 30
0.0
 11
-5.161226793718646
 21
-2.258988025154573
 31
0.0
  0
LINE
  5
48B
330
18
100
AcDbEntity
  8
PART
100
AcDbLine
 10
-5.254022200802735
 20
-2.229701531429452
 30
0.0
 11
-5.254022200802736
 21
-1.992118964356006
 31
0.0
  0
LINE
  5
48C
330
18
100
AcDbEntity
  8
LABEL
100
AcDbLine
 10
-5.118778051693387
 20
-2.183303827887408
 30
0.0
 11
-4.697222200802727
 21
-2.324328589073467
 31
0.0
  0
LINE
  5
48D
330
18
100
AcDbEntity
  8
LABEL
100
AcDbLine
 10
-5.116675312357549
 20
-2.183303827887408
 30
0.0
 11
-5.126675312357549
 21
-2.183303827887408
 31
0.0
  0
LINE
  5
48E
330
18
100
AcDbEntity
  8
LABEL
100
AcDbLine
 10
-5.161226793718646
 20
-2.258988025154573
 30
0.0
 11
-5.126675312357549
 21
-2.258988025154573
 31
0.0
  0
LINE
  5
48F
330
18
100
AcDbEntity
  8
LABEL
100
AcDbLine
 10
-5.161226793718646
 20
-2.229701531429452
 30
0.0
 11
-5.254022200802735
 21
-2.229701531429452
 31
0.0
  0
LINE
  5
490
330
18
100
AcDbEntity
  8
LABEL
100
AcDbLine
 10
-5.118778051693387
 20
-2.036542297534559
 30
0.0
 11
-4.697222200802726
 21
-1.8955175363485
 31
0.0
  0
LINE
  5
491
330
18
100
AcDbEntity
  8
LABEL
100
AcDbLine
 10
-5.116675312357549
 20
-2.066959634334969
 30
0.0
 11
-4.697222200802727
 21
-2.000019803060185
 31
0.0
  0
LINE
  5
492
330
18
100
AcDbEntity
  8
LABEL
100
AcDbLine
 10
-5.116675312357549
 20
-2.109923062710984
 30
0.0
 11
-4.697222200802727
 21
-2.109923062710984
 31
0.0
  0
LINE
  5
493
330
18
100
AcDbEntity
  8
LABEL
100
AcDbLine
 10
-5.116675312357549
 20
-2.036542297534559
 30
0.0
 11
-5.126675312357549
 21
-2.036542297534559
 31
0.0
  0
LINE
  5
494
330
18
100
AcDbEntity
  8
LABEL
100
AcDbLine
 10
-5.126675312357549
 20
-1.962832470630885
 30
0.0
 11
-5.161226793718646
 21
-1.962832470630885
 31
0.0
  0
LINE
  5
495
330
18
100
AcDbEntity
  8
LABEL
100
AcDbLine
 10
-5.254022200802736
 20
-1.992118964356006
 30
0.0
 11
-5.161226793718646
 21
-1.992118964356006
 31
0.0
  0
LINE
  5
496
330
18
100
AcDbEntity
  8
PART
100
AcDbLine
 10
-5.419022200802734
 20
-0.7274230627109839
 30
0.0
 11
-4.697222200802725
 21
-0.727423062710983
 31
0.0
  0
ARC
  5
497
330
18
100
AcDbEntity
  8
PART
100
AcDbCircle
 10
-5.419022200802734
 20
-0.7774230627109846
 30
0.0
 40
0.05
100
AcDbArc
 50
90.0
 51
180.0
  0
LINE
  5
498
330
18
100
AcDbEntity
  8
PART
100
AcDbLine
 10
-5.549022200802737
 20
-0.9725000000000072
 30
0.0
 11
-5.469022200802735
 21
-0.9725000000000072
 31
0.0
  0
ARC
  5
499
330
18
100
AcDbEntity
  8
BUMPER
100
AcDbCircle
 10
-4.388522200802732
 20
-0.6885084375287934
 30
0.0
 40
0.078
100
AcDbArc
 50
180.0
 51
275.1535333127373
  0
LINE
  5
49A
330
18
100
AcDbEntity
  8
LABEL
100
AcDbLine
 10
-4.697222200802725
 20
-0.9677973127353975
 30
0.0
 11
-5.126675312357549
 21
-0.9677973127353975
 31
0.0
  0
LINE
  5
49B
330
18
100
AcDbEntity
  8
LABEL
100
AcDbLine
 10
-4.697222200802725
 20
-1.114558843088247
 30
0.0
 11
-5.126675312357549
 21
-1.114558843088246
 31
0.0
  0
LINE
  5
49C
330
18
100
AcDbEntity
  8
LABEL
100
AcDbLine
 10
-4.896675312357549
 20
-0.9677973127353975
 30
0.0
 11
-4.896675312357549
 21
-1.114558843088246
 31
0.0
  0
LINE
  5
49D
330
18
100
AcDbEntity
  8
LABEL
100
AcDbLine
 10
-4.886675312357549
 20
-0.9677973127353975
 30
0.0
 11
-4.886675312357549
 21
-1.114558843088246
 31
0.0
  0
LINE
  5
49E
330
18
100
AcDbEntity
  8
LABEL
100
AcDbLine
 10
-4.876675312357549
 20
-0.9677973127353975
 30
0.0
 11
-4.876675312357549
 21
-1.114558843088246
 31
0.0
  0
LINE
  5
49F
330
18
100
AcDbEntity
  8
LABEL
100
AcDbLine
 10
-4.866675312357549
 20
-0.9677973127353975
 30
0.0
 11
-4.866675312357549
 21
-1.114558843088246
 31
0.0
  0
LINE
  5
4A0
330
18
100
AcDbEntity
  8
LABEL
100
AcDbLine
 10
-4.856675312357549
 20
-0.9677973127353975
 30
0.0
 11
-4.856675312357549
 21
-1.114558843088246
 31
0.0
  0
LINE
  5
4A1
330
18
100
AcDbEntity
  8
LABEL
100
AcDbLine
 10
-4.846675312357549
 20
-0.9677973127353975
 30
0.0
 11
-4.846675312357549
 21
-1.114558843088246
 31
0.0
  0
LINE
  5
4A2
330
18
100
AcDbEntity
  8
LABEL
100
AcDbLine
 10
-4.836675312357549
 20
-0.9677973127353975
 30
0.0
 11
-4.836675312357549
 21
-1.114558843088246
 31
0.0
  0
LINE
  5
4A3
330
18
100
AcDbEntity
  8
LABEL
100
AcDbLine
 10
-4.896675312357549
 20
-0.9677973127353975
 30
0.0
 11
-4.896675312357549
 21
-1.114558843088246
 31
0.0
  0
LINE
  5
4A4
330
18
100
AcDbEntity
  8
LABEL
100
AcDbLine
 10
-4.906675312357549
 20
-0.9677973127353975
 30
0.0
 11
-4.906675312357549
 21
-1.114558843088246
 31
0.0
  0
LINE
  5
4A5
330
18
100
AcDbEntity
  8
LABEL
100
AcDbLine
 10
-4.916675312357549
 20
-0.9677973127353975
 30
0.0
 11
-4.916675312357549
 21
-1.114558843088246
 31
0.0
  0
LINE
  5
4A6
330
18
100
AcDbEntity
  8
LABEL
100
AcDbLine
 10
-4.926675312357549
 20
-0.9677973127353975
 30
0.0
 11
-4.926675312357549
 21
-1.114558843088246
 31
0.0
  0
LINE
  5
4A7
330
18
100
AcDbEntity
  8
LABEL
100
AcDbLine
 10
-4.936675312357549
 20
-0.9677973127353975
 30
0.0
 11
-4.936675312357549
 21
-1.114558843088246
 31
0.0
  0
LINE
  5
4A8
330
18
100
AcDbEntity
  8
LABEL
100
AcDbLine
 10
-4.946675312357549
 20
-0.9677973127353975
 30
0.0
 11
-4.946675312357549
 21
-1.114558843088246
 31
0.0
  0
LINE
  5
4A9
330
18
100
AcDbEntity
  8
LABEL
100
AcDbLine
 10
-4.956675312357549
 20
-0.9677973127353975
 30
0.0
 11
-4.956675312357549
 21
-1.114558843088246
 31
0.0
  0
LINE
  5
4AA
330
18
100
AcDbEntity
  8
LABEL
100
AcDbLine
 10
-4.966675312357549
 20
-0.9677973127353975
 30
0.0
 11
-4.966675312357549
 21
-1.114558843088246
 31
0.0
  0
LINE
  5
4AB
330
18
100
AcDbEntity
  8
LABEL
100
AcDbLine
 10
-4.976675312357549
 20
-0.9677973127353975
 30
0.0
 11
-4.976675312357549
 21
-1.114558843088246
 31
0.0
  0
LINE
  5
4AC
330
18
100
AcDbEntity
  8
LABEL
100
AcDbLine
 10
-4.986675312357549
 20
-0.9677973127353975
 30
0.0
 11
-4.986675312357549
 21
-1.114558843088246
 31
0.0
  0
LINE
  5
4AD
330
18
100
AcDbEntity
  8
LABEL
100
AcDbLine
 10
-4.996675312357549
 20
-0.9677973127353975
 30
0.0
 11
-4.996675312357549
 21
-1.114558843088246
 31
0.0
  0
LINE
  5
4AE
330
18
100
AcDbEntity
  8
LABEL
100
AcDbLine
 10
-5.006675312357549
 20
-0.9677973127353975
 30
0.0
 11
-5.006675312357549
 21
-1.114558843088246
 31
0.0
  0
LINE
  5
4AF
330
18
100
AcDbEntity
  8
LABEL
100
AcDbLine
 10
-5.016675312357549
 20
-0.9677973127353975
 30
0.0
 11
-5.016675312357549
 21
-1.114558843088246
 31
0.0
  0
LINE
  5
4B0
330
18
100
AcDbEntity
  8
LABEL
100
AcDbLine
 10
-5.026675312357549
 20
-0.9677973127353975
 30
0.0
 11
-5.026675312357549
 21
-1.114558843088246
 31
0.0
  0
LINE
  5
4B1
330
18
100
AcDbEntity
  8
LABEL
100
AcDbLine
 10
-5.036675312357549
 20
-0.9677973127353975
 30
0.0
 11
-5.036675312357549
 21
-1.114558843088246
 31
0.0
  0
LINE
  5
4B2
330
18
100
AcDbEntity
  8
LABEL
100
AcDbLine
 10
-5.046675312357549
 20
-0.9677973127353975
 30
0.0
 11
-5.046675312357549
 21
-1.114558843088246
 31
0.0
  0
LINE
  5
4B3
330
18
100
AcDbEntity
  8
LABEL
100
AcDbLine
 10
-5.056675312357549
 20
-0.9677973127353975
 30
0.0
 11
-5.056675312357549
 21
-1.114558843088246
 31
0.0
  0
LINE
  5
4B4
330
18
100
AcDbEntity
  8
LABEL
100
AcDbLine
 10
-5.066675312357549
 20
-0.9677973127353975
 30
0.0
 11
-5.066675312357549
 21
-1.114558843088246
 31
0.0
  0
LINE
  5
4B5
330
18
100
AcDbEntity
  8
LABEL
100
AcDbLine
 10
-5.076675312357549
 20
-0.9677973127353975
 30
0.0
 11
-5.076675312357549
 21
-1.114558843088246
 31
0.0
  0
LINE
  5
4B6
330
18
100
AcDbEntity
  8
LABEL
100
AcDbLine
 10
-5.086675312357549
 20
-0.9677973127353975
 30
0.0
 11
-5.086675312357549
 21
-1.114558843088246
 31
0.0
  0
LINE
  5
4B7
330
18
100
AcDbEntity
  8
LABEL
100
AcDbLine
 10
-5.096675312357549
 20
-0.9677973127353975
 30
0.0
 11
-5.096675312357549
 21
-1.114558843088246
 31
0.0
  0
LINE
  5
4B8
330
18
100
AcDbEntity
  8
LABEL
100
AcDbLine
 10
-5.106675312357549
 20
-0.9677973127353975
 30
0.0
 11
-5.106675312357549
 21
-1.114558843088246
 31
0.0
  0
LINE
  5
4B9
330
18
100
AcDbEntity
  8
LABEL
100
AcDbLine
 10
-5.116675312357549
 20
-0.9677973127353975
 30
0.0
 11
-5.116675312357549
 21
-1.114558843088246
 31
0.0
  0
LINE
  5
4BA
330
18
100
AcDbEntity
  8
LABEL
100
AcDbLine
 10
-5.126675312357549
 20
-0.9677973127353975
 30
0.0
 11
-5.126675312357549
 21
-1.114558843088246
 31
0.0
  0
LINE
  5
4BB
330
18
100
AcDbEntity
  8
LABEL
100
AcDbLine
 10
-5.126675312357549
 20
-1.158324052812304
 30
0.0
 11
-5.126675312357549
 21
-0.924032103011342
 31
0.0
  0
LINE
  5
4BC
330
18
100
AcDbEntity
  8
LABEL
100
AcDbLine
 10
-5.161226793718646
 20
-0.924032103011342
 30
0.0
 11
-5.161226793718646
 21
-1.158324052812304
 31
0.0
  0
LINE
  5
4BD
330
18
100
AcDbEntity
  8
PART
100
AcDbLine
 10
-5.254022200802735
 20
-1.129037559087183
 30
0.0
 11
-5.254022200802735
 21
-0.9533185967364623
 31
0.0
  0
LINE
  5
4BE
330
18
100
AcDbEntity
  8
LABEL
100
AcDbLine
 10
-5.161226793718646
 20
-1.158324052812304
 30
0.0
 11
-5.126675312357549
 21
-1.158324052812304
 31
0.0
  0
LINE
  5
4BF
330
18
100
AcDbEntity
  8
LABEL
100
AcDbLine
 10
-5.161226793718646
 20
-1.129037559087183
 30
0.0
 11
-5.254022200802735
 21
-1.129037559087183
 31
0.0
  0
LINE
  5
4C0
330
18
100
AcDbEntity
  8
LABEL
100
AcDbLine
 10
-5.126675312357549
 20
-0.924032103011342
 30
0.0
 11
-5.161226793718646
 21
-0.924032103011342
 31
0.0
  0
LINE
  5
4C1
330
18
100
AcDbEntity
  8
LABEL
100
AcDbLine
 10
-5.254022200802735
 20
-0.9533185967364623
 30
0.0
 11
-5.161226793718646
 21
-0.9533185967364623
 31
0.0
  0
LINE
  5
4C2
330
18
100
AcDbEntity
  8
LABEL
100
AcDbLine
 10
-4.826675312357549
 20
-0.9677973127353975
 30
0.0
 11
-4.826675312357549
 21
-1.114558843088246
 31
0.0
  0
LINE
  5
4C3
330
18
100
AcDbEntity
  8
LABEL
100
AcDbLine
 10
-4.816675312357549
 20
-0.9677973127353975
 30
0.0
 11
-4.816675312357549
 21
-1.114558843088246
 31
0.0
  0
LINE
  5
4C4
330
18
100
AcDbEntity
  8
LABEL
100
AcDbLine
 10
-4.806675312357549
 20
-0.9677973127353975
 30
0.0
 11
-4.806675312357549
 21
-1.114558843088246
 31
0.0
  0
LINE
  5
4C5
330
18
100
AcDbEntity
  8
LABEL
100
AcDbLine
 10
-4.796675312357549
 20
-0.9677973127353975
 30
0.0
 11
-4.796675312357549
 21
-1.114558843088246
 31
0.0
  0
LINE
  5
4C6
330
18
100
AcDbEntity
  8
LABEL
100
AcDbLine
 10
-4.786675312357549
 20
-0.9677973127353975
 30
0.0
 11
-4.786675312357549
 21
-1.114558843088246
 31
0.0
  0
LINE
  5
4C7
330
18
100
AcDbEntity
  8
LABEL
100
AcDbLine
 10
-4.776675312357549
 20
-0.9677973127353975
 30
0.0
 11
-4.776675312357549
 21
-1.114558843088246
 31
0.0
  0
LINE
  5
4C8
330
18
100
AcDbEntity
  8
LABEL
100
AcDbLine
 10
-4.766675312357549
 20
-0.9677973127353975
 30
0.0
 11
-4.766675312357549
 21
-1.114558843088246
 31
0.0
  0
LINE
  5
4C9
330
18
100
AcDbEntity
  8
LABEL
100
AcDbLine
 10
-4.756675312357549
 20
-0.9677973127353975
 30
0.0
 11
-4.756675312357549
 21
-1.114558843088246
 31
0.0
  0
LINE
  5
4CA
330
18
100
AcDbEntity
  8
LABEL
100
AcDbLine
 10
-4.746675312357549
 20
-0.9677973127353975
 30
0.0
 11
-4.746675312357549
 21
-1.114558843088246
 31
0.0
  0
LINE
  5
4CB
330
18
100
AcDbEntity
  8
LABEL
100
AcDbLine
 10
-4.736675312357549
 20
-0.9677973127353975
 30
0.0
 11
-4.736675312357549
 21
-1.114558843088246
 31
0.0
  0
LINE
  5
4CC
330
18
100
AcDbEntity
  8
LABEL
100
AcDbLine
 10
-4.726675312357549
 20
-0.9677973127353975
 30
0.0
 11
-4.726675312357549
 21
-1.114558843088246
 31
0.0
  0
LINE
  5
4CD
330
18
100
AcDbEntity
  8
LABEL
100
AcDbLine
 10
-4.716675312357549
 20
-0.9677973127353975
 30
0.0
 11
-4.716675312357549
 21
-1.114558843088246
 31
0.0
  0
LINE
  5
4CE
330
18
100
AcDbEntity
  8
LABEL
100
AcDbLine
 10
-4.706675312357549
 20
-0.9677973127353975
 30
0.0
 11
-4.706675312357549
 21
-1.114558843088246
 31
0.0
  0
LINE
  5
4CF
330
18
100
AcDbEntity
  8
PART
100
AcDbLine
 10
-4.529022200802735
 20
-0.6106175071554319
 30
0.0
 11
-4.697222200802727
 21
-0.7274230627109839
 31
0.0
  0
LINE
  5
4D0
330
18
100
AcDbEntity
  8
BUMPER
100
AcDbLine
 10
-4.529022200802735
 20
-0.5499230627109837
 30
0.0
 11
-4.529022200802735
 21
-0.51749297710428
 31
0.0
  0
ARC
  5
4D1
330
18
100
AcDbEntity
  8
BUMPER
100
AcDbCircle
 10
-4.509022200802739
 20
-0.51749297710428
 30
0.0
 40
0.02
100
AcDbArc
 50
96.39658521147234
 51
180.0
  0
LINE
  5
4D2
330
18
100
AcDbEntity
  8
BUMPER
100
AcDbLine
 10
-4.466522200802735
 20
-0.6176951605843657
 30
0.0
 11
-4.466522200802735
 21
-0.6885084375287934
 31
0.0
  0
LINE
  5
4D3
330
18
100
AcDbEntity
  8
BUMPER
100
AcDbLine
 10
-2.45196202322527
 20
-1.323284419573627
 30
0.0
 11
-2.45196202322527
 21
-1.953934302065833
 31
0.0
  0
LINE
  5
4D4
330
18
100
AcDbEntity
  8
BUMPER
100
AcDbLine
 10
-2.396719191827429
 20
-1.267229191911027
 30
0.0
 11
-2.396719191827429
 21
-1.989079229195916
 31
0.0
  0
LINE
  5
4D5
330
18
100
AcDbEntity
  8
BUMPER
100
AcDbLine
 10
-2.45196202322527
 20
-1.953934302065833
 30
0.0
 11
-4.310533440157584
 21
-1.953934302065833
 31
0.0
  0
LINE
  5
4D6
330
18
100
AcDbEntity
  8
BUMPER
100
AcDbLine
 10
-2.45196202322527
 20
-2.265911823356135
 30
0.0
 11
-4.310533440157584
 21
-2.265911823356135
 31
0.0
  0
POLYLINE
  5
4D7
330
18
100
AcDbEntity
  8
BUMPER
100
AcDb2dPolyline
 66
     1
 10
0.0
 20
0.0
 30
0.0
  0
VERTEX
  5
4D8
330
4D7
100
AcDbEntity
  8
BUMPER
100
AcDbVertex
100
AcDb2dVertex
 10
-2.364309139597374
 20
-2.109923062710985
 30
0.0
 42
-0.0570684702191636
  0
VERTEX
  5
4D9
330
4D7
100
AcDbEntity
  8
BUMPER
100
AcDbVertex
100
AcDb2dVertex
 10
-2.371513334643175
 20
-2.172575130140487
 30
0.0
 42
-0.070891436554057
  0
VERTEX
  5
4DA
330
4D7
100
AcDbEntity
  8
BUMPER
100
AcDbVertex
100
AcDb2dVertex
 10
-2.389982053057934
 20
-2.220185515534295
 30
0.0
 42
-0.1062939648795223
 70
     2
 50
240.6880545407753
  0
VERTEX
  5
4DB
330
4D7
100
AcDbEntity
  8
BUMPER
100
AcDbVertex
100
AcDb2dVertex
 10
-2.421517632926857
 20
-2.255896799566854
 30
0.0
 42
-0.1602564004738186
  0
VERTEX
  5
4DC
330
4D7
100
AcDbEntity
  8
BUMPER
100
AcDbVertex
100
AcDb2dVertex
 10
-2.45196202322527
 20
-2.265911823356135
 30
0.0
 42
-0.1602564004738183
  0
SEQEND
  5
4DD
330
4D7
100
AcDbEntity
  8
BUMPER
  0
POLYLINE
  5
4DE
330
18
100
AcDbEntity
  8
BUMPER
100
AcDb2dPolyline
 66
     1
 10
0.0
 20
0.0
 30
0.0
  0
VERTEX
  5
4DF
330
4DE
100
AcDbEntity
  8
BUMPER
100
AcDbVertex
100
AcDb2dVertex
 10
-2.364309139597374
 20
-2.109923062710982
 30
0.0
 42
0.0570684702191636
  0
VERTEX
  5
4E0
330
4DE
100
AcDbEntity
  8
BUMPER
100
AcDbVertex
100
AcDb2dVertex
 10
-2.371513334643175
 20
-2.04727099528148
 30
0.0
 42
0.070891436554057
  0
VERTEX
  5
4E1
330
4DE
100
AcDbEntity
  8
BUMPER
100
AcDbVertex
100
AcDb2dVertex
 10
-2.389982053057934
 20
-1.999660609887672
 30
0.0
 42
0.1062939648795223
 70
     2
 50
119.3119454592246
  0
VERTEX
  5
4E2
330
4DE
100
AcDbEntity
  8
BUMPER
100
AcDbVertex
100
AcDb2dVertex
 10
-2.421517632926857
 20
-1.963949325855113
 30
0.0
 42
0.1602564004738186
 50
119.3119454592246
  0
VERTEX
  5
4E3
330
4DE
100
AcDbEntity
  8
BUMPER
100
AcDbVertex
100
AcDb2dVertex
 10
-2.45196202322527
 20
-1.953934302065833
 30
0.0
 42
0.1602564004738183
  0
SEQEND
  5
4E4
330
4DE
100
AcDbEntity
  8
BUMPER
  0
LINE
  5
4E5
330
18
100
AcDbEntity
  8
BUMPER
  6
Continuous
100
AcDbLine
 10
-4.327856929064971
 20
-0.3298915062425989
 30
0.0
 11
-2.364309206143396
 21
-0.1097628377536273
 31
0.0
  0
LINE
  5
4E6
330
18
100
AcDbEntity
  8
BUMPER
100
AcDbLine
 10
-2.45196202322527
 20
-1.323284419573627
 30
0.0
 11
-4.324460597596008
 21
-1.421365671054242
 31
0.0
  0
LINE
  5
4E7
330
18
100
AcDbEntity
  8
BUMPER
100
AcDbLine
 10
-2.396719191827429
 20
-0.5361124515604923
 30
0.0
 11
-2.396719191827429
 21
-1.072963714557372
 31
0.0
  0
LINE
  5
4E8
330
18
100
AcDbEntity
  8
BUMPER
100
AcDbLine
 10
-2.45196202322527
 20
-0.5921676792240076
 30
0.0
 11
-2.45196202322527
 21
-1.052862926788914
 31
0.0
  0
POLYLINE
  5
4E9
330
18
100
AcDbEntity
  8
BUMPER
100
AcDb2dPolyline
 66
     1
 10
0.0
 20
0.0
 30
0.0
  0
VERTEX
  5
4EA
330
4E9
100
AcDbEntity
  8
BUMPER
100
AcDbVertex
100
AcDb2dVertex
 10
-2.362280057511853
 20
-1.162846960987116
 30
0.0
 42
0.0544311820488789
 70
     2
 50
74.43230388977735
  0
VERTEX
  5
4EB
330
4E9
100
AcDbEntity
  8
BUMPER
100
AcDbVertex
100
AcDb2dVertex
 10
-2.363870102725485
 20
-1.128758080013425
 30
0.0
 42
0.1445844733358062
 50
74.43230388977735
  0
VERTEX
  5
4EC
330
4E9
100
AcDbEntity
  8
BUMPER
100
AcDbVertex
100
AcDb2dVertex
 10
-2.385217527877053
 20
-1.083711088822215
 30
0.0
 42
0.1445844733358098
  0
VERTEX
  5
4ED
330
4E9
100
AcDbEntity
  8
BUMPER
100
AcDbVertex
100
AcDb2dVertex
 10
-2.427613411131602
 20
-1.057490237214206
 30
0.0
 42
0.0394759969565136
  0
VERTEX
  5
4EE
330
4E9
100
AcDbEntity
  8
BUMPER
100
AcDbVertex
100
AcDb2dVertex
 10
-2.45196202322527
 20
-1.052862926788914
 30
0.0
 42
0.0777060857282009
 70
     2
 50
189.1878006188981
  0
SEQEND
  5
4EF
330
4E9
100
AcDbEntity
  8
BUMPER
  0
ARC
  5
4F0
330
18
100
AcDbEntity
  8
BUMPER
100
AcDbCircle
 10
-2.458925129733579
 20
-1.261173509519484
 30
0.0
 40
0.0625
100
AcDbArc
 50
276.3965852114724
 51
354.4398363951321
  0
POLYLINE
  5
4F1
330
18
100
AcDbEntity
  8
BUMPER
100
AcDb2dPolyline
 66
     1
 10
0.0
 20
0.0
 30
0.0
  0
VERTEX
  5
4F2
330
4F1
100
AcDbEntity
  8
BUMPER
100
AcDbVertex
100
AcDb2dVertex
 10
-2.396928835872664
 20
-1.259450023578723
 30
0.0
 42
0.0027572072551682
  0
VERTEX
  5
4F3
330
4F1
100
AcDbEntity
  8
BUMPER
100
AcDbVertex
100
AcDb2dVertex
 10
-2.395557258551768
 20
-1.257339992003244
 30
0.0
 42
0.1071757873307809
 70
     2
 50
74.43230388977735
  0
SEQEND
  5
4F4
330
4F1
100
AcDbEntity
  8
BUMPER
  0
ARC
  5
4F5
330
18
100
AcDbEntity
  8
BUMPER
100
AcDbCircle
 10
-2.147895440202752
 20
-1.291451921471659
 30
0.0
 40
0.25
100
AcDbArc
 50
149.0413157045724
 51
174.4398363951322
  0
LINE
  5
4F6
330
18
100
AcDbEntity
  8
BUMPER
100
AcDbLine
 10
-2.45196202322527
 20
-1.052651480890992
 30
0.0
 11
-2.45196202322527
 21
-1.052862926788914
 31
0.0
  0
LINE
  5
4F7
330
18
100
AcDbEntity
  8
BUMPER
100
AcDbLine
 10
-2.45196202322527
 20
-0.2667555608129435
 30
0.0
 11
-2.45196202322527
 21
-0.3946863774534224
 31
0.0
  0
POLYLINE
  5
4F8
330
18
100
AcDbEntity
  8
BUMPER
100
AcDb2dPolyline
 66
     1
 10
0.0
 20
0.0
 30
0.0
  0
VERTEX
  5
4F9
330
4F8
100
AcDbEntity
  8
BUMPER
100
AcDbVertex
100
AcDb2dVertex
 10
-2.383934350346798
 20
-0.4779602280233517
 30
0.0
 42
0.0090039863235147
  0
VERTEX
  5
4FA
330
4F8
100
AcDbEntity
  8
BUMPER
100
AcDbVertex
100
AcDb2dVertex
 10
-2.377710553756195
 20
-0.4632017271972293
 30
0.0
 42
0.0744653926551327
 70
     2
 50
68.16614925260184
  0
VERTEX
  5
4FB
330
4F8
100
AcDbEntity
  8
BUMPER
100
AcDbVertex
100
AcDb2dVertex
 10
-2.364535821131269
 20
-0.4075401388456994
 30
0.0
 42
0.2631700873813878
 50
68.16614925260184
  0
VERTEX
  5
4FC
330
4F8
100
AcDbEntity
  8
BUMPER
100
AcDbVertex
100
AcDb2dVertex
 10
-2.371724584700814
 20
-0.3919029920114783
 30
0.0
 42
0.2027288591661507
  0
VERTEX
  5
4FD
330
4F8
100
AcDbEntity
  8
BUMPER
100
AcDbVertex
100
AcDb2dVertex
 10
-2.384997195169972
 20
-0.3888627118826351
 30
0.0
 42
0.0744653926551238
  0
SEQEND
  5
4FE
330
4F8
100
AcDbEntity
  8
BUMPER
  0
ARC
  5
4FF
330
18
100
AcDbEntity
  8
BUMPER
100
AcDbCircle
 10
-2.147895440202752
 20
-0.5603351811220394
 30
0.0
 40
0.25
100
AcDbArc
 50
155.1190304341546
 51
174.4398363951322
  0
ARC
  5
500
330
18
100
AcDbEntity
  8
BUMPER
100
AcDbCircle
 10
-2.458925129733579
 20
-0.5300567691698648
 30
0.0
 40
0.0625
100
AcDbArc
 50
276.3965852114724
 51
354.4398363951321
  0
ARC
  5
501
330
18
100
AcDbEntity
  8
BUMPER
100
AcDbCircle
 10
-2.458925129733579
 20
-0.2046446507588007
 30
0.0
 40
0.0625
100
AcDbArc
 50
276.3965852114724
 51
354.4398363951321
  0
LINE
  5
502
330
18
100
AcDbEntity
  8
BUMPER
100
AcDbLine
 10
-2.396719191827429
 20
-0.2107003331492345
 30
0.0
 11
-2.396719191827429
 21
-0.3898821274525312
 31
0.0
  0
LINE
  5
503
330
18
100
AcDbEntity
  8
BUMPER
100
AcDbLine
 10
-2.147895440202752
 20
0.0150769372890247
 30
0.0
 11
-2.147895440202752
 21
-2.10992306271098
 31
0.0
  0
LINE
  5
504
330
18
100
AcDbEntity
  8
BUMPER
100
AcDbLine
 10
-1.547895440202751
 20
0.01507693728903
 30
0.0
 11
-1.547895440202751
 21
-4.234923062710987
 31
0.0
  0
LINE
  5
505
330
18
100
AcDbEntity
  8
BUMPER
100
AcDbLine
 10
-2.147895440202752
 20
-4.234923062710993
 30
0.0
 11
-2.147895440202752
 21
-2.109923062710987
 31
0.0
  0
LINE
  5
506
330
18
100
AcDbEntity
  8
BUMPER
100
AcDbLine
 10
-2.147895440202752
 20
-4.234923062710993
 30
0.0
 11
-1.547895440202751
 21
-4.234923062710996
 31
0.0
  0
LINE
  5
507
330
18
100
AcDbEntity
  8
BUMPER
100
AcDbLine
 10
-2.147895440202752
 20
0.0150769372890247
 30
0.0
 11
-1.547895440202751
 21
0.0150769372890283
 31
0.0
  0
LINE
  5
508
330
18
100
AcDbEntity
  8
PART
100
AcDbLine
 10
-8.519022200802737
 20
-3.482500000000007
 30
0.0
 11
-8.574932444345282
 21
-3.482500000000006
 31
0.0
  0
LINE
  5
509
330
18
100
AcDbEntity
  8
PART
100
AcDbLine
 10
-8.519022200802737
 20
-0.7675000000000072
 30
0.0
 11
-8.574932444345282
 21
-0.7675000000000072
 31
0.0
  0
INSERT
  5
6E3
330
18
100
AcDbEntity
  8
PART
100
AcDbBlockReference
 66
     1
  2
tft_aprlist
 10
-10.03214988852551
 20
-3.05551149461344
 30
0.0
  0
ATTRIB
  5
6E4
330
6E3
100
AcDbEntity
  8
DIM
100
AcDbText
 10
-8.533399885958511
 20
-6.26245650883192
 30
0.0
 40
0.13
  1
FT250S
  7
SIMPLEX
100
AcDbAttribute
  2
PART_#
 70
     0
  0
ATTRIB
  5
6E5
330
6E3
100
AcDbEntity
  8
DIM
100
AcDbText
 10
-8.527466143433688
 20
-6.58664210418156
 30
0.0
 40
0.13
  1
THUNDERFOG TIP 1.5"FEMALE
  7
SIMPLEX
100
AcDbAttribute
  2
PART_DESCRIPTION
 70
     0
  0
ATTRIB
  5
6E6
330
6E3
100
AcDbEntity
  8
DIM
100
AcDbText
 10
-8.532149887059574
 20
-6.89996904766448
 30
0.0
 40
0.13
  1
95-250 GPM @ 100 PSI SPINNING TEETH
  7
SIMPLEX
100
AcDbAttribute
  2
EXTRA_DESCRIPTION
 70
     0
  0
ATTRIB
  5
6E7
330
6E3
100
AcDbEntity
  8
DIM
100
AcDbText
 10
-4.612489172773885
 20
-6.305511492886905
 30
0.0
 40
0.1
  1
1 OF 1
  7
SIMPLEX
 72
     4
 11
-4.376774887059599
 21
-6.255511492886905
 31
0.0
100
AcDbAttribute
  2
SHEET
 70
     0
  0
ATTRIB
  5
6E8
330
6E3
100
AcDbEntity
  8
DIM
100
AcDbText
 10
-1.661399886874503
 20
-6.896580519483744
 30
0.0
 40
0.08
  1
F\FIN & SUB\FT250S
  7
SIMPLEX
100
AcDbAttribute
  2
FILE_NAME
 70
     0
  0
ATTRIB
  5
6E9
330
6E3
100
AcDbEntity
  8
DIM
100
AcDbText
 10
-1.438399887059574
 20
-5.92275535470887
 30
0.0
 40
0.08
  1
FULL
  7
SIMPLEX
100
AcDbAttribute
  2
SCALE
 70
     0
  0
ATTRIB
  5
6EA
330
6E3
100
AcDbEntity
  8
DIM
100
AcDbText
 10
-1.913207807364458
 20
-6.26548180374763
 30
0.0
 40
0.08
  1
3/24/97
  7
SIMPLEX
 72
     4
 11
-1.650350664507316
 21
-6.231196089461915
 31
0.0
100
AcDbAttribute
  2
DATE
 70
     0
  0
ATTRIB
  5
6EB
330
6E3
100
AcDbEntity
  8
DIM
100
AcDbText
 10
-1.177565340796244
 20
-6.271196089461915
 30
0.0
 40
0.08
  1
MBJ
  7
SIMPLEX
 72
     4
 11
-1.072803436034339
 21
-6.231196089461915
 31
0.0
100
AcDbAttribute
  2
WHO?
 70
     0
  0
ATTRIB
  5
6EC
330
6E3
100
AcDbEntity
  8
DIM
100
AcDbText
 10
-2.025588759745411
 20
-6.58975901922158
 30
0.0
 40
0.08
  1
 11/18/09
  7
SCRIPT
 72
     4
 11
-1.650350664507316
 21
-6.555473304935865
 31
0.0
100
AcDbAttribute
  2
DATE
 70
     0
  0
ATTRIB
  5
6ED
330
6E3
100
AcDbEntity
  8
DIM
100
AcDbText
 10
-1.192803436034316
 20
-6.595473304935865
 30
0.0
 40
0.08
  1
TLH
  7
SCRIPT
 72
     4
 11
-1.072803436034316
 21
-6.555473304935865
 31
0.0
100
AcDbAttribute
  2
WHO?
 70
     0
  0
ATTRIB
  5
6EE
330
6E3
100
AcDbEntity
  8
DIM
100
AcDbText
 10
-0.7545040328822701
 20
-6.595473304935865
 30
0.0
 40
0.08
  1
Robert W. Steingass
  7
SCRIPT
 11
-0.7545040328822701
 21
-6.555473304935865
 31
0.0
100
AcDbAttribute
  2
WHO?
 70
     0
 74
     2
  0
SEQEND
  5
6EF
330
6E3
100
AcDbEntity
  8
PART
  0
LINE
  5
7A9
330
18
100
AcDbEntity
  8
PART
100
AcDbLine
 10
-8.648678013287607
 20
-1.23129368900798
 30
0.0
 11
-8.648678013287604
 21
-1.64370631099203
 31
0.0
  0
LINE
  5
7AA
330
18
100
AcDbEntity
  8
PART
100
AcDbLine
 10
-8.916416932799688
 20
-1.466830739879036
 30
0.0
 11
-8.916416932799688
 21
-1.29349855087608
 31
0.0
  0
LINE
  5
7AB
330
18
100
AcDbEntity
  8
PART
100
AcDbLine
 10
-8.876619573717317
 20
-1.299308841466704
 30
0.0
 11
-8.876619573717317
 21
-1.479863155632049
 31
0.0
  0
LINE
  5
7AC
330
18
100
AcDbEntity
  8
PART
100
AcDbLine
 10
-9.187717106567131
 20
-1.514836908062076
 30
0.0
 11
-9.187717106567131
 21
-1.171565453495535
 31
0.0
  0
LINE
  5
7AD
330
18
100
AcDbEntity
  8
PART
100
AcDbLine
 10
-9.204782204729237
 20
-1.171565453495535
 30
0.0
 11
-9.204782204729237
 21
-1.514836908062076
 31
0.0
  0
LINE
  5
7AE
330
18
100
AcDbEntity
  8
PART
100
AcDbLine
 10
-9.318876654075328
 20
-1.171565453495535
 30
0.0
 11
-9.318876654075328
 21
-1.514836908062076
 31
0.0
  0
LINE
  5
7AF
330
18
100
AcDbEntity
  8
PART
100
AcDbLine
 10
-9.343149198394247
 20
-1.514836908062076
 30
0.0
 11
-9.343149198394247
 21
-1.174544491790783
 31
0.0
  0
LINE
  5
7B0
330
18
100
AcDbEntity
  8
PART
100
AcDbLine
 10
-9.417092798513674
 20
-1.491376582052787
 30
0.0
 11
-9.417092798513674
 21
-1.223028125666118
 31
0.0
  0
LINE
  5
7B1
330
18
100
AcDbEntity
  8
PART
100
AcDbLine
 10
-9.221847302891351
 20
-1.514836908062076
 30
0.0
 11
-9.221847302891347
 21
-1.171565453495535
 31
0.0
  0
LINE
  5
7B2
330
18
100
AcDbEntity
  8
PART
100
AcDbLine
 10
-9.221847302891344
 20
-1.514836908062076
 30
0.0
 11
-9.221847302891344
 21
-1.171565453495535
 31
0.0
  0
LINE
  5
7B3
330
18
100
AcDbEntity
  8
PART
100
AcDbLine
 10
-9.085012601927996
 20
-1.171565453495535
 30
0.0
 11
-9.085012601927996
 21
-1.514836908062076
 31
0.0
  0
LINE
  5
7B4
330
18
100
AcDbEntity
  8
PART
100
AcDbLine
 10
-9.066415211064228
 20
-1.514836908062076
 30
0.0
 11
-9.066415211064228
 21
-1.175152771467228
 31
0.0
  0
LINE
  5
7B5
330
18
100
AcDbEntity
  8
PART
100
AcDbLine
 10
-9.049112707735904
 20
-1.509344526848355
 30
0.0
 11
-9.049112707735904
 21
-1.18676318924453
 31
0.0
  0
LINE
  5
7B6
330
18
100
AcDbEntity
  8
PART
100
AcDbLine
 10
-9.041922502953344
 20
-1.502160511884454
 30
0.0
 11
-9.041922502953344
 21
-1.196203210488363
 31
0.0
  0
LINE
  5
7B7
330
18
100
AcDbEntity
  8
PART
100
AcDbLine
 10
-8.998901038678152
 20
-1.475483351724108
 30
0.0
 11
-8.998901038678152
 21
-1.250083765096288
 31
0.0
  0
LINE
  5
7B8
330
18
100
AcDbEntity
  8
PART
100
AcDbLine
 10
-8.972162877007743
 20
-1.467451825665211
 30
0.0
 11
-8.972162877007736
 21
-1.2699098987466
 31
0.0
  0
LINE
  5
7B9
330
18
100
AcDbEntity
  8
PART
100
AcDbLine
 10
-8.947460006062154
 20
-1.46459150020517
 30
0.0
 11
-8.947460006062154
 21
-1.282874004236383
 31
0.0
  0
LINE
  5
7BA
330
18
100
AcDbEntity
  8
PART
100
AcDbLine
 10
-9.505549839493053
 20
-1.23129368900798
 30
0.0
 11
-9.505549839493053
 21
-1.64370631099203
 31
0.0
  0
LINE
  5
7BB
330
18
100
AcDbEntity
  8
PART
100
AcDbLine
 10
-9.451189366111496
 20
-1.270609182765813
 30
0.0
 11
-9.451189366111496
 21
-1.501316159138141
 31
0.0
  0
LINE
  5
7BC
330
18
100
AcDbEntity
  8
PART
100
AcDbLine
 10
-9.471841536892927
 20
-1.515271653381674
 30
0.0
 11
-9.471841536892927
 21
-1.282870044315316
 31
0.0
  0
LINE
  5
7BE
330
18
100
AcDbEntity
  8
PART
100
AcDbLine
 10
-8.623690472761037
 20
-1.000465803774929
 30
0.0
 11
-8.623690472761037
 21
-3.249534196225088
 31
0.0
  0
LINE
  5
7BF
330
18
100
AcDbEntity
  8
PART
100
AcDbLine
 10
-8.648690472761035
 20
-0.7500000000000071
 30
0.0
 11
-8.648690472761035
 21
-3.477120523434374
 31
0.0
  0
LINE
  5
7C0
330
18
100
AcDbEntity
  8
PART
100
AcDbLine
 10
-8.638690472761037
 20
-3.264534196225088
 30
0.0
 11
-8.638690472761037
 21
-0.7600000000000087
 31
0.0
  0
LINE
  5
7C1
330
18
100
AcDbEntity
  8
PART
100
AcDbLine
 10
-9.578690472761035
 20
-2.125000000000007
 30
0.0
 11
-9.578690472761035
 21
-0.8231530927414141
 31
0.0
  0
LINE
  5
7C2
330
18
100
AcDbEntity
  8
PART
100
AcDbLine
 10
-9.505537380019628
 20
-0.7500000000000071
 30
0.0
 11
-9.505537380019628
 21
-3.477120523434374
 31
0.0
  0
ARC
  5
7C3
330
18
100
AcDbEntity
  8
PART
100
AcDbCircle
 10
-8.35984189118438
 20
-4.209574278686822
 30
0.0
 40
0.8111379968923483
100
AcDbArc
 50
118.759723215649
 51
145.1340062965855
  0
LINE
  5
7C4
330
18
100
AcDbEntity
  8
PART
100
AcDbLine
 10
-9.528416856585256
 20
-3.477120523434376
 30
0.0
 11
-9.478416856585258
 21
-3.527120523434373
 31
0.0
  0
LINE
  5
7CA
330
18
100
AcDbEntity
  8
PART
100
AcDbLine
 10
-9.066415211064228
 20
-3.793400284048658
 30
0.0
 11
-9.187717106567131
 21
-3.793400284048662
 31
0.0
  0
LINE
  5
7CB
330
18
100
AcDbEntity
  8
PART
100
AcDbLine
 10
-9.025373570848657
 20
-3.745879946862746
 30
0.0
 11
-9.389954647760948
 21
-3.745879946862746
 31
0.0
  0
LINE
  5
7CC
330
18
100
AcDbEntity
  8
PART
100
AcDbLine
 10
-9.204782204729237
 20
-3.76340028404866
 30
0.0
 11
-9.187717106567131
 21
-3.793400284048658
 31
0.0
  0
LINE
  5
7CD
330
18
100
AcDbEntity
  8
PART
100
AcDbLine
 10
-9.221847302891351
 20
-3.793400284048658
 30
0.0
 11
-9.351224378528986
 21
-3.793400284048658
 31
0.0
  0
ARC
  5
7CE
330
18
100
AcDbEntity
  8
PART
100
AcDbCircle
 10
-8.983740926885491
 20
-3.454348794200601
 30
0.0
 40
0.5
100
AcDbArc
 50
215.6662183953918
 51
222.6955804497235
  0
LINE
  5
7CF
330
18
100
AcDbEntity
  8
PART
100
AcDbLine
 10
-9.204782204729237
 20
-3.76340028404866
 30
0.0
 11
-9.221847302891347
 21
-3.793400284048658
 31
0.0
  0
ARC
  5
7D0
330
18
100
AcDbEntity
  8
PART
100
AcDbCircle
 10
-8.983740926885491
 20
-3.454348794200601
 30
0.0
 40
0.5
100
AcDbArc
 50
188.3687509244651
 51
215.6662183953918
  0
ARC
  5
7D1
330
18
100
AcDbEntity
  8
PART
100
AcDbCircle
 10
-7.838277674152294
 20
-4.662833234557247
 30
0.0
 40
1.5
100
AcDbArc
 50
142.3162802123941
 51
143.1539878113909
  0
ARC
  5
7D2
330
18
100
AcDbEntity
  8
PART
100
AcDbCircle
 10
-9.198702776617462
 20
-3.643400284048659
 30
0.0
 40
0.2
100
AcDbArc
 50
311.4096221092709
 51
323.1539893326505
  0
ARC
  5
7D3
330
18
100
AcDbEntity
  8
PART
100
AcDbCircle
 10
-9.005609712746579
 20
-1.899859189853522
 30
0.0
 40
0.4393341956047848
100
AcDbArc
 50
35.66520227204342
 51
72.90807119179928
  0
LINE
  5
7D4
330
18
100
AcDbEntity
  8
PART
100
AcDbLine
 10
-8.648678013287604
 20
-1.64370631099203
 30
0.0
 11
-9.108713926390329
 21
-1.64370631099203
 31
0.0
  0
ARC
  5
7D5
330
18
100
AcDbEntity
  8
PART
100
AcDbCircle
 10
-8.654729752450943
 20
-3.699772818355366
 30
0.0
 40
0.2227345235487403
100
AcDbArc
 50
88.44307122665915
 51
115.3551351599475
  0
LINE
  5
7EB
330
18
100
AcDbEntity
  8
PART
100
AcDbLine
 10
-9.578690472761035
 20
-2.125000000000007
 30
0.0
 11
-9.578690472761035
 21
-3.128075581180233
 31
0.0
  0
LINE
  5
7FF
330
18
100
AcDbEntity
  8
PART
100
AcDbLine
 10
-9.528416856585256
 20
-3.477120523434376
 30
0.0
 11
-9.578690472761035
 21
-3.4268469072586
 31
0.0
  0
LINE
  5
801
330
18
100
AcDbEntity
  8
PART
100
AcDbLine
 10
-9.578690472761035
 20
-3.128075581180233
 30
0.0
 11
-9.578690472761035
 21
-3.4268469072586
 31
0.0
  0
LINE
  5
80A
330
18
100
AcDbEntity
  8
PART
100
AcDbLine
 10
-9.108713926390329
 20
-1.64370631099203
 30
0.0
 11
-9.221847302891351
 21
-1.64370631099203
 31
0.0
  0
LINE
  5
80B
330
18
100
AcDbEntity
  8
PART
100
AcDbLine
 10
-9.108713926390329
 20
-1.514836908062076
 30
0.0
 11
-9.221847302891347
 21
-1.514836908062076
 31
0.0
  0
ARC
  5
80C
330
18
100
AcDbEntity
  8
PART
100
AcDbCircle
 10
-9.389637231961042
 20
-1.584165773206244
 30
0.0
 40
0.1253274851081807
100
AcDbArc
 50
102.6544503583517
 51
102.6696265579342
  0
LINE
  5
80D
330
18
100
AcDbEntity
  8
PART
100
AcDbLine
 10
-9.221847302891351
 20
-1.514836908062076
 30
0.0
 11
-9.343149198394247
 21
-1.514836908062076
 31
0.0
  0
ARC
  5
80E
330
18
100
AcDbEntity
  8
PART
100
AcDbCircle
 10
-9.265512083220361
 20
-1.64019053779025
 30
0.0
 40
0.2410608358553727
100
AcDbArc
 50
148.4779408522304
 51
174.7194066097993
  0
ARC
  5
80F
330
18
100
AcDbEntity
  8
PART
100
AcDbCircle
 10
-9.407246904684225
 20
-1.58860373100612
 30
0.0
 40
0.0977244090229987
100
AcDbArc
 50
49.01186507652645
 51
131.3752438611559
  0
LINE
  5
810
330
18
100
AcDbEntity
  8
PART
100
AcDbLine
 10
-9.221847302891351
 20
-1.64370631099203
 30
0.0
 11
-9.505549839493053
 21
-1.64370631099203
 31
0.0
  0
ARC
  5
811
330
18
100
AcDbEntity
  8
PART
100
AcDbCircle
 10
-9.066415211064228
 20
-1.484836908062078
 30
0.0
 40
0.03
100
AcDbArc
 50
270.0
 51
324.7283687622619
  0
LINE
  5
812
330
18
100
AcDbEntity
  8
PART
100
AcDbLine
 10
-9.066415211064228
 20
-1.514836908062076
 30
0.0
 11
-9.108713926390326
 21
-1.514836908062076
 31
0.0
  0
ARC
  5
813
330
18
100
AcDbEntity
  8
PART
100
AcDbCircle
 10
-8.942651201962465
 20
-1.614224092860098
 30
0.0
 40
0.1497098439699441
100
AcDbArc
 50
63.77161798593013
 51
131.5360642554592
  0
ARC
  5
81C
330
18
100
AcDbEntity
  8
PART
100
AcDbCircle
 10
-8.623690472761037
 20
-3.264534196225088
 30
0.0
 40
0.015
100
AcDbArc
 50
90.0
 51
180.0
  0
LINE
  5
81E
330
18
100
AcDbEntity
  8
PART
100
AcDbLine
 10
-8.574932444345282
 20
-3.249534196225088
 30
0.0
 11
-8.623690472761037
 21
-3.249534196225088
 31
0.0
  0
ARC
  5
820
330
18
100
AcDbEntity
  8
PART
100
AcDbCircle
 10
-8.648690472761035
 20
-3.467120523434374
 30
0.0
 40
0.01
100
AcDbArc
 50
270.0
 51
0.0
  0
LINE
  5
821
330
18
100
AcDbEntity
  8
PART
100
AcDbLine
 10
-8.638690472761037
 20
-3.264534211111691
 30
0.0
 11
-8.638690472761037
 21
-3.467120523434374
 31
0.0
  0
LINE
  5
828
330
18
100
AcDbEntity
  8
PART
100
AcDbLine
 10
-8.648690472761035
 20
-0.7500000000000071
 30
0.0
 11
-9.091369964685348
 21
-0.7500000000000071
 31
0.0
  0
ARC
  5
829
330
18
100
AcDbEntity
  8
PART
100
AcDbCircle
 10
-8.855898547843121
 20
-0.9527901005083236
 30
0.0
 40
0.3471377230274167
100
AcDbArc
 50
266.5779187800376
 51
306.6510834606079
  0
LINE
  5
82A
330
18
100
AcDbEntity
  8
PART
100
AcDbLine
 10
-8.648678013287604
 20
-1.23129368900798
 30
0.0
 11
-9.01754995463283
 21
-1.23129368900798
 31
0.0
  0
LINE
  5
82E
330
18
100
AcDbEntity
  8
PART
100
AcDbLine
 10
-9.108713926390326
 20
-1.171565453495535
 30
0.0
 11
-9.221847302891344
 21
-1.171565453495535
 31
0.0
  0
ARC
  5
82F
330
18
100
AcDbEntity
  8
PART
100
AcDbCircle
 10
-9.315818520950362
 20
-1.296855622085615
 30
0.0
 40
0.1253274851081807
100
AcDbArc
 50
91.39822093844212
 51
146.4144374629017
  0
LINE
  5
830
330
18
100
AcDbEntity
  8
PART
100
AcDbLine
 10
-9.221847302891351
 20
-1.171565453495535
 30
0.0
 11
-9.318876654075328
 21
-1.171565453495535
 31
0.0
  0
ARC
  5
831
330
18
100
AcDbEntity
  8
PART
100
AcDbCircle
 10
-9.475549839493051
 20
-1.253100118352591
 30
0.0
 40
0.03
100
AcDbArc
 50
180.0
 51
324.2933486571175
  0
LINE
  5
832
330
18
100
AcDbEntity
  8
PART
100
AcDbLine
 10
-9.422931396659858
 20
-1.23129368900798
 30
0.0
 11
-9.505549839493053
 21
-1.23129368900798
 31
0.0
  0
LINE
  5
833
330
18
100
AcDbEntity
  8
PART
100
AcDbLine
 10
-9.451189366111496
 20
-1.270609182765813
 30
0.0
 11
-9.420223918231169
 21
-1.22752675694145
 31
0.0
  0
ARC
  5
834
330
18
100
AcDbEntity
  8
PART
100
AcDbCircle
 10
-9.085012601927996
 20
-1.221565453495536
 30
0.0
 40
0.05
100
AcDbArc
 50
28.94405471403608
 51
90.0
  0
LINE
  5
835
330
18
100
AcDbEntity
  8
PART
100
AcDbLine
 10
-9.085012601927996
 20
-1.171565453495535
 30
0.0
 11
-9.108713926390326
 21
-1.171565453495535
 31
0.0
  0
ARC
  5
836
330
18
100
AcDbEntity
  8
PART
100
AcDbCircle
 10
-8.868076428688492
 20
-1.101592526623797
 30
0.0
 40
0.1979007995993
100
AcDbArc
 50
208.9440547140362
 51
267.525839649669
  0
LINE
  5
837
330
18
100
AcDbEntity
  8
PART
100
AcDbLine
 10
-9.091369964685348
 20
-0.7500000000000071
 30
0.0
 11
-9.505537380019628
 21
-0.7500000000000071
 31
0.0
  0
LINE
  5
838
330
18
100
AcDbEntity
  8
PART
100
AcDbLine
 10
-9.578690472761035
 20
-0.8231530927414141
 30
0.0
 11
-9.505537380019628
 21
-0.7500000000000071
 31
0.0
  0
LINE
  5
842
330
18
100
AcDbEntity
  8
PART
100
AcDbLine
 10
-8.574932444345284
 20
-1.000465803774929
 30
0.0
 11
-8.623690472761037
 21
-1.000465803774929
 31
0.0
  0
ARC
  5
843
330
18
100
AcDbEntity
  8
PART
100
AcDbCircle
 10
-8.623690472761037
 20
-0.9854658037749288
 30
0.0
 40
0.015
100
AcDbArc
 50
180.0
 51
270.0
  0
ARC
  5
846
330
18
100
AcDbEntity
  8
PART
100
AcDbCircle
 10
-8.648690472761035
 20
-0.7600000000000087
 30
0.0
 40
0.01
100
AcDbArc
 50
0.0
 51
90.0
  0
LINE
  5
849
330
18
100
AcDbEntity
  8
PART
100
AcDbLine
 10
-8.648690472761034
 20
-3.477120523434374
 30
0.0
 11
-9.528416856585257
 21
-3.477120523434374
 31
0.0
  0
LINE
  5
84A
330
18
100
AcDbEntity
  8
PART
100
AcDbLine
 10
-8.574932444345282
 20
-0.7675000000000072
 30
0.0
 11
-8.574932444345282
 21
-3.482500000000006
 31
0.0
  0
LINE
  5
857
330
18
100
AcDbEntity
  8
DIM
100
AcDbLine
 10
-9.578690472761035
 20
-0.7231530927414142
 30
0.0
 11
-9.578690472761035
 21
0.7137623799150255
 31
0.0
  0
LINE
  5
858
330
18
100
AcDbEntity
  8
DIM
100
AcDbLine
 10
-1.547895440202751
 20
0.1150769372890283
 30
0.0
 11
-1.547895440202751
 21
0.7137623799150255
 31
0.0
  0
LINE
  5
859
330
18
100
AcDbEntity
  8
DIM
100
AcDbLine
 10
-9.498690472761035
 20
0.5137623799150255
 30
0.0
 11
-5.908054861243797
 21
0.5137623799150255
 31
0.0
  0
LINE
  5
85A
330
18
100
AcDbEntity
  8
DIM
100
AcDbLine
 10
-1.627895440202751
 20
0.5137623799150255
 30
0.0
 11
-5.218531051719988
 21
0.5137623799150255
 31
0.0
  0
SOLID
  5
85B
330
18
100
AcDbEntity
  8
DIM
100
AcDbTrace
 10
-9.498690472761035
 20
0.5270957132483588
 30
0.0
 11
-9.498690472761035
 21
0.5004290465816922
 31
0.0
 12
-9.578690472761035
 22
0.5137623799150255
 32
0.0
 13
-9.578690472761035
 23
0.5137623799150255
 33
0.0
  0
SOLID
  5
85C
330
18
100
AcDbEntity
  8
DIM
100
AcDbTrace
 10
-1.627895440202751
 20
0.5270957132483588
 30
0.0
 11
-1.627895440202751
 21
0.5004290465816922
 31
0.0
 12
-1.547895440202751
 22
0.5137623799150255
 32
0.0
 13
-1.547895440202751
 23
0.5137623799150255
 33
0.0
  0
MTEXT
  5
85D
330
18
100
AcDbEntity
  8
DIM
100
AcDbMText
 10
-5.563292956481893
 20
0.5137623799150255
 30
0.0
 40
0.1
 41
0.0
 71
     5
 72
     1
  1
\A1;8" REF
 73
     1
 44
1.0
  0
LINE
  5
85E
330
18
100
AcDbEntity
  8
DIM
100
AcDbLine
 10
-1.447895440202751
 20
0.0150769372890282
 30
0.0
 11
-0.6760690089151942
 21
0.015076937289028
 31
0.0
  0
LINE
  5
85F
330
18
100
AcDbEntity
  8
DIM
100
AcDbLine
 10
-1.447895440202751
 20
-4.234923062710996
 30
0.0
 11
-0.6760690089151951
 21
-4.234923062710996
 31
0.0
  0
LINE
  5
860
330
18
100
AcDbEntity
  8
DIM
100
AcDbLine
 10
-0.8760690089151941
 20
-0.0649230627109719
 30
0.0
 11
-0.8760690089151944
 21
-1.693732586520507
 31
0.0
  0
LINE
  5
861
330
18
100
AcDbEntity
  8
DIM
100
AcDbLine
 10
-0.876069008915195
 20
-4.154923062710996
 30
0.0
 11
-0.8760690089151946
 21
-2.52611353890146
 31
0.0
  0
SOLID
  5
862
330
18
100
AcDbEntity
  8
DIM
100
AcDbTrace
 10
-0.8894023422485274
 20
-0.0649230627109719
 30
0.0
 11
-0.8627356755818608
 21
-0.0649230627109719
 31
0.0
 12
-0.8760690089151941
 22
0.0150769372890281
 32
0.0
 13
-0.8760690089151941
 23
0.0150769372890281
 33
0.0
  0
SOLID
  5
863
330
18
100
AcDbEntity
  8
DIM
100
AcDbTrace
 10
-0.8894023422485282
 20
-4.154923062710996
 30
0.0
 11
-0.8627356755818617
 21
-4.154923062710996
 31
0.0
 12
-0.876069008915195
 22
-4.234923062710996
 32
0.0
 13
-0.876069008915195
 23
-4.234923062710996
 33
0.0
  0
MTEXT
  5
864
330
18
100
AcDbEntity
  8
DIM
100
AcDbMText
 10
-0.8760690089151943
 20
-2.109923062710984
 30
0.0
 40
0.1
 41
0.0
 71
     5
 72
     1
  1
\A1;4.3" REF
 11
0.0000000000000001
 21
1.0
 31
0.0
 73
     1
 44
1.0
  0
INSERT
  5
86C
330
18
100
AcDbEntity
  8
DIM
100
AcDbBlockReference
 66
     1
  2
rvsn_blk
 10
-0.5980302515702693
 20
-5.601196089461915
 30
0.0
  0
ATTRIB
  5
86D
330
86C
100
AcDbEntity
  8
DIM
100
AcDbText
 10
-0.7423555297995092
 20
-5.556922849174096
 30
1.0
 40
0.07
  1
1
  7
SIMPLEX
100
AcDbAttribute
  2
X
 70
     0
  0
ATTRIB
  5
86E
330
86C
100
AcDbEntity
  8
DIM
100
AcDbText
 10
-0.5705466643886251
 20
-5.554239754020164
 30
1.0
 40
0.07
  1
11/16/09
  7
SIMPLEX
 72
     1
 11
-0.3288799977219583
 21
-5.554239754020164
 31
1.0
100
AcDbAttribute
  2
DATE
 70
     0
  0
ATTRIB
  5
86F
330
86C
100
AcDbEntity
  8
DIM
100
AcDbText
 10
0.0718093825958086
 20
-5.554239754020164
 30
1.0
 40
0.07
  1
CPD
  7
SIMPLEX
 72
     1
 11
0.1651427159291419
 21
-5.554239754020164
 31
1.0
100
AcDbAttribute
  2
XXX
 70
     0
  0
SEQEND
  5
870
330
86C
100
AcDbEntity
  8
DIM
  0
ENDSEC
  0
SECTION
  2
OBJECTS
  0
DICTIONARY
  5
C
330
0
100
AcDbDictionary
281
     1
  3
ACAD_COLOR
350
84F
  3
ACAD_GROUP
350
D
  3
ACAD_LAYOUT
350
524
  3
ACAD_MATERIAL
350
84E
  3
ACAD_MLINESTYLE
350
E
  3
ACAD_PLOTSETTINGS
350
523
  3
ACAD_PLOTSTYLENAME
350
521
  3
ACAD_TABLESTYLE
350
850
  3
AcDbVariableDictionary
350
872
  0
DICTIONARY
  5
84F
102
{ACAD_REACTORS
330
C
102
}
330
C
100
AcDbDictionary
281
     1
  0
DICTIONARY
  5
D
102
{ACAD_REACTORS
330
C
102
}
330
C
100
AcDbDictionary
281
     1
  0
DICTIONARY
  5
524
102
{ACAD_REACTORS
330
C
102
}
330
C
100
AcDbDictionary
281
     1
  3
Layout1
350
526
  3
Model
350
525
  0
DICTIONARY
  5
84E
102
{ACAD_REACTORS
330
C
102
}
330
C
100
AcDbDictionary
281
     1
  0
DICTIONARY
  5
E
102
{ACAD_REACTORS
330
C
102
}
330
C
100
AcDbDictionary
281
     1
  3
STANDARD
350
1B
  0
DICTIONARY
  5
523
102
{ACAD_REACTORS
330
C
102
}
330
C
100
AcDbDictionary
281
     1
  0
ACDBDICTIONARYWDFLT
  5
521
102
{ACAD_REACTORS
330
C
102
}
330
C
100
AcDbDictionary
281
     1
  3
Normal
350
522
100
AcDbDictionaryWithDefault
340
522
  0
DICTIONARY
  5
850
102
{ACAD_REACTORS
330
C
102
}
330
C
100
AcDbDictionary
281
     1
  3
Standard
350
851
  0
DICTIONARY
  5
872
102
{ACAD_REACTORS
330
C
102
}
330
C
100
AcDbDictionary
281
     1
  3
CTABLESTYLE
350
873
  0
LAYOUT
  5
526
102
{ACAD_REACTORS
330
524
102
}
330
524
100
AcDbPlotSettings
  1

  2

  4

  6

 40
0.0
 41
0.0
 42
0.0
 43
0.0
 44
0.0
 45
0.0
 46
0.0
 47
0.0
 48
0.0
 49
0.0
140
0.0
141
0.0
142
1.0
143
1.0
 70
   688
 72
     0
 73
     0
 74
     5
  7
monochrome.ctb
 75
    16
147
1.0
 76
     0
 77
     2
 78
   300
148
0.0
149
0.0
100
AcDbLayout
  1
Layout1
 70
     0
 71
     1
 10
0.0
 20
0.0
 11
12.0
 21
9.0
 12
0.0
 22
0.0
 32
0.0
 14
1.000000000000000E+20
 24
1.000000000000000E+20
 34
1.000000000000000E+20
 15
-1.000000000000000E+20
 25
-1.000000000000000E+20
 35
-1.000000000000000E+20
146
0.0
 13
0.0
 23
0.0
 33
0.0
 16
1.0
 26
0.0
 36
0.0
 17
0.0
 27
1.0
 37
0.0
 76
     0
330
15
  0
LAYOUT
  5
525
102
{ACAD_REACTORS
330
524
102
}
330
524
100
AcDbPlotSettings
  1

  2
hpgl.pc3
  4
ANSI_A_(11.00_x_8.50_Inches)
  6

 40
11.5657377243042
 41
9.699920654296875
 42
11.59060668945312
 43
9.737228393554687
 44
279.3999938964844
 45
215.8999938964844
 46
0.0
 47
1.27
 48
-10.03214988852551
 49
-7.00551149461344
140
0.4178501114744897
141
0.8944885053865583
142
1.0
143
1.035850061204705
 70
 11956
 72
     0
 73
     0
 74
     4
  7
monochrome.ctb
 75
     0
147
0.9653906848612704
 76
     0
 77
     2
 78
   300
148
254.8166071685479
149
177.9399919631813
100
AcDbLayout
  1
Model
 70
     1
 71
     0
 10
0.0
 20
0.0
 11
12.0
 21
9.0
 12
0.0
 22
0.0
 32
0.0
 14
0.0
 24
0.0
 34
0.0
 15
0.0
 25
0.0
 35
0.0
146
0.0
 13
0.0
 23
0.0
 33
0.0
 16
1.0
 26
0.0
 36
0.0
 17
0.0
 27
1.0
 37
0.0
 76
     0
330
18
  0
MLINESTYLE
  5
1B
102
{ACAD_REACTORS
330
E
102
}
330
E
100
AcDbMlineStyle
  2
STANDARD
 70
     0
  3

 62
     0
 51
90.0
 52
90.0
 71
     2
 49
0.5
 62
   256
  6
BYLAYER
 49
-0.5
 62
   256
  6
BYLAYER
  0
ACDBPLACEHOLDER
  5
522
102
{ACAD_REACTORS
330
521
102
}
330
521
  0
TABLESTYLE
  5
851
102
{ACAD_REACTORS
330
850
102
}
330
850
100
AcDbTableStyle
  3
Standard
 70
     0
 71
     0
 40
0.06
 41
0.06
280
     0
281
     0
  7
STANDARD
140
0.18
170
     2
 62
     0
 63
     7
283
     0
274
    -2
284
     1
 64
     0
275
    -2
285
     1
 65
     0
276
    -2
286
     1
 66
     0
277
    -2
287
     1
 67
     0
278
    -2
288
     1
 68
     0
279
    -2
289
     1
 69
     0
  7
STANDARD
140
0.25
170
     5
 62
     0
 63
     7
283
     0
274
    -2
284
     1
 64
     0
275
    -2
285
     1
 65
     0
276
    -2
286
     1
 66
     0
277
    -2
287
     1
 67
     0
278
    -2
288
     1
 68
     0
279
    -2
289
     1
 69
     0
  7
STANDARD
140
0.18
170
     5
 62
     0
 63
     7
283
     0
274
    -2
284
     1
 64
     0
275
    -2
285
     1
 65
     0
276
    -2
286
     1
 66
     0
277
    -2
287
     1
 67
     0
278
    -2
288
     1
 68
     0
279
    -2
289
     1
 69
     0
  0
DICTIONARYVAR
  5
873
102
{ACAD_REACTORS
330
872
102
}
330
872
100
DictionaryVariables
280
     0
  1
STANDARD
  0
ENDSEC
  0
EOF
