  0
SECTION
  2
HEADER
  9
$ACADVER
  1
AC1024
  9
$ACADMAINTVER
 70
     6
  9
$DWGCODEPAGE
  3
ANSI_1252
  9
$LASTSAVEDBY
  1
tft200
  9
$INSBASE
 10
5.767017387045534
 20
0.1648253093110537
 30
0.0
  9
$EXTMIN
 10
4.0
 20
-3.793750000000002
 30
0.0
  9
$EXTMAX
 10
25.31276490326229
 20
4.11875
 30
1.0
  9
$LIMMIN
 10
-7.150034378501743
 20
4.124202756195955
  9
$LIMMAX
 10
3.923368025420266
 20
12.43123612524646
  9
$ORTHOMODE
 70
     1
  9
$REGENMODE
 70
     1
  9
$FILLMODE
 70
     1
  9
$QTEXTMODE
 70
     0
  9
$MIRRTEXT
 70
     0
  9
$LTSCALE
 40
0.5
  9
$ATTMODE
 70
     1
  9
$TEXTSIZE
 40
0.1
  9
$TRACEWID
 40
0.05
  9
$TEXTSTYLE
  7
STANDARD
  9
$CLAYER
  8
DIM
  9
$CELTYPE
  6
BYLAYER
  9
$CECOLOR
 62
   256
  9
$CELTSCALE
 40
1.0
  9
$DISPSILH
 70
     0
  9
$DIMSCALE
 40
1.0
  9
$DIMASZ
 40
0.1
  9
$DIMEXO
 40
0.1
  9
$DIMDLI
 40
0.375
  9
$DIMRND
 40
0.0
  9
$DIMDLE
 40
0.0
  9
$DIMEXE
 40
0.063
  9
$DIMTP
 40
0.0
  9
$DIMTM
 40
0.0
  9
$DIMTXT
 40
0.1
  9
$DIMCEN
 40
0.05
  9
$DIMTSZ
 40
0.0
  9
$DIMTOL
 70
     0
  9
$DIMLIM
 70
     0
  9
$DIMTIH
 70
     0
  9
$DIMTOH
 70
     0
  9
$DIMSE1
 70
     0
  9
$DIMSE2
 70
     0
  9
$DIMTAD
 70
     0
  9
$DIMZIN
 70
     5
  9
$DIMBLK
  1

  9
$DIMASO
 70
     0
  9
$DIMSHO
 70
     1
  9
$DIMPOST
  1

  9
$DIMAPOST
  1

  9
$DIMALT
 70
     0
  9
$DIMALTD
 70
     2
  9
$DIMALTF
 40
25.4
  9
$DIMLFAC
 40
1.0
  9
$DIMTOFL
 70
     0
  9
$DIMTVP
 40
0.0
  9
$DIMTIX
 70
     0
  9
$DIMSOXD
 70
     0
  9
$DIMSAH
 70
     0
  9
$DIMBLK1
  1

  9
$DIMBLK2
  1

  9
$DIMSTYLE
  2
STANDARD
  9
$DIMCLRD
 70
     0
  9
$DIMCLRE
 70
     0
  9
$DIMCLRT
 70
     0
  9
$DIMTFAC
 40
1.0
  9
$DIMGAP
 40
0.09
  9
$DIMJUST
 70
     0
  9
$DIMSD1
 70
     0
  9
$DIMSD2
 70
     0
  9
$DIMTOLJ
 70
     1
  9
$DIMTZIN
 70
     5
  9
$DIMALTZ
 70
     0
  9
$DIMALTTZ
 70
     0
  9
$DIMUPT
 70
     0
  9
$DIMDEC
 70
     3
  9
$DIMTDEC
 70
     3
  9
$DIMALTU
 70
     2
  9
$DIMALTTD
 70
     2
  9
$DIMTXSTY
  7
STANDARD
  9
$DIMAUNIT
 70
     0
  9
$DIMADEC
 70
     0
  9
$DIMALTRND
 40
0.0
  9
$DIMAZIN
 70
     0
  9
$DIMDSEP
 70
    46
  9
$DIMATFIT
 70
     3
  9
$DIMFRAC
 70
     0
  9
$DIMLDRBLK
  1

  9
$DIMLUNIT
 70
     2
  9
$DIMLWD
 70
    -2
  9
$DIMLWE
 70
    -2
  9
$DIMTMOVE
 70
     0
  9
$DIMFXL
 40
1.0
  9
$DIMFXLON
 70
     0
  9
$DIMJOGANG
 40
0.7853981633974483
  9
$DIMTFILL
 70
     0
  9
$DIMTFILLCLR
 70
     0
  9
$DIMARCSYM
 70
     0
  9
$DIMLTYPE
  6

  9
$DIMLTEX1
  6

  9
$DIMLTEX2
  6

  9
$DIMTXTDIRECTION
 70
     0
  9
$LUNITS
 70
     2
  9
$LUPREC
 70
     3
  9
$SKETCHINC
 40
0.1
  9
$FILLETRAD
 40
0.0
  9
$AUNITS
 70
     0
  9
$AUPREC
 70
     0
  9
$MENU
  1
acad
  9
$ELEVATION
 40
0.0
  9
$PELEVATION
 40
0.0
  9
$THICKNESS
 40
0.0
  9
$LIMCHECK
 70
     0
  9
$CHAMFERA
 40
0.0
  9
$CHAMFERB
 40
0.0
  9
$CHAMFERC
 40
0.0
  9
$CHAMFERD
 40
0.0
  9
$SKPOLY
 70
     0
  9
$TDCREATE
 40
2447510.663502419
  9
$TDUCREATE
 40
2447510.913502419
  9
$TDUPDATE
 40
2456715.489497928
  9
$TDUUPDATE
 40
2456715.739497928
  9
$TDINDWG
 40
0.389946875
  9
$TDUSRTIMER
 40
2456715.736619386
  9
$USRTIMER
 70
     1
  9
$ANGBASE
 50
0.0
  9
$ANGDIR
 70
     0
  9
$PDMODE
 70
     0
  9
$PDSIZE
 40
0.0
  9
$PLINEWID
 40
0.0
  9
$SPLFRAME
 70
     0
  9
$SPLINETYPE
 70
     6
  9
$SPLINESEGS
 70
     8
  9
$HANDSEED
  5
455
  9
$SURFTAB1
 70
     6
  9
$SURFTAB2
 70
     6
  9
$SURFTYPE
 70
     6
  9
$SURFU
 70
     6
  9
$SURFV
 70
     6
  9
$UCSBASE
  2

  9
$UCSNAME
  2

  9
$UCSORG
 10
0.0
 20
0.0
 30
0.0
  9
$UCSXDIR
 10
1.0
 20
0.0
 30
0.0
  9
$UCSYDIR
 10
0.0
 20
1.0
 30
0.0
  9
$UCSORTHOREF
  2

  9
$UCSORTHOVIEW
 70
     0
  9
$UCSORGTOP
 10
0.0
 20
0.0
 30
0.0
  9
$UCSORGBOTTOM
 10
0.0
 20
0.0
 30
0.0
  9
$UCSORGLEFT
 10
0.0
 20
0.0
 30
0.0
  9
$UCSORGRIGHT
 10
0.0
 20
0.0
 30
0.0
  9
$UCSORGFRONT
 10
0.0
 20
0.0
 30
0.0
  9
$UCSORGBACK
 10
0.0
 20
0.0
 30
0.0
  9
$PUCSBASE
  2

  9
$PUCSNAME
  2

  9
$PUCSORG
 10
0.0
 20
0.0
 30
0.0
  9
$PUCSXDIR
 10
1.0
 20
0.0
 30
0.0
  9
$PUCSYDIR
 10
0.0
 20
1.0
 30
0.0
  9
$PUCSORTHOREF
  2

  9
$PUCSORTHOVIEW
 70
     0
  9
$PUCSORGTOP
 10
0.0
 20
0.0
 30
0.0
  9
$PUCSORGBOTTOM
 10
0.0
 20
0.0
 30
0.0
  9
$PUCSORGLEFT
 10
0.0
 20
0.0
 30
0.0
  9
$PUCSORGRIGHT
 10
0.0
 20
0.0
 30
0.0
  9
$PUCSORGFRONT
 10
0.0
 20
0.0
 30
0.0
  9
$PUCSORGBACK
 10
0.0
 20
0.0
 30
0.0
  9
$USERI1
 70
     0
  9
$USERI2
 70
     0
  9
$USERI3
 70
     0
  9
$USERI4
 70
     0
  9
$USERI5
 70
     0
  9
$USERR1
 40
0.0
  9
$USERR2
 40
0.0
  9
$USERR3
 40
0.0
  9
$USERR4
 40
0.0
  9
$USERR5
 40
0.0
  9
$WORLDVIEW
 70
     1
  9
$SHADEDGE
 70
     3
  9
$SHADEDIF
 70
    70
  9
$TILEMODE
 70
     1
  9
$MAXACTVP
 70
    16
  9
$PINSBASE
 10
0.0
 20
0.0
 30
0.0
  9
$PLIMCHECK
 70
     0
  9
$PEXTMIN
 10
1.000000000000000E+20
 20
1.000000000000000E+20
 30
1.000000000000000E+20
  9
$PEXTMAX
 10
-1.000000000000000E+20
 20
-1.000000000000000E+20
 30
-1.000000000000000E+20
  9
$PLIMMIN
 10
0.0
 20
0.0
  9
$PLIMMAX
 10
0.0
 20
0.0
  9
$UNITMODE
 70
     0
  9
$VISRETAIN
 70
     0
  9
$PLINEGEN
 70
     1
  9
$PSLTSCALE
 70
     0
  9
$TREEDEPTH
 70
  3020
  9
$CMLSTYLE
  2
STANDARD
  9
$CMLJUST
 70
     0
  9
$CMLSCALE
 40
1.0
  9
$PROXYGRAPHICS
 70
     0
  9
$MEASUREMENT
 70
     0
  9
$CELWEIGHT
370
    -1
  9
$ENDCAPS
280
     0
  9
$JOINSTYLE
280
     0
  9
$LWDISPLAY
290
     0
  9
$INSUNITS
 70
     0
  9
$HYPERLINKBASE
  1

  9
$STYLESHEET
  1
monochrome.ctb
  9
$XEDIT
290
     1
  9
$CEPSNTYPE
380
     0
  9
$PSTYLEMODE
290
     1
  9
$FINGERPRINTGUID
  2
{23ACC470-4E77-11D3-9C30-006008208A1C}
  9
$VERSIONGUID
  2
{6E32FE8D-FA11-4E92-95B4-E6643C630D5B}
  9
$EXTNAMES
290
     1
  9
$PSVPSCALE
 40
0.0
  9
$OLESTARTUP
290
     0
  9
$SORTENTS
280
   127
  9
$INDEXCTL
280
     0
  9
$HIDETEXT
280
     0
  9
$XCLIPFRAME
280
     0
  9
$HALOGAP
280
     0
  9
$OBSCOLOR
 70
   257
  9
$OBSLTYPE
280
     0
  9
$INTERSECTIONDISPLAY
280
     0
  9
$INTERSECTIONCOLOR
 70
   257
  9
$DIMASSOC
280
     0
  9
$PROJECTNAME
  1

  9
$CAMERADISPLAY
290
     0
  9
$LENSLENGTH
 40
50.0
  9
$CAMERAHEIGHT
 40
0.0
  9
$STEPSPERSEC
 40
2.0
  9
$STEPSIZE
 40
6.0
  9
$3DDWFPREC
 40
2.0
  9
$PSOLWIDTH
 40
0.25
  9
$PSOLHEIGHT
 40
4.0
  9
$LOFTANG1
 40
1.570796326794897
  9
$LOFTANG2
 40
1.570796326794897
  9
$LOFTMAG1
 40
0.0
  9
$LOFTMAG2
 40
0.0
  9
$LOFTPARAM
 70
     7
  9
$LOFTNORMALS
280
     1
  9
$LATITUDE
 40
37.795
  9
$LONGITUDE
 40
-122.394
  9
$NORTHDIRECTION
 40
0.0
  9
$TIMEZONE
 70
 -8000
  9
$LIGHTGLYPHDISPLAY
280
     1
  9
$TILEMODELIGHTSYNCH
280
     1
  9
$SOLIDHIST
280
     1
  9
$SHOWHIST
280
     1
  9
$DWFFRAME
280
     2
  9
$DGNFRAME
280
     2
  9
$REALWORLDSCALE
290
     1
  9
$INTERFERECOLOR
 62
   256
  9
$CSHADOW
280
     0
  9
$SHADOWPLANELOCATION
 40
0.0
  0
ENDSEC
  0
SECTION
  2
CLASSES
  0
CLASS
  1
ACDBDICTIONARYWDFLT
  2
AcDbDictionaryWithDefault
  3
ObjectDBX Classes
 90
        0
 91
        4
280
     0
281
     0
  0
CLASS
  1
TABLESTYLE
  2
AcDbTableStyle
  3
ObjectDBX Classes
 90
     4095
 91
        4
280
     0
281
     0
  0
CLASS
  1
DICTIONARYVAR
  2
AcDbDictionaryVar
  3
ObjectDBX Classes
 90
        0
 91
        4
280
     0
281
     0
  0
CLASS
  1
SCALE
  2
AcDbScale
  3
ObjectDBX Classes
 90
     1153
 91
        4
280
     0
281
     0
  0
CLASS
  1
MATERIAL
  2
AcDbMaterial
  3
ObjectDBX Classes
 90
     1153
 91
        4
280
     0
281
     0
  0
CLASS
  1
VISUALSTYLE
  2
AcDbVisualStyle
  3
ObjectDBX Classes
 90
     4095
 91
        4
280
     0
281
     0
  0
CLASS
  1
RASTERVARIABLES
  2
AcDbRasterVariables
  3
ISM
 90
        0
 91
        4
280
     0
281
     0
  0
CLASS
  1
CELLSTYLEMAP
  2
AcDbCellStyleMap
  3
ObjectDBX Classes
 90
     1152
 91
        4
280
     0
281
     0
  0
ENDSEC
  0
SECTION
  2
TABLES
  0
TABLE
  2
VPORT
  5
12
330
0
100
AcDbSymbolTable
 70
     1
  0
VPORT
  5
27C
330
12
100
AcDbSymbolTableRecord
100
AcDbViewportTableRecord
  2
*Active
 70
     0
 10
0.0
 20
0.0
 11
1.0
 21
1.0
 12
14.65638245163115
 22
0.1624999999999992
 13
0.0
 23
0.0
 14
0.03125
 24
0.03125
 15
0.125
 25
0.125
 16
0.0
 26
0.0
 36
1.0
 17
0.0
 27
0.0
 37
0.0
 40
11.44582198023041
 41
1.899297423887588
 42
50.0
 43
0.0
 44
0.0
 50
0.0
 51
0.0
 71
    16
 72
  7500
 73
     1
 74
     0
 75
     1
 76
     0
 77
     0
 78
     0
281
     0
 65
     1
110
0.0
120
0.0
130
0.0
111
1.0
121
0.0
131
0.0
112
0.0
122
1.0
132
0.0
 79
     0
146
0.0
 60
     3
 61
     5
292
     1
282
     1
141
0.0
142
0.0
 63
   256
  0
ENDTAB
  0
TABLE
  2
LTYPE
  5
D
330
0
100
AcDbSymbolTable
 70
     2
  0
LTYPE
  5
E
330
D
100
AcDbSymbolTableRecord
100
AcDbLinetypeTableRecord
  2
BYBLOCK
 70
     0
  3

 72
    65
 73
     0
 40
0.0
  0
LTYPE
  5
F
330
D
100
AcDbSymbolTableRecord
100
AcDbLinetypeTableRecord
  2
BYLAYER
 70
     0
  3

 72
    65
 73
     0
 40
0.0
  0
LTYPE
  5
5
330
D
100
AcDbSymbolTableRecord
100
AcDbLinetypeTableRecord
  2
CONTINUOUS
 70
     0
  3
Solid line
 72
    65
 73
     0
 40
0.0
  0
LTYPE
  5
20
330
D
100
AcDbSymbolTableRecord
100
AcDbLinetypeTableRecord
  2
CENTER
 70
     0
  3
____ _ ____ _ ____ _ ____ _ ____ _ ____ _ ____
 72
    65
 73
     4
 40
2.0
 49
1.25
 74
     0
 49
-0.25
 74
     0
 49
0.25
 74
     0
 49
-0.25
 74
     0
  0
ENDTAB
  0
TABLE
  2
LAYER
  5
A
330
0
100
AcDbSymbolTable
 70
     8
  0
LAYER
  5
4
330
A
100
AcDbSymbolTableRecord
100
AcDbLayerTableRecord
  2
0
 70
     0
 62
     7
  6
CONTINUOUS
370
    -3
390
251
347
2A1
  0
LAYER
  5
1B
330
A
100
AcDbSymbolTableRecord
100
AcDbLayerTableRecord
  2
DIM
 70
     0
 62
     2
  6
CONTINUOUS
370
    -3
390
251
347
2A1
  0
LAYER
  5
22
330
A
100
AcDbSymbolTableRecord
100
AcDbLayerTableRecord
  2
PART
 70
     0
 62
     1
  6
CONTINUOUS
370
    -3
390
251
347
2A1
  0
LAYER
  5
1F
330
A
100
AcDbSymbolTableRecord
100
AcDbLayerTableRecord
  2
CENTER
 70
     0
 62
     5
  6
CENTER
370
    -3
390
251
347
2A1
  0
LAYER
  5
2B
330
A
100
AcDbSymbolTableRecord
100
AcDbLayerTableRecord
  2
8
 70
     0
 62
     1
  6
CONTINUOUS
370
    -3
390
251
347
2A1
  0
LAYER
  5
1AB
330
A
100
AcDbSymbolTableRecord
100
AcDbLayerTableRecord
  2
TRIM
 70
     0
 62
     1
  6
CONTINUOUS
370
    -3
390
251
347
2A1
  0
LAYER
  5
1AC
330
A
100
AcDbSymbolTableRecord
100
AcDbLayerTableRecord
  2
SOLID
 70
     0
 62
     5
  6
CONTINUOUS
370
    -3
390
251
347
2A1
  0
LAYER
  5
43A
330
A
100
AcDbSymbolTableRecord
100
AcDbLayerTableRecord
  2
Defpoints
 70
     0
 62
     7
  6
CONTINUOUS
290
     0
370
    -3
390
251
347
2A1
  0
ENDTAB
  0
TABLE
  2
STYLE
  5
B
330
0
100
AcDbSymbolTable
 70
     4
  0
STYLE
  5
C
330
B
100
AcDbSymbolTableRecord
100
AcDbTextStyleTableRecord
  2
STANDARD
 70
     0
 40
0.0
 41
1.0
 50
0.0
 71
     0
 42
0.1
  3
SIMPLEX.shx
  4

  0
STYLE
  5
1AE
330
B
100
AcDbSymbolTableRecord
100
AcDbTextStyleTableRecord
  2
ROMAND
 70
     0
 40
0.0
 41
1.0
 50
0.0
 71
     0
 42
0.1
  3
romand.shx
  4

  0
STYLE
  5
1AF
330
B
100
AcDbSymbolTableRecord
100
AcDbTextStyleTableRecord
  2
SIMPLEX
 70
     0
 40
0.0
 41
1.0
 50
0.0
 71
     0
 42
0.2
  3
SIMPLEX.shx
  4

  0
STYLE
  5
1B0
330
B
100
AcDbSymbolTableRecord
100
AcDbTextStyleTableRecord
  2
SCRIPT
 70
     0
 40
0.0
 41
0.95
 50
0.0
 71
     0
 42
0.09
  3
scripts.shx
  4

  0
ENDTAB
  0
TABLE
  2
VIEW
  5
10
330
0
100
AcDbSymbolTable
 70
     0
  0
ENDTAB
  0
TABLE
  2
UCS
  5
11
330
0
100
AcDbSymbolTable
 70
     0
  0
ENDTAB
  0
TABLE
  2
APPID
  5
14
330
0
100
AcDbSymbolTable
 70
     2
  0
APPID
  5
15
330
14
100
AcDbSymbolTableRecord
100
AcDbRegAppTableRecord
  2
ACAD
 70
     0
  0
APPID
  5
278
330
14
100
AcDbSymbolTableRecord
100
AcDbRegAppTableRecord
  2
DCO15
 70
     0
  0
ENDTAB
  0
TABLE
  2
DIMSTYLE
  5
16
330
0
100
AcDbSymbolTable
 70
     2
100
AcDbDimStyleTable
  0
DIMSTYLE
105
1D
330
16
100
AcDbSymbolTableRecord
100
AcDbDimStyleTableRecord
  2
STANDARD
 70
     0
 41
0.1
 42
0.1
 43
0.375
 44
0.063
 73
     0
 74
     0
 78
     5
140
0.1
141
0.05
178
     0
271
     3
272
     3
284
     5
340
C
  0
DIMSTYLE
105
25C
330
16
100
AcDbSymbolTableRecord
100
AcDbDimStyleTableRecord
  2
STDANG
 70
     0
 41
0.1
 43
0.375
 44
0.0625
 73
     0
 74
     0
 78
     5
140
0.1
141
0.05
147
0.075
178
     0
271
     3
272
     2
284
     5
340
C
  0
ENDTAB
  0
TABLE
  2
BLOCK_RECORD
  5
1
330
0
100
AcDbSymbolTable
 70
     5
  0
BLOCK_RECORD
  5
2
330
1
100
AcDbSymbolTableRecord
100
AcDbBlockTableRecord
  2
*MODEL_SPACE
340
254
 70
     0
280
     1
281
     0
  0
BLOCK_RECORD
  5
7
330
1
100
AcDbSymbolTableRecord
100
AcDbBlockTableRecord
  2
*PAPER_SPACE
340
255
 70
     0
280
     1
281
     0
  0
BLOCK_RECORD
  5
29
330
1
100
AcDbSymbolTableRecord
100
AcDbBlockTableRecord
  2
HALFKNRL
340
0
102
{BLKREFS
331
28
331
41
331
50
331
51
331
2E0
331
2F8
331
307
331
308
331
3E3
331
3E4
331
3F3
331
3F4
102
}
 70
     0
280
     1
281
     0
  0
BLOCK_RECORD
  5
F9
330
1
100
AcDbSymbolTableRecord
100
AcDbBlockTableRecord
  2
A$C4FB65283
340
0
102
{BLKREFS
331
1B2
331
33A
102
}
 70
     0
280
     1
281
     0
  0
BLOCK_RECORD
  5
1B1
330
1
100
AcDbSymbolTableRecord
100
AcDbBlockTableRecord
  2
TFT_APRLIST
340
0
102
{BLKREFS
331
23A
331
337
331
423
102
}
 70
     0
280
     1
281
     0
  0
BLOCK_RECORD
  5
25D
330
1
100
AcDbSymbolTableRecord
100
AcDbBlockTableRecord
  2
rvsn_blk
340
0
102
{BLKREFS
331
263
331
3CE
331
0
102
}
 70
     0
280
     1
281
     0
  0
ENDTAB
  0
ENDSEC
  0
SECTION
  2
BLOCKS
  0
BLOCK
  5
3
330
2
100
AcDbEntity
  8
0
100
AcDbBlockBegin
  2
*MODEL_SPACE
 70
     0
 10
0.0
 20
0.0
 30
0.0
  3
*MODEL_SPACE
  1

  0
ENDBLK
  5
6
330
2
100
AcDbEntity
  8
0
100
AcDbBlockEnd
  0
BLOCK
  5
8
330
7
100
AcDbEntity
 67
     1
  8
0
100
AcDbBlockBegin
  2
*PAPER_SPACE
 70
     0
 10
0.0
 20
0.0
 30
0.0
  3
*PAPER_SPACE
  1

  0
ENDBLK
  5
9
330
7
100
AcDbEntity
 67
     1
  8
0
100
AcDbBlockEnd
  0
BLOCK
  5
3F
330
29
100
AcDbEntity
  8
0
100
AcDbBlockBegin
  2
HALFKNRL
 70
     0
 10
0.0
 20
0.0
 30
0.0
  3
HALFKNRL
  1

  0
LINE
  5
2A
330
29
100
AcDbEntity
  8
8
100
AcDbLine
 10
0.0019104807737509
 20
1.664458533212634
 30
0.0
 11
-0.6718872870006436
 21
1.736825340901819
 31
0.0
  0
LINE
  5
2C
330
29
100
AcDbEntity
  8
8
100
AcDbLine
 10
0.0019104807737509
 20
1.70508851065215
 30
0.0
 11
-0.3110207734936026
 21
1.736825340901819
 31
0.0
  0
LINE
  5
2D
330
29
100
AcDbEntity
  8
8
100
AcDbLine
 10
-1.041631484844886
 20
1.708429197686066
 30
0.0
 11
0.0017302048792107
 21
1.366356697350589
 31
0.0
  0
LINE
  5
2E
330
29
100
AcDbEntity
  8
8
100
AcDbLine
 10
0.0017302048792107
 20
0.2956119592817394
 30
0.0
 11
-1.04177546334536
 21
1.009441784660946
 31
0.0
  0
LINE
  5
2F
330
29
100
AcDbEntity
  8
8
100
AcDbLine
 10
0.0017302048792107
 20
0.4492209090468889
 30
0.0
 11
-1.04177546334536
 21
1.135943272702831
 31
0.0
  0
LINE
  5
30
330
29
100
AcDbEntity
  8
8
100
AcDbLine
 10
0.0017302048792107
 20
0.5892761279504031
 30
0.0
 11
-1.04177546334536
 21
1.257926850457504
 31
0.0
  0
LINE
  5
31
330
29
100
AcDbEntity
  8
8
100
AcDbLine
 10
-0.0012770160666893
 20
0.7383671674283381
 30
0.0
 11
-1.04177546334536
 21
1.366356697350589
 31
0.0
  0
LINE
  5
32
330
29
100
AcDbEntity
  8
8
100
AcDbLine
 10
-1.04177546334536
 20
1.461232813381998
 30
0.0
 11
0.0017302048792107
 21
0.8739044760446432
 31
0.0
  0
LINE
  5
33
330
29
100
AcDbEntity
  8
8
100
AcDbLine
 10
0.0017302048792107
 20
1.013959694948157
 30
0.0
 11
-1.04177546334536
 21
1.542555198551789
 31
0.0
  0
LINE
  5
34
330
29
100
AcDbEntity
  8
8
100
AcDbLine
 10
-1.04177546334536
 20
1.605805942572729
 30
0.0
 11
0.0017302048792107
 21
1.135943272702831
 31
0.0
  0
LINE
  5
35
330
29
100
AcDbEntity
  8
8
100
AcDbLine
 10
0.0017302048792107
 20
1.257926850457504
 30
0.0
 11
-1.04177546334536
 21
1.664538776306459
 31
0.0
  0
LINE
  5
36
330
29
100
AcDbEntity
  8
8
100
AcDbLine
 10
0.0017302048792107
 20
1.461232813381998
 30
0.0
 11
-1.041631484844886
 21
1.734530880162361
 31
0.0
  0
LINE
  5
37
330
29
100
AcDbEntity
  8
8
100
AcDbLine
 10
0.0017302048792107
 20
1.605805942572729
 30
0.0
 11
-0.8461161418745026
 21
1.739364773807928
 31
0.0
  0
LINE
  5
38
330
29
100
AcDbEntity
  8
8
100
AcDbLine
 10
-1.041631484844886
 20
1.752802057895768
 30
0.0
 11
0.0017302048792107
 21
1.542555198551789
 31
0.0
  0
LINE
  5
39
330
29
100
AcDbEntity
  8
8
100
AcDbLine
 10
-0.4082757963385478
 20
0.0018880963400507
 30
0.0
 11
-1.042281421556963
 21
0.4476584986879484
 31
0.0
  0
LINE
  5
3A
330
29
100
AcDbEntity
  8
8
100
AcDbLine
 10
-0.8300995169298621
 20
0.0014232436763058
 30
0.0
 11
-1.042281421556963
 21
0.1404079769361166
 31
0.0
  0
LINE
  5
3B
330
29
100
AcDbEntity
  8
8
100
AcDbLine
 10
-1.042281421556963
 20
0.2971684472176639
 30
0.0
 11
-0.6163264094847074
 21
0.0027982562155611
 31
0.0
  0
LINE
  5
3C
330
29
100
AcDbEntity
  8
8
100
AcDbLine
 10
-1.042281421556963
 20
0.5918781313469657
 30
0.0
 11
-0.2142734854948181
 21
0.0047285397936721
 31
0.0
  0
LINE
  5
3D
330
29
100
AcDbEntity
  8
8
100
AcDbLine
 10
0.0011509171795705
 20
0.0024587630883612
 30
0.0
 11
-1.042281421556963
 21
0.7360977640059839
 31
0.0
  0
LINE
  5
3E
330
29
100
AcDbEntity
  8
8
100
AcDbLine
 10
-1.042281421556963
 20
0.8740469778537409
 30
0.0
 11
0.0011509171795705
 21
0.1404079769361166
 31
0.0
  0
ENDBLK
  5
40
330
29
100
AcDbEntity
  8
0
100
AcDbBlockEnd
  0
BLOCK
  5
FB
330
F9
100
AcDbEntity
  8
0
100
AcDbBlockBegin
  2
A$C4FB65283
 70
     2
 10
0.0
 20
0.0
 30
0.0
  3
A$C4FB65283
  1

  0
ATTDEF
  5
FA
330
F9
100
AcDbEntity
  8
DIM
100
AcDbText
 10
0.0000000025669991
 20
0.0433333427455174
 30
0.0
 40
0.13
  1

  7
SIMPLEX
100
AcDbAttributeDefinition
  3
PART_#
  2
PART_#
 70
     0
280
     0
  0
ENDBLK
  5
FC
330
F9
100
AcDbEntity
  8
0
100
AcDbBlockEnd
  0
BLOCK
  5
235
330
1B1
100
AcDbEntity
  8
0
100
AcDbBlockBegin
  2
TFT_APRLIST
 70
     2
 10
0.0
 20
0.0
 30
0.0
  3
TFT_APRLIST
  1

  0
INSERT
  5
1B2
330
1B1
100
AcDbEntity
  8
DIM
100
AcDbBlockReference
 66
     1
  2
A$C4FB65283
 10
0.9375
 20
-0.9375
 30
0.0
  0
ATTRIB
  5
1B3
330
1B2
100
AcDbEntity
  8
DIM
100
AcDbText
 10
0.937500002566999
 20
-0.8941666572544825
 30
0.0
 40
0.13
  1

  7
SIMPLEX
100
AcDbAttribute
  2
PART_#
 70
     0
280
     0
  0
SEQEND
  5
1B4
330
1B2
100
AcDbEntity
  8
DIM
  0
LINE
  5
1B5
330
1B1
100
AcDbEntity
  8
TRIM
100
AcDbLine
 10
10.42
 20
3.919999999999998
 30
0.0
 11
0.0299999999999994
 21
3.919999999999998
 31
0.0
  0
LINE
  5
1B6
330
1B1
100
AcDbEntity
  8
TRIM
100
AcDbLine
 10
0.0000000000000004
 20
3.949999999999999
 30
0.0
 11
10.45
 21
3.949999999999999
 31
0.0
  0
LINE
  5
1B7
330
1B1
100
AcDbEntity
  8
TRIM
100
AcDbLine
 10
0.0299999999999994
 20
3.919999999999998
 30
0.0
 11
0.0300000000000001
 21
-2.962292535445997
 31
0.0
  0
LINE
  5
1B8
330
1B1
100
AcDbEntity
  8
TRIM
100
AcDbLine
 10
0.0
 20
3.949999999999999
 30
0.0
 11
0.0
 21
-3.95
 31
0.0
  0
LINE
  5
1B9
330
1B1
100
AcDbEntity
  8
TRIM
100
AcDbLine
 10
10.42
 20
-1.5175
 30
0.0
 11
10.42
 21
3.919999999999996
 31
0.0
  0
LINE
  5
1BA
330
1B1
100
AcDbEntity
  8
TRIM
100
AcDbLine
 10
10.45
 20
-3.950000000000002
 30
0.0
 11
10.45
 21
3.949999999999997
 31
0.0
  0
SOLID
  5
1BB
330
1B1
100
AcDbEntity
  8
SOLID
 62
     1
100
AcDbTrace
 10
8.850645716126262
 20
-2.583175278293517
 30
0.0
 11
8.953204584543675
 21
-2.390290100204915
 31
0.0
 12
8.844321505542426
 22
-2.575224655934988
 32
0.0
 13
8.947606643984827
 23
-2.380973562589405
 33
0.0
  0
SOLID
  5
1BC
330
1B1
100
AcDbEntity
  8
SOLID
 62
     1
100
AcDbTrace
 10
8.74363316304192
 20
-2.589343763358917
 30
0.0
 11
8.928899859358651
 21
-2.368551512435391
 31
0.0
 12
8.835889224763976
 22
-2.564623826123615
 32
0.0
 13
8.940142723239695
 23
-2.368551512435391
 33
0.0
  0
SOLID
  5
1BD
330
1B1
100
AcDbEntity
  8
SOLID
 62
     1
100
AcDbTrace
 10
8.775982482150035
 20
-2.368551512435392
 30
0.0
 11
9.1231396271704
 21
-2.27553103578049
 31
0.0
 12
9.073679762395344
 22
-2.368551512435391
 32
0.0
 13
9.073679762395344
 23
-2.368551512435391
 33
0.0
  0
SOLID
  5
1BE
330
1B1
100
AcDbEntity
  8
SOLID
 62
     1
100
AcDbTrace
 10
8.816585181828659
 20
-2.344811799209671
 30
0.0
 11
9.147519866606604
 21
-2.256138117675972
 31
0.0
 12
8.834870361405812
 22
-2.330267110631282
 32
0.0
 13
9.165805046183756
 23
-2.241593429097584
 33
0.0
  0
LINE
  5
1BF
330
1B1
100
AcDbEntity
  8
TRIM
100
AcDbLine
 10
10.42
 20
-1.5475
 30
0.0
 11
8.027
 21
-1.547499999999999
 31
0.0
  0
TEXT
  5
1C0
330
1B1
100
AcDbEntity
  8
TRIM
100
AcDbText
 10
8.09375
 20
-1.717123664042923
 30
0.0
 40
0.1
  1
TASK FORCE TIPS, INC.
 51
10.0
  7
ROMAND
100
AcDbText
  0
TEXT
  5
1C1
330
1B1
100
AcDbEntity
  8
TRIM
100
AcDbText
 10
8.128853320039944
 20
-2.15479946193006
 30
0.0
 40
0.09
  1
219-462-6161
  7
SIMPLEX
100
AcDbText
  0
TEXT
  5
1C2
330
1B1
100
AcDbEntity
  8
TRIM
 62
     2
100
AcDbText
 10
8.128853320039944
 20
-2.004135382055867
 30
0.0
 40
0.09
  1
VALPARAISO, IN 46383
  7
SIMPLEX
100
AcDbText
  0
TEXT
  5
1C3
330
1B1
100
AcDbEntity
  8
TRIM
 62
     2
100
AcDbText
 10
8.128853320039944
 20
-1.859417196791166
 30
0.0
 40
0.09
  1
2800 E. EVANS AVE.
  7
SIMPLEX
100
AcDbText
  0
LINE
  5
1C4
330
1B1
100
AcDbEntity
  8
TRIM
100
AcDbLine
 10
10.42
 20
-1.5175
 30
0.0
 11
7.997000000000003
 21
-1.5175
 31
0.0
  0
LINE
  5
1C5
330
1B1
100
AcDbEntity
  8
TRIM
100
AcDbLine
 10
8.026999999999997
 20
-2.695684594848474
 30
0.0
 11
8.027
 21
-1.547499999999999
 31
0.0
  0
LINE
  5
1C6
330
1B1
100
AcDbEntity
  8
TRIM
100
AcDbLine
 10
7.996999999999999
 20
-3.281528356963998
 30
0.0
 11
7.997000000000003
 21
-1.5175
 31
0.0
  0
SOLID
  5
1C7
330
1B1
100
AcDbEntity
  8
SOLID
 62
     1
100
AcDbTrace
 10
8.043289410762174
 20
-2.390290100204915
 30
0.0
 11
8.307257976534965
 21
-2.390290100204915
 31
0.0
 12
8.114055539671543
 22
-2.380973562589405
 32
0.0
 13
8.327237355926615
 23
-2.380973562589405
 33
0.0
  0
SOLID
  5
1C8
330
1B1
100
AcDbEntity
  8
SOLID
 62
     1
100
AcDbTrace
 10
8.043289410762174
 20
-2.390290100204915
 30
0.0
 11
8.598232942251094
 21
-2.241593429097584
 31
0.0
 12
8.114055539671543
 22
-2.380973562589405
 32
0.0
 13
8.579947762673942
 23
-2.256138117675972
 33
0.0
  0
SOLID
  5
1C9
330
1B1
100
AcDbEntity
  8
SOLID
 62
     1
100
AcDbTrace
 10
8.168609832132082
 20
-2.589343763358917
 30
0.0
 11
8.353876528448813
 21
-2.368551512435391
 31
0.0
 12
8.260865893854138
 22
-2.564623826123616
 32
0.0
 13
8.365119392329857
 23
-2.368551512435391
 33
0.0
  0
SOLID
  5
1CA
330
1B1
100
AcDbEntity
  8
SOLID
 62
     1
100
AcDbTrace
 10
8.107639478387345
 20
-2.628186162520601
 30
0.0
 11
8.307257976534965
 21
-2.390290100204915
 31
0.0
 12
8.133769629992232
 22
-2.611539420022737
 32
0.0
 13
8.327237355926615
 23
-2.380973562589405
 33
0.0
  0
SOLID
  5
1CB
330
1B1
100
AcDbEntity
  8
SOLID
 62
     1
100
AcDbTrace
 10
8.269298174632588
 20
-2.575224655934988
 30
0.0
 11
8.372583313074989
 21
-2.380973562589405
 31
0.0
 12
8.275622385216424
 22
-2.583175278293517
 32
0.0
 13
8.378181253633837
 23
-2.390290100204915
 33
0.0
  0
SOLID
  5
1CC
330
1B1
100
AcDbEntity
  8
SOLID
 62
     1
100
AcDbTrace
 10
8.519123824336962
 20
-2.473989674493337
 30
0.0
 11
8.389737608104452
 21
-2.628186162520601
 31
0.0
 12
8.534207787034426
 22
-2.470507267310368
 32
0.0
 13
8.415867759709338
 23
-2.611539420022737
 33
0.0
  0
SOLID
  5
1CD
330
1B1
100
AcDbEntity
  8
SOLID
 62
     1
100
AcDbTrace
 10
8.55772051493353
 20
-2.583175278293517
 30
0.0
 11
8.597274695487142
 21
-2.508784684111249
 31
0.0
 12
8.551396304349694
 22
-2.575224655934988
 32
0.0
 13
8.59312736164485
 23
-2.496739952053105
 33
0.0
  0
SOLID
  5
1CE
330
1B1
100
AcDbEntity
  8
SOLID
 62
     1
100
AcDbTrace
 10
8.902260686836453
 20
-2.380973562589405
 30
0.0
 11
8.708792960902072
 21
-2.611539420022736
 31
0.0
 12
8.882281307444803
 22
-2.390290100204915
 32
0.0
 13
8.682662809297184
 23
-2.628186162520601
 33
0.0
  0
SOLID
  5
1CF
330
1B1
100
AcDbEntity
  8
SOLID
 62
     1
100
AcDbTrace
 10
8.450707961849186
 20
-2.589343763358917
 30
0.0
 11
8.554319737297709
 21
-2.465864057733076
 31
0.0
 12
8.542964023571246
 22
-2.564623826123616
 32
0.0
 13
8.587597583188456
 23
-2.480680309308914
 33
0.0
  0
SOLID
  5
1D0
330
1B1
100
AcDbEntity
  8
SOLID
 62
     1
100
AcDbTrace
 10
8.389737608104452
 20
-2.628186162520601
 30
0.0
 11
8.55772051493353
 21
-2.583175278293517
 31
0.0
 12
8.415867759709338
 22
-2.611539420022737
 32
0.0
 13
8.551396304349694
 23
-2.575224655934988
 33
0.0
  0
SOLID
  5
1D1
330
1B1
100
AcDbEntity
  8
SOLID
 62
     1
100
AcDbTrace
 10
8.107639478387345
 20
-2.628186162520601
 30
0.0
 11
8.275622385216424
 21
-2.583175278293517
 31
0.0
 12
8.133769629992232
 22
-2.611539420022737
 32
0.0
 13
8.269298174632588
 23
-2.575224655934988
 33
0.0
  0
SOLID
  5
1D2
330
1B1
100
AcDbEntity
  8
SOLID
 62
     1
100
AcDbTrace
 10
8.682662809297184
 20
-2.628186162520601
 30
0.0
 11
8.850645716126262
 21
-2.583175278293517
 31
0.0
 12
8.708792960902072
 22
-2.611539420022736
 32
0.0
 13
8.844321505542426
 23
-2.575224655934988
 33
0.0
  0
SOLID
  5
1D3
330
1B1
100
AcDbEntity
  8
SOLID
 62
     1
100
AcDbTrace
 10
8.20841037821737
 20
-2.368551512435391
 30
0.0
 11
8.55556752323774
 21
-2.27553103578049
 31
0.0
 12
8.50610765846268
 22
-2.368551512435391
 32
0.0
 13
8.50610765846268
 23
-2.368551512435391
 33
0.0
  0
SOLID
  5
1D4
330
1B1
100
AcDbEntity
  8
SOLID
 62
     1
100
AcDbTrace
 10
8.372583313074989
 20
-2.380973562589405
 30
0.0
 11
8.609335485643719
 21
-2.380973562589405
 31
0.0
 12
8.378181253633837
 22
-2.390290100204915
 32
0.0
 13
8.58935610625207
 23
-2.390290100204915
 33
0.0
  0
SOLID
  5
1D5
330
1B1
100
AcDbEntity
  8
SOLID
 62
     1
100
AcDbTrace
 10
8.572168428944469
 20
-2.410773576384599
 30
0.0
 11
8.457090831512811
 21
-2.446370806652486
 31
0.0
 12
8.577542132047718
 22
-2.418863405958059
 32
0.0
 13
8.483530453625319
 23
-2.44794426478169
 33
0.0
  0
SOLID
  5
1D6
330
1B1
100
AcDbEntity
  8
SOLID
 62
     1
100
AcDbTrace
 10
8.457090831512811
 20
-2.446370806652486
 30
0.0
 11
8.519123824336962
 21
-2.473989674493337
 31
0.0
 12
8.483530453625319
 22
-2.44794426478169
 32
0.0
 13
8.534207787034426
 23
-2.470507267310368
 33
0.0
  0
SOLID
  5
1D7
330
1B1
100
AcDbEntity
  8
SOLID
 62
     1
100
AcDbTrace
 10
8.492196430183702
 20
-2.368551512435392
 30
0.0
 11
8.839353575204068
 21
-2.27553103578049
 31
0.0
 12
8.78989371042901
 22
-2.368551512435391
 32
0.0
 13
8.78989371042901
 23
-2.368551512435391
 33
0.0
  0
SOLID
  5
1D8
330
1B1
100
AcDbEntity
  8
SOLID
 62
     1
100
AcDbTrace
 10
8.710751963821957
 20
-2.380973562589405
 30
0.0
 11
8.902260686836453
 21
-2.380973562589405
 31
0.0
 12
8.716349904380804
 22
-2.390290100204915
 32
0.0
 13
8.882281307444803
 23
-2.390290100204915
 33
0.0
  0
SOLID
  5
1D9
330
1B1
100
AcDbEntity
  8
SOLID
 62
     1
100
AcDbTrace
 10
8.551084309439482
 20
-2.330267110631282
 30
0.0
 11
8.882018994217425
 21
-2.241593429097584
 31
0.0
 12
8.532799129862328
 22
-2.34481179920967
 32
0.0
 13
8.863733814640273
 23
-2.256138117675972
 33
0.0
  0
SOLID
  5
1DA
330
1B1
100
AcDbEntity
  8
SOLID
 62
     1
100
AcDbTrace
 10
8.532799129862328
 20
-2.34481179920967
 30
0.0
 11
8.579947762673942
 21
-2.256138117675972
 31
0.0
 12
8.551084309439482
 22
-2.330267110631282
 32
0.0
 13
8.598232942251094
 23
-2.241593429097584
 33
0.0
  0
SOLID
  5
1DB
330
1B1
100
AcDbEntity
  8
SOLID
 62
     1
100
AcDbTrace
 10
8.59312736164485
 20
-2.496739952053105
 30
0.0
 11
8.638464999731694
 21
-2.516925569053505
 31
0.0
 12
8.597274695487142
 22
-2.508784684111249
 32
0.0
 13
8.642612333573988
 23
-2.528970301111649
 33
0.0
  0
SOLID
  5
1DC
330
1B1
100
AcDbEntity
  8
SOLID
 62
     1
100
AcDbTrace
 10
8.518783283108665
 20
-2.450042208953961
 30
0.0
 11
8.687749359579144
 21
-2.397775525726124
 31
0.0
 12
8.6329352212753
 22
-2.500865926309313
 32
0.0
 13
8.6329352212753
 23
-2.500865926309313
 33
0.0
  0
SOLID
  5
1DD
330
1B1
100
AcDbEntity
  8
SOLID
 62
     1
100
AcDbTrace
 10
8.584707069518714
 20
-2.429649845389338
 30
0.0
 11
8.63597465816592
 21
-2.368551512435391
 31
0.0
 12
8.620641232051865
 22
-2.41853424437989
 32
0.0
 13
8.647217522046963
 23
-2.368551512435391
 33
0.0
  0
SOLID
  5
1DE
330
1B1
100
AcDbEntity
  8
SOLID
 62
     1
100
AcDbTrace
 10
8.58935610625207
 20
-2.390290100204915
 30
0.0
 11
8.572168428944469
 21
-2.410773576384599
 31
0.0
 12
8.609335485643719
 22
-2.380973562589405
 32
0.0
 13
8.577542132047718
 23
-2.418863405958059
 33
0.0
  0
SOLID
  5
1DF
330
1B1
100
AcDbEntity
  8
SOLID
 62
     1
100
AcDbTrace
 10
8.638464999731694
 20
-2.516925569053505
 30
0.0
 11
8.710751963821957
 21
-2.380973562589405
 31
0.0
 12
8.642612333573988
 22
-2.528970301111649
 32
0.0
 13
8.716349904380804
 23
-2.390290100204915
 33
0.0
  0
SOLID
  5
1E0
330
1B1
100
AcDbEntity
  8
SOLID
 62
     1
100
AcDbTrace
 10
8.64575423921119
 20
-2.397763190625549
 30
0.0
 11
8.700031216426286
 21
-2.380973562589405
 31
0.0
 12
8.654681442792095
 22
-2.380973562589405
 32
0.0
 13
8.654681442792095
 23
-2.380973562589405
 33
0.0
  0
SOLID
  5
1E1
330
1B1
100
AcDbEntity
  8
SOLID
 62
     1
100
AcDbTrace
 10
8.816585181828659
 20
-2.344811799209671
 30
0.0
 11
8.863733814640273
 21
-2.256138117675972
 31
0.0
 12
8.834870361405812
 22
-2.330267110631282
 32
0.0
 13
8.882018994217425
 23
-2.241593429097584
 33
0.0
  0
LINE
  5
1E2
330
1B1
100
AcDbEntity
  8
TRIM
100
AcDbLine
 10
10.42
 20
-2.169660401921237
 30
0.0
 11
10.42
 21
-1.5475
 31
0.0
  0
LINE
  5
1E3
330
1B1
100
AcDbEntity
  8
TRIM
100
AcDbLine
 10
9.212094456945932
 20
-2.199660401921237
 30
0.0
 11
9.212094456946
 21
-3.595684594848474
 31
0.0
  0
LINE
  5
1E4
330
1B1
100
AcDbEntity
  8
TRIM
100
AcDbLine
 10
10.42
 20
-3.595684594848474
 30
0.0
 11
10.42
 21
-2.199660401921237
 31
0.0
  0
LINE
  5
1E5
330
1B1
100
AcDbEntity
  8
TRIM
100
AcDbLine
 10
9.212094456945932
 20
-2.199660401921237
 30
0.0
 11
10.42
 21
-2.199660401921237
 31
0.0
  0
LINE
  5
1E6
330
1B1
100
AcDbEntity
  8
TRIM
100
AcDbLine
 10
9.182094456945933
 20
-2.169660401921237
 30
0.0
 11
10.42
 21
-2.169660401921237
 31
0.0
  0
TEXT
  5
1E7
330
1B1
100
AcDbEntity
  8
DIM
100
AcDbText
 10
9.571760469277256
 20
-2.334434594848473
 30
0.0
 40
0.09
  1
DATE
 41
0.9
 72
     1
 11
9.714293951420114
 21
-2.334434594848473
 31
0.0
100
AcDbText
  0
LINE
  5
1E8
330
1B1
100
AcDbEntity
  8
TRIM
100
AcDbLine
 10
9.994468265884985
 20
-2.365684594848473
 30
0.0
 11
9.434119636955241
 21
-2.365684594848473
 31
0.0
  0
LINE
  5
1E9
330
1B1
100
AcDbEntity
  8
TRIM
100
AcDbLine
 10
10.42
 20
-2.545684594848474
 30
0.0
 11
9.212094456945946
 21
-2.545684594848474
 31
0.0
  0
LINE
  5
1EA
330
1B1
100
AcDbEntity
  8
TRIM
100
AcDbLine
 10
9.434119636955241
 20
-2.199660401921237
 30
0.0
 11
9.434119636955238
 21
-3.265684594848474
 31
0.0
  0
LINE
  5
1EB
330
1B1
100
AcDbEntity
  8
TRIM
100
AcDbLine
 10
9.182094456945933
 20
-2.169660401921237
 30
0.0
 11
9.182094456945958
 21
-2.695684594848474
 31
0.0
  0
TEXT
  5
1EC
330
1B1
100
AcDbEntity
  8
DIM
100
AcDbText
 10
9.227160618379163
 20
-2.334434594848473
 30
0.0
 40
0.09
  1
REV
 41
0.8
 72
     1
 11
9.323107046950591
 21
-2.334434594848473
 31
0.0
100
AcDbText
  0
LINE
  5
1ED
330
1B1
100
AcDbEntity
  8
TRIM
100
AcDbLine
 10
9.434119636955241
 20
-2.365684594848473
 30
0.0
 11
9.212094456945941
 21
-2.365684594848473
 31
0.0
  0
SOLID
  5
1EE
330
1B1
100
AcDbEntity
  8
SOLID
 62
     1
100
AcDbTrace
 10
9.086741623699323
 20
-2.390290100204915
 30
0.0
 11
9.165805046183756
 21
-2.241593429097584
 31
0.0
 12
9.081143683140475
 22
-2.380973562589405
 32
0.0
 13
9.147519866606604
 23
-2.256138117675972
 33
0.0
  0
SOLID
  5
1EF
330
1B1
100
AcDbEntity
  8
SOLID
 62
     1
100
AcDbTrace
 10
8.953204584543675
 20
-2.390290100204915
 30
0.0
 11
9.086741623699323
 21
-2.390290100204915
 31
0.0
 12
8.947606643984827
 22
-2.380973562589405
 32
0.0
 13
9.081143683140475
 23
-2.380973562589405
 33
0.0
  0
LINE
  5
1F0
330
1B1
100
AcDbEntity
  8
TRIM
100
AcDbLine
 10
9.994468265884983
 20
-2.199660401921237
 30
0.0
 11
9.994468265884983
 21
-3.265684594848475
 31
0.0
  0
TEXT
  5
1F1
330
1B1
100
AcDbEntity
  8
DIM
100
AcDbText
 10
10.01058171753503
 20
-2.334434594848473
 30
0.0
 40
0.09
  1
INITIALS
 41
0.8
 72
     1
 11
10.21115314610646
 21
-2.334434594848473
 31
0.0
100
AcDbText
  0
LINE
  5
1F2
330
1B1
100
AcDbEntity
  8
TRIM
100
AcDbLine
 10
10.42
 20
-2.365684594848473
 30
0.0
 11
9.994468265884985
 21
-2.365684594848473
 31
0.0
  0
LINE
  5
1F3
330
1B1
100
AcDbEntity
  8
TRIM
100
AcDbLine
 10
0.0300000000000482
 20
-3.600764178481992
 30
0.0
 11
7.996999999999999
 21
-3.600764178481998
 31
0.0
  0
LINE
  5
1F4
330
1B1
100
AcDbEntity
  8
TRIM
100
AcDbLine
 10
0.0299999999999994
 20
-3.311528356963992
 30
0.0
 11
7.996999999999999
 21
-3.311528356963998
 31
0.0
  0
LINE
  5
1F5
330
1B1
100
AcDbEntity
  8
TRIM
100
AcDbLine
 10
0.0
 20
-3.95
 30
0.0
 11
10.45
 21
-3.949999999999999
 31
0.0
  0
LINE
  5
1F6
330
1B1
100
AcDbEntity
  8
TRIM
100
AcDbLine
 10
0.0299999999999994
 20
-3.630764178481992
 30
0.0
 11
7.996999999999999
 21
-3.630764178481999
 31
0.0
  0
LINE
  5
1F7
330
1B1
100
AcDbEntity
  8
TRIM
100
AcDbLine
 10
0.0300000000000482
 20
-3.919999999999992
 30
0.0
 11
7.996999999999999
 21
-3.919999999999999
 31
0.0
  0
LINE
  5
1F8
330
1B1
100
AcDbEntity
  8
TRIM
100
AcDbLine
 10
0.0300000000000001
 20
-2.962292535445997
 30
0.0
 11
4.123749999999997
 21
-2.962292535445998
 31
0.0
  0
LINE
  5
1F9
330
1B1
100
AcDbEntity
  8
TRIM
100
AcDbLine
 10
0.0300000000000491
 20
-2.992292535445997
 30
0.0
 11
3.3125
 21
-2.992292535445997
 31
0.0
  0
LINE
  5
1FA
330
1B1
100
AcDbEntity
  8
TRIM
100
AcDbLine
 10
0.0299999999999994
 20
-3.281528356963997
 30
0.0
 11
3.312500000000048
 21
-3.281528356963997
 31
0.0
  0
TEXT
  5
1FB
330
1B1
100
AcDbEntity
  8
TRIM
100
AcDbText
 10
0.1075473557651141
 20
-3.529971212324582
 30
0.0
 40
0.14
  1
DESCRIPTION:
 41
0.9
  7
SIMPLEX
100
AcDbText
  0
TEXT
  5
1FC
330
1B1
100
AcDbEntity
  8
TRIM
100
AcDbText
 10
0.1075473557651141
 20
-3.842471212324582
 30
0.0
 40
0.14
  1
EXTRA DESC:
 41
0.9
  7
SIMPLEX
100
AcDbText
  0
TEXT
  5
1FD
330
1B1
100
AcDbEntity
  8
TRIM
100
AcDbText
 10
0.1101805231206985
 20
-3.206860587244686
 30
0.0
 40
0.14
  1
PART NUMBER:
 41
0.8
  7
SIMPLEX
100
AcDbText
  0
LINE
  5
1FE
330
1B1
100
AcDbEntity
  8
TRIM
100
AcDbLine
 10
0.0299999999999994
 20
-3.311528356963992
 30
0.0
 11
0.0300000000000482
 21
-3.600764178481992
 31
0.0
  0
LINE
  5
1FF
330
1B1
100
AcDbEntity
  8
TRIM
100
AcDbLine
 10
0.0299999999999994
 20
-3.630764178481992
 30
0.0
 11
0.0300000000000482
 21
-3.919999999999992
 31
0.0
  0
LINE
  5
200
330
1B1
100
AcDbEntity
  8
TRIM
100
AcDbLine
 10
0.0300000000000003
 20
-2.992292535445996
 30
0.0
 11
0.0299999999999994
 21
-3.281528356963997
 31
0.0
  0
LINE
  5
201
330
1B1
100
AcDbEntity
  8
TRIM
100
AcDbLine
 10
3.342500000000001
 20
-2.992292535445997
 30
0.0
 11
4.09375
 21
-2.992292535445997
 31
0.0
  0
TEXT
  5
202
330
1B1
100
AcDbEntity
  8
DIM
 62
     1
100
AcDbText
 10
3.539702380952381
 20
-3.096249999999999
 30
0.0
 40
0.08
  1
SHEET
 72
     1
 11
3.71875
 21
-3.096249999999999
 31
0.0
100
AcDbText
  0
LINE
  5
203
330
1B1
100
AcDbEntity
  8
TRIM
100
AcDbLine
 10
3.342500000000001
 20
-2.992292535445997
 30
0.0
 11
3.342500000000048
 21
-3.281528356963995
 31
0.0
  0
LINE
  5
204
330
1B1
100
AcDbEntity
  8
TRIM
100
AcDbLine
 10
3.3125
 20
-2.992292535445997
 30
0.0
 11
3.312500000000048
 21
-3.281528356963997
 31
0.0
  0
LINE
  5
205
330
1B1
100
AcDbEntity
  8
TRIM
100
AcDbLine
 10
4.123749999999997
 20
-2.962292535445998
 30
0.0
 11
4.123750000000049
 21
-3.281528356963995
 31
0.0
  0
LINE
  5
206
330
1B1
100
AcDbEntity
  8
TRIM
100
AcDbLine
 10
4.09375
 20
-2.992292535445997
 30
0.0
 11
4.093750000000048
 21
-3.281528356963997
 31
0.0
  0
LINE
  5
207
330
1B1
100
AcDbEntity
  8
TRIM
100
AcDbLine
 10
4.123750000000049
 20
-3.281528356963995
 30
0.0
 11
7.996999999999999
 21
-3.281528356963999
 31
0.0
  0
LINE
  5
208
330
1B1
100
AcDbEntity
  8
TRIM
100
AcDbLine
 10
9.18209445694596
 20
-2.695684594848474
 30
0.0
 11
8.026999999999997
 21
-2.695684594848474
 31
0.0
  0
TEXT
  5
209
330
1B1
100
AcDbEntity
  8
DIM
100
AcDbText
 10
8.043249999999999
 20
-3.684660772043169
 30
0.0
 40
0.056
  1
DIMENSIONS IN 'INCHES' UNLESS SPECIFIED OTHERWISE
100
AcDbText
  0
LINE
  5
20A
330
1B1
100
AcDbEntity
  8
TRIM
100
AcDbLine
 10
9.182094456945938
 20
-2.905684594848473
 30
0.0
 11
8.026999999999987
 21
-2.905684594848474
 31
0.0
  0
LINE
  5
20B
330
1B1
100
AcDbEntity
  8
TRIM
100
AcDbLine
 10
9.18209445694596
 20
-2.725684594848474
 30
0.0
 11
8.027000000000001
 21
-2.725684594848474
 31
0.0
  0
LINE
  5
20C
330
1B1
100
AcDbEntity
  8
TRIM
100
AcDbLine
 10
8.027
 20
-3.874999999999999
 30
0.0
 11
10.42
 21
-3.875
 31
0.0
  0
LINE
  5
20D
330
1B1
100
AcDbEntity
  8
TRIM
100
AcDbLine
 10
8.027
 20
-3.724999999999999
 30
0.0
 11
10.42
 21
-3.724999999999999
 31
0.0
  0
TEXT
  5
20E
330
1B1
100
AcDbEntity
  8
TRIM
100
AcDbText
 10
8.07456365306904
 20
-3.368985470670738
 30
0.0
 40
0.07
  1
PRINT APPROVED
 41
1.058889550608496
  7
SIMPLEX
 72
     5
 11
9.024034616781325
 21
-3.368985470670738
 31
0.0
100
AcDbText
  0
LINE
  5
20F
330
1B1
100
AcDbEntity
  8
TRIM
100
AcDbLine
 10
9.182094456945999
 20
-3.595684594848474
 30
0.0
 11
8.027
 21
-3.595684594848474
 31
0.0
  0
LINE
  5
210
330
1B1
100
AcDbEntity
  8
TRIM
 62
     2
100
AcDbLine
 10
9.182094456945947
 20
-3.085684594848474
 30
0.0
 11
8.027
 21
-3.085684594848474
 31
0.0
  0
LINE
  5
211
330
1B1
100
AcDbEntity
  8
TRIM
100
AcDbLine
 10
9.182094456945952
 20
-3.265684594848474
 30
0.0
 11
8.027
 21
-3.265684594848475
 31
0.0
  0
LINE
  5
212
330
1B1
100
AcDbEntity
  8
TRIM
 62
     2
100
AcDbLine
 10
9.18209445694596
 20
-3.404239025796374
 30
0.0
 11
8.027
 21
-3.404239025796374
 31
0.0
  0
LINE
  5
213
330
1B1
100
AcDbEntity
  8
TRIM
100
AcDbLine
 10
9.182094456945967
 20
-3.595684594848474
 30
0.0
 11
8.027
 21
-3.595684594848474
 31
0.0
  0
LINE
  5
214
330
1B1
100
AcDbEntity
  8
TRIM
100
AcDbLine
 10
7.996999999999999
 20
-3.600764178482002
 30
0.0
 11
7.996999999999999
 21
-3.311528356964002
 31
0.0
  0
LINE
  5
215
330
1B1
100
AcDbEntity
  8
TRIM
100
AcDbLine
 10
8.027
 20
-3.595684594848474
 30
0.0
 11
8.027
 21
-3.085684594848474
 31
0.0
  0
TEXT
  5
216
330
1B1
100
AcDbEntity
  8
TRIM
100
AcDbText
 10
8.0625
 20
-3.839999999999999
 30
0.0
 40
0.08
  1
FILE:
  7
SIMPLEX
100
AcDbText
  0
LINE
  5
217
330
1B1
100
AcDbEntity
  8
TRIM
100
AcDbLine
 10
8.027
 20
-3.874999999999996
 30
0.0
 11
8.1
 21
-3.874999999999997
 31
0.0
  0
LINE
  5
218
330
1B1
100
AcDbEntity
  8
TRIM
100
AcDbLine
 10
8.027
 20
-3.875
 30
0.0
 11
8.027
 21
-3.724999999999999
 31
0.0
  0
LINE
  5
219
330
1B1
100
AcDbEntity
  8
TRIM
100
AcDbLine
 10
7.996999999999999
 20
-3.920000000000002
 30
0.0
 11
7.996999999999999
 21
-3.630764178482002
 31
0.0
  0
TEXT
  5
21A
330
1B1
100
AcDbEntity
  8
TRIM
100
AcDbText
 10
8.074563653069028
 20
-3.050431039722838
 30
0.0
 40
0.07
  1
PRINT DRAWN
 41
1.047995828933663
  7
SIMPLEX
 72
     5
 11
8.81165405275237
 21
-3.050431039722838
 31
0.0
100
AcDbText
  0
TEXT
  5
21B
330
1B1
100
AcDbEntity
  8
TRIM
100
AcDbText
 10
8.074583589391938
 20
-2.867078253753203
 30
0.0
 40
0.09
  1
SCALE:
  7
SIMPLEX
100
AcDbText
  0
LINE
  5
21C
330
1B1
100
AcDbEntity
  8
TRIM
100
AcDbLine
 10
8.027
 20
-3.085684594848474
 30
0.0
 11
8.027
 21
-2.725684594848474
 31
0.0
  0
LINE
  5
21D
330
1B1
100
AcDbEntity
  8
TRIM
100
AcDbLine
 10
10.42
 20
-3.595684594848474
 30
0.0
 11
9.212094456946
 21
-3.595684594848474
 31
0.0
  0
LINE
  5
21E
330
1B1
100
AcDbEntity
  8
TRIM
100
AcDbLine
 10
10.42
 20
-3.875
 30
0.0
 11
10.42
 21
-3.724999999999999
 31
0.0
  0
LINE
  5
21F
330
1B1
100
AcDbEntity
  8
TRIM
100
AcDbLine
 10
10.42
 20
-3.265684594848475
 30
0.0
 11
9.212094456945975
 21
-3.265684594848474
 31
0.0
  0
LINE
  5
220
330
1B1
100
AcDbEntity
  8
TRIM
100
AcDbLine
 10
10.42
 20
-3.085684594848474
 30
0.0
 11
9.212094456945968
 21
-3.085684594848474
 31
0.0
  0
LINE
  5
221
330
1B1
100
AcDbEntity
  8
TRIM
100
AcDbLine
 10
10.42
 20
-2.905684594848474
 30
0.0
 11
9.21209445694596
 21
-2.905684594848473
 31
0.0
  0
LINE
  5
222
330
1B1
100
AcDbEntity
  8
TRIM
100
AcDbLine
 10
10.42
 20
-2.725684594848474
 30
0.0
 11
9.212094456945954
 21
-2.725684594848474
 31
0.0
  0
TEXT
  5
223
330
1B1
100
AcDbEntity
  8
TRIM
100
AcDbText
 10
9.27764585564324
 20
-3.368985470670738
 30
0.0
 40
0.07
  1
DESIGN ENGINEER
  7
SIMPLEX
100
AcDbText
  0
LINE
  5
224
330
1B1
100
AcDbEntity
  8
TRIM
 62
     2
100
AcDbLine
 10
10.41418891389197
 20
-3.404239025796374
 30
0.0
 11
9.212094456946
 21
-3.404239025796374
 31
0.0
  0
LINE
  5
225
330
1B1
100
AcDbEntity
  8
TRIM
100
AcDbLine
 10
9.18209445694596
 20
-2.725684594848474
 30
0.0
 11
9.182094456945999
 21
-3.595684594848474
 31
0.0
  0
LINE
  5
226
330
1B1
100
AcDbEntity
  8
TRIM
 62
     2
100
AcDbLine
 10
8.736598448036387
 20
-3.404239025796374
 30
0.0
 11
8.736598448036386
 21
-3.595684594848474
 31
0.0
  0
LINE
  5
227
330
1B1
100
AcDbEntity
  8
TRIM
 62
     2
100
AcDbLine
 10
8.736598448036387
 20
-3.085684594848474
 30
0.0
 11
8.736598448036387
 21
-3.265684594848474
 31
0.0
  0
LINE
  5
228
330
1B1
100
AcDbEntity
  8
TRIM
100
AcDbLine
 10
3.342500000000048
 20
-3.281528356963995
 30
0.0
 11
4.093750000000047
 21
-3.281528356963995
 31
0.0
  0
ATTDEF
  5
229
330
1B1
100
AcDbEntity
  8
DIM
100
AcDbText
 10
1.498750002566998
 20
-3.20694501421848
 30
0.0
 40
0.13
  1

  7
SIMPLEX
100
AcDbAttributeDefinition
  3
PART_#
  2
PART_#
 70
     0
280
     0
  0
ATTDEF
  5
22A
330
1B1
100
AcDbEntity
  8
DIM
100
AcDbText
 10
1.504683745091821
 20
-3.531130609568119
 30
0.0
 40
0.13
  1

  7
SIMPLEX
100
AcDbAttributeDefinition
  3
PART_DESCRIPTION
  2
PART_DESCRIPTION
 70
     0
280
     0
  0
ATTDEF
  5
22B
330
1B1
100
AcDbEntity
  8
DIM
100
AcDbText
 10
1.500000001465934
 20
-3.844457553051039
 30
0.0
 40
0.13
  1

  7
SIMPLEX
100
AcDbAttributeDefinition
  3
EXTRA_DESCRIPTION
  2
EXTRA_DESCRIPTION
 70
     0
280
     0
  0
ATTDEF
  5
22C
330
1B1
100
AcDbEntity
  8
DIM
100
AcDbText
 10
3.718750001465934
 20
-3.199999998273462
 30
0.0
 40
0.1
  1

  7
SIMPLEX
 72
     4
 11
3.718750001465934
 21
-3.199999998273462
 31
0.0
100
AcDbAttributeDefinition
  3
SHEET
  2
SHEET
 70
     0
280
     0
  0
ATTDEF
  5
22D
330
1B1
100
AcDbEntity
  8
DIM
100
AcDbText
 10
8.370750001651006
 20
-3.841069024870303
 30
0.0
 40
0.08
  1

  7
SIMPLEX
100
AcDbAttributeDefinition
  3
FILE_NAME
  2
FILE_NAME
 70
     0
280
     0
  0
ATTDEF
  5
22E
330
1B1
100
AcDbEntity
  8
DIM
100
AcDbText
 10
8.593750001465933
 20
-2.867243860095429
 30
0.0
 40
0.08
  1

  7
SIMPLEX
100
AcDbAttributeDefinition
  3
DRAWING_SCALE
  2
SCALE
 70
     0
280
     0
  0
ATTDEF
  5
22F
330
1B1
100
AcDbEntity
  8
DIM
100
AcDbText
 10
8.381799224018193
 20
-3.175684594848474
 30
0.0
 40
0.08
  1

  7
SIMPLEX
 72
     4
 11
8.381799224018193
 21
-3.175684594848474
 31
0.0
100
AcDbAttributeDefinition
  3
DATE_DRAWN
  2
DATE
 70
     0
280
     0
  0
ATTDEF
  5
230
330
1B1
100
AcDbEntity
  8
DIM
100
AcDbText
 10
8.959346452491168
 20
-3.175684594848474
 30
0.0
 40
0.08
  1

  7
SIMPLEX
 72
     4
 11
8.959346452491168
 21
-3.175684594848474
 31
0.0
100
AcDbAttributeDefinition
  3
DRAWN_BY?
  2
WHO?
 70
     0
280
     0
  0
ATTDEF
  5
231
330
1B1
100
AcDbEntity
  8
DIM
100
AcDbText
 10
8.381799224018193
 20
-3.499961810322424
 30
0.0
 40
0.08
  1

  7
SCRIPT
 72
     4
 11
8.381799224018193
 21
-3.499961810322424
 31
0.0
100
AcDbAttributeDefinition
  3
DATE_APPROVED
  2
DATE
 70
     0
280
     0
  0
ATTDEF
  5
232
330
1B1
100
AcDbEntity
  8
DIM
100
AcDbText
 10
8.959346452491191
 20
-3.499961810322424
 30
0.0
 40
0.08
  1

  7
SCRIPT
 72
     4
 11
8.959346452491191
 21
-3.499961810322424
 31
0.0
100
AcDbAttributeDefinition
  3
APPROVED_BY?
  2
WHO?
 70
     0
280
     0
  0
ATTDEF
  5
233
330
1B1
100
AcDbEntity
  8
DIM
100
AcDbText
 10
9.27764585564324
 20
-3.539961810322424
 30
0.0
 40
0.08
  1

  7
SCRIPT
 11
9.27764585564324
 21
-3.499961810322424
 31
0.0
100
AcDbAttributeDefinition
  3
ENGINEER_IN_CHARGE
  2
WHO?
 70
     0
 74
     2
280
     0
  0
TEXT
  5
234
330
1B1
100
AcDbEntity
  8
DIM
100
AcDbText
 10
9.716766296807858
 20
-3.931972942467266
 30
0.0
 40
0.04
  1
F04-0052-01 REV. 00
 72
     2
 11
10.41771867776024
 21
-3.931972942467266
 31
0.0
100
AcDbText
  0
ENDBLK
  5
236
330
1B1
100
AcDbEntity
  8
0
100
AcDbBlockEnd
  0
BLOCK
  5
261
330
25D
100
AcDbEntity
  8
0
100
AcDbBlockBegin
  2
rvsn_blk
 70
     2
 10
0.0
 20
0.0
 30
0.0
  3
rvsn_blk
  1

  0
ATTDEF
  5
25E
330
25D
100
AcDbEntity
  8
DIM
100
AcDbText
 10
-0.1443252782292399
 20
0.0442732402878181
 30
1.0
 40
0.07
  1

  7
SIMPLEX
100
AcDbAttributeDefinition
  3
REV_#
  2
X
 70
     0
280
     0
  0
ATTDEF
  5
25F
330
25D
100
AcDbEntity
  8
DIM
100
AcDbText
 10
0.269150253848311
 20
0.0469563354417511
 30
1.0
 40
0.07
  1

  7
SIMPLEX
 72
     1
 11
0.269150253848311
 21
0.0469563354417511
 31
1.0
100
AcDbAttributeDefinition
  3
DATE
  2
DATE
 70
     0
280
     0
  0
ATTDEF
  5
260
330
25D
100
AcDbEntity
  8
DIM
100
AcDbText
 10
0.7631729674994113
 20
0.0469563354417511
 30
1.0
 40
0.07
  1

  7
SIMPLEX
 72
     1
 11
0.7631729674994113
 21
0.0469563354417511
 31
1.0
100
AcDbAttributeDefinition
  3
INITIALS
  2
XXX
 70
     0
280
     0
  0
ENDBLK
  5
262
330
25D
100
AcDbEntity
  8
0
100
AcDbBlockEnd
  0
ENDSEC
  0
SECTION
  2
ENTITIES
  0
LINE
  5
1E
330
2
100
AcDbEntity
  8
CENTER
100
AcDbLine
 10
10.90625
 20
0.1648253093110537
 30
0.0
 11
5.65625
 21
0.1648253093110537
 31
0.0
  0
LINE
  5
21
330
2
100
AcDbEntity
  8
PART
100
AcDbLine
 10
10.40444379391673
 20
-0.5851746906889473
 30
0.0
 11
10.70701738704553
 21
-0.5851746906889473
 31
0.0
  0
LINE
  5
23
330
2
100
AcDbEntity
  8
PART
100
AcDbLine
 10
10.40444379391673
 20
0.9148253093110545
 30
0.0
 11
10.70701738704553
 21
0.9148253093110545
 31
0.0
  0
LINE
  5
24
330
2
100
AcDbEntity
  8
PART
100
AcDbLine
 10
6.447017387045537
 20
-1.040174690688947
 30
0.0
 11
6.417017387045536
 21
-1.070174690688947
 31
0.0
  0
ARC
  5
25
330
2
100
AcDbEntity
  8
PART
100
AcDbCircle
 10
6.757017387045536
 20
-0.9801746906889476
 30
0.0
 40
0.06
100
AcDbArc
 50
270.0
 51
0.0
  0
ARC
  5
26
330
2
100
AcDbEntity
  8
PART
100
AcDbCircle
 10
5.827017387045533
 20
-0.9801746906889476
 30
0.0
 40
0.06
100
AcDbArc
 50
179.9999999999999
 51
270.0
  0
LINE
  5
27
330
2
100
AcDbEntity
  8
PART
100
AcDbLine
 10
5.887017387045535
 20
-1.040174690688947
 30
0.0
 11
5.917017387045532
 21
-1.070174690688947
 31
0.0
  0
INSERT
  5
28
330
2
100
AcDbEntity
  8
PART
100
AcDbBlockReference
  2
HALFKNRL
 10
6.417017387045533
 20
0.1648253093110519
 30
0.0
 41
-0.48
 42
0.705
 43
0.48
 50
180.0
  0
INSERT
  5
41
330
2
100
AcDbEntity
  8
PART
100
AcDbBlockReference
  2
HALFKNRL
 10
5.917017387045532
 20
0.1648253093110519
 30
0.0
 41
0.48
 42
0.705
 43
0.48
 50
180.0
  0
LINE
  5
42
330
2
100
AcDbEntity
  8
PART
100
AcDbLine
 10
5.917017387045532
 20
-1.070174690688947
 30
0.0
 11
5.917017387045532
 21
0.1648253093110537
 31
0.0
  0
LINE
  5
43
330
2
100
AcDbEntity
  8
PART
100
AcDbLine
 10
6.417017387045536
 20
-1.070174690688947
 30
0.0
 11
6.417017387045536
 21
0.1648253093110537
 31
0.0
  0
LINE
  5
44
330
2
100
AcDbEntity
  8
PART
100
AcDbLine
 10
6.417017387045536
 20
-1.070174690688947
 30
0.0
 11
5.917017387045532
 21
-1.070174690688947
 31
0.0
  0
ARC
  5
45
330
2
100
AcDbEntity
  8
PART
100
AcDbCircle
 10
10.26701738704554
 20
-20.19496977265624
 30
0.0
 40
19.66479508196729
100
AcDbArc
 50
90.00000000000006
 51
99.95745613621682
  0
ARC
  5
46
330
2
100
AcDbEntity
  8
PART
100
AcDbCircle
 10
10.26701738704554
 20
20.52462039127835
 30
0.0
 40
19.66479508196729
100
AcDbArc
 50
260.0425438637832
 51
269.9999999999999
  0
LINE
  5
47
330
2
100
AcDbEntity
  8
PART
100
AcDbLine
 10
5.767017387045534
 20
1.309825309311055
 30
0.0
 11
5.767017387045534
 21
-0.9801746906889476
 31
0.0
  0
LINE
  5
48
330
2
100
AcDbEntity
  8
PART
100
AcDbLine
 10
6.447017387045537
 20
1.369825309311054
 30
0.0
 11
6.447017387045537
 21
0.1648253093110537
 31
0.0
  0
LINE
  5
49
330
2
100
AcDbEntity
  8
PART
100
AcDbLine
 10
6.417017387045536
 20
1.399825309311054
 30
0.0
 11
6.417017387045536
 21
0.1648253093110537
 31
0.0
  0
LINE
  5
4A
330
2
100
AcDbEntity
  8
PART
100
AcDbLine
 10
5.917017387045532
 20
1.399825309311054
 30
0.0
 11
5.917017387045532
 21
0.1648253093110537
 31
0.0
  0
LINE
  5
4B
330
2
100
AcDbEntity
  8
PART
100
AcDbLine
 10
5.887017387045535
 20
1.369825309311054
 30
0.0
 11
5.887017387045535
 21
0.1648253093110537
 31
0.0
  0
LINE
  5
4C
330
2
100
AcDbEntity
  8
PART
100
AcDbLine
 10
5.827017387045533
 20
1.369825309311053
 30
0.0
 11
5.827017387045533
 21
0.1648253093110537
 31
0.0
  0
LINE
  5
4D
330
2
100
AcDbEntity
  8
PART
100
AcDbLine
 10
6.817017387045535
 20
0.1648253093110537
 30
0.0
 11
6.817017387045535
 21
1.215143697024592
 31
0.0
  0
LINE
  5
4E
330
2
100
AcDbEntity
  8
PART
100
AcDbLine
 10
6.757017387045536
 20
1.369825309311054
 30
0.0
 11
6.757017387045536
 21
0.1648253093110537
 31
0.0
  0
LINE
  5
4F
330
2
100
AcDbEntity
  8
PART
100
AcDbLine
 10
6.866642374241294
 20
1.156047511789741
 30
0.0
 11
6.866642374241294
 21
0.1648253093110537
 31
0.0
  0
INSERT
  5
50
330
2
100
AcDbEntity
  8
PART
100
AcDbBlockReference
  2
HALFKNRL
 10
5.917017387045532
 20
0.1648253093110554
 30
0.0
 41
-0.48
 42
0.705
 43
0.48
  0
INSERT
  5
51
330
2
100
AcDbEntity
  8
PART
100
AcDbBlockReference
  2
HALFKNRL
 10
6.417017387045533
 20
0.1648253093110554
 30
0.0
 41
0.48
 42
0.705
 43
0.48
  0
LINE
  5
52
330
2
100
AcDbEntity
  8
PART
100
AcDbLine
 10
5.827017387045533
 20
-1.040174690688946
 30
0.0
 11
5.827017387045533
 21
0.1648253093110537
 31
0.0
  0
LINE
  5
53
330
2
100
AcDbEntity
  8
PART
100
AcDbLine
 10
5.887017387045535
 20
-1.040174690688947
 30
0.0
 11
5.887017387045535
 21
0.1648253093110537
 31
0.0
  0
LINE
  5
54
330
2
100
AcDbEntity
  8
PART
100
AcDbLine
 10
5.887017387045535
 20
-1.040174690688946
 30
0.0
 11
5.827017387045533
 21
-1.040174690688946
 31
0.0
  0
LINE
  5
55
330
2
100
AcDbEntity
  8
PART
100
AcDbLine
 10
6.866642374241294
 20
-0.8263968931676339
 30
0.0
 11
6.866642374241294
 21
0.1648253093110537
 31
0.0
  0
LINE
  5
56
330
2
100
AcDbEntity
  8
PART
100
AcDbLine
 10
6.757017387045536
 20
-1.040174690688947
 30
0.0
 11
6.757017387045536
 21
0.1648253093110537
 31
0.0
  0
LINE
  5
57
330
2
100
AcDbEntity
  8
PART
100
AcDbLine
 10
6.817017387045535
 20
0.1648253093110537
 30
0.0
 11
6.817017387045535
 21
-0.8854930784024848
 31
0.0
  0
LINE
  5
58
330
2
100
AcDbEntity
  8
PART
100
AcDbLine
 10
6.447017387045537
 20
-1.040174690688947
 30
0.0
 11
6.447017387045537
 21
0.1648253093110537
 31
0.0
  0
LINE
  5
59
330
2
100
AcDbEntity
  8
PART
100
AcDbLine
 10
6.757017387045536
 20
-1.040174690688947
 30
0.0
 11
6.447017387045537
 21
-1.040174690688947
 31
0.0
  0
LINE
  5
5A
330
2
100
AcDbEntity
  8
PART
100
AcDbLine
 10
6.817017387045535
 20
-0.9534743535808676
 30
0.0
 11
6.817017387045535
 21
-0.9801746906889476
 31
0.0
  0
ARC
  5
5B
330
2
100
AcDbEntity
  8
PART
100
AcDbCircle
 10
6.877017387045533
 20
-0.8854930784024848
 30
0.0
 40
0.06
100
AcDbArc
 50
99.95745613621219
 51
180.0
  0
LINE
  5
5C
330
2
100
AcDbEntity
  8
PART
100
AcDbLine
 10
6.817017387045535
 20
-0.8854930784024848
 30
0.0
 11
6.817017387045535
 21
-0.9534743535808676
 31
0.0
  0
LINE
  5
5D
330
2
100
AcDbEntity
  8
PART
100
AcDbLine
 10
6.417017387045536
 20
1.399825309311054
 30
0.0
 11
5.917017387045532
 21
1.399825309311054
 31
0.0
  0
LINE
  5
5E
330
2
100
AcDbEntity
  8
PART
100
AcDbLine
 10
5.887017387045535
 20
1.369825309311053
 30
0.0
 11
5.827017387045533
 21
1.369825309311053
 31
0.0
  0
LINE
  5
5F
330
2
100
AcDbEntity
  8
PART
100
AcDbLine
 10
5.887017387045535
 20
1.369825309311054
 30
0.0
 11
5.917017387045532
 21
1.399825309311054
 31
0.0
  0
LINE
  5
60
330
2
100
AcDbEntity
  8
PART
 62
     0
100
AcDbLine
 10
5.917017387045532
 20
1.396145652870696
 30
0.0
 11
5.92069704348589
 21
1.399825309311054
 31
0.0
  0
ARC
  5
61
330
2
100
AcDbEntity
  8
PART
100
AcDbCircle
 10
5.827017387045533
 20
1.309825309311055
 30
0.0
 40
0.06
100
AcDbArc
 50
90.00000000000001
 51
180.0
  0
ARC
  5
62
330
2
100
AcDbEntity
  8
PART
100
AcDbCircle
 10
6.757017387045536
 20
1.309825309311055
 30
0.0
 40
0.06
100
AcDbArc
 50
0.0
 51
90.0
  0
LINE
  5
63
330
2
100
AcDbEntity
  8
PART
100
AcDbLine
 10
6.757017387045536
 20
1.369825309311054
 30
0.0
 11
6.447017387045537
 21
1.369825309311054
 31
0.0
  0
LINE
  5
64
330
2
100
AcDbEntity
  8
PART
100
AcDbLine
 10
6.447017387045537
 20
1.369825309311054
 30
0.0
 11
6.417017387045536
 21
1.399825309311054
 31
0.0
  0
LINE
  5
65
330
2
100
AcDbEntity
  8
PART
100
AcDbLine
 10
6.817017387045535
 20
1.215143697024592
 30
0.0
 11
6.817017387045535
 21
1.283124972202974
 31
0.0
  0
ARC
  5
66
330
2
100
AcDbEntity
  8
PART
100
AcDbCircle
 10
6.877017387045533
 20
1.215143697024592
 30
0.0
 40
0.06
100
AcDbArc
 50
180.0
 51
260.0425438637877
  0
LINE
  5
67
330
2
100
AcDbEntity
  8
PART
100
AcDbLine
 10
6.817017387045535
 20
1.283124972202974
 30
0.0
 11
6.817017387045535
 21
1.309825309311055
 31
0.0
  0
LINE
  5
68
330
2
100
AcDbEntity
  8
PART
100
AcDbLine
 10
10.32459098017434
 20
0.8598253093110539
 30
0.0
 11
10.32459098017434
 21
0.1648253093110537
 31
0.0
  0
LINE
  5
69
330
2
100
AcDbEntity
  8
PART
100
AcDbLine
 10
10.34580418360994
 20
0.8686121058754583
 30
0.0
 11
10.34580418360994
 21
0.1648253093110537
 31
0.0
  0
LINE
  5
6A
330
2
100
AcDbEntity
  8
PART
100
AcDbLine
 10
10.38323059048113
 20
0.906038512746651
 30
0.0
 11
10.38323059048113
 21
0.1648253093110537
 31
0.0
  0
LINE
  5
6B
330
2
100
AcDbEntity
  8
PART
100
AcDbLine
 10
10.40444379391673
 20
0.9148253093110545
 30
0.0
 11
10.40444379391673
 21
0.1648253093110537
 31
0.0
  0
LINE
  5
6C
330
2
100
AcDbEntity
  8
PART
100
AcDbLine
 10
10.26701738704553
 20
0.8598253093110539
 30
0.0
 11
10.26701738704553
 21
0.1648253093110537
 31
0.0
  0
LINE
  5
6D
330
2
100
AcDbEntity
  8
PART
100
AcDbLine
 10
10.26701738704553
 20
-0.5301746906889467
 30
0.0
 11
10.26701738704553
 21
0.1648253093110537
 31
0.0
  0
LINE
  5
6E
330
2
100
AcDbEntity
  8
PART
100
AcDbLine
 10
10.40444379391673
 20
-0.5851746906889473
 30
0.0
 11
10.40444379391673
 21
0.1648253093110537
 31
0.0
  0
LINE
  5
6F
330
2
100
AcDbEntity
  8
PART
100
AcDbLine
 10
10.38323059048113
 20
-0.5763878941245438
 30
0.0
 11
10.38323059048113
 21
0.1648253093110537
 31
0.0
  0
LINE
  5
70
330
2
100
AcDbEntity
  8
PART
100
AcDbLine
 10
10.34580418360994
 20
-0.5389614872533511
 30
0.0
 11
10.34580418360994
 21
0.1648253093110537
 31
0.0
  0
LINE
  5
71
330
2
100
AcDbEntity
  8
PART
100
AcDbLine
 10
10.32459098017434
 20
-0.5301746906889467
 30
0.0
 11
10.32459098017434
 21
0.1648253093110537
 31
0.0
  0
ARC
  5
72
330
2
100
AcDbEntity
  8
PART
100
AcDbCircle
 10
10.40444379391673
 20
-0.555174690688947
 30
0.0
 40
0.03
100
AcDbArc
 50
225.0
 51
270.0
  0
ARC
  5
73
330
2
100
AcDbEntity
  8
PART
100
AcDbCircle
 10
10.32459098017434
 20
-0.5601746906889469
 30
0.0
 40
0.03
100
AcDbArc
 50
45.0000000000001
 51
90.00000000000001
  0
LINE
  5
74
330
2
100
AcDbEntity
  8
PART
100
AcDbLine
 10
10.26701738704553
 20
-0.5301746906889467
 30
0.0
 11
10.32459098017434
 21
-0.5301746906889467
 31
0.0
  0
LINE
  5
75
330
2
100
AcDbEntity
  8
PART
100
AcDbLine
 10
10.38323059048113
 20
-0.5763878941245438
 30
0.0
 11
10.34580418360994
 21
-0.5389614872533511
 31
0.0
  0
LINE
  5
76
330
2
100
AcDbEntity
  8
PART
100
AcDbLine
 10
10.38323059048113
 20
0.906038512746651
 30
0.0
 11
10.34580418360994
 21
0.8686121058754583
 31
0.0
  0
LINE
  5
77
330
2
100
AcDbEntity
  8
PART
100
AcDbLine
 10
10.26701738704553
 20
0.8598253093110539
 30
0.0
 11
10.32459098017434
 21
0.8598253093110539
 31
0.0
  0
ARC
  5
78
330
2
100
AcDbEntity
  8
PART
100
AcDbCircle
 10
10.32459098017434
 20
0.8898253093110541
 30
0.0
 40
0.03
100
AcDbArc
 50
270.0
 51
314.9999999999998
  0
ARC
  5
79
330
2
100
AcDbEntity
  8
PART
100
AcDbCircle
 10
10.40444379391673
 20
0.8848253093110542
 30
0.0
 40
0.03
100
AcDbArc
 50
90.00000000000001
 51
134.9999999999999
  0
LINE
  5
7A
330
2
100
AcDbEntity
  8
PART
100
AcDbLine
 10
10.76701738704553
 20
0.1648253093110537
 30
0.0
 11
10.76701738704553
 21
0.8548253093110549
 31
0.0
  0
LINE
  5
7B
330
2
100
AcDbEntity
  8
PART
100
AcDbLine
 10
10.70701738704553
 20
0.9148253093110545
 30
0.0
 11
10.70701738704553
 21
0.1648253093110537
 31
0.0
  0
LINE
  5
7C
330
2
100
AcDbEntity
  8
PART
100
AcDbLine
 10
10.70701738704553
 20
-0.5851746906889473
 30
0.0
 11
10.70701738704553
 21
0.1648253093110537
 31
0.0
  0
LINE
  5
7D
330
2
100
AcDbEntity
  8
PART
100
AcDbLine
 10
10.76701738704553
 20
0.1648253093110537
 30
0.0
 11
10.76701738704553
 21
-0.5251746906889477
 31
0.0
  0
ARC
  5
7E
330
2
100
AcDbEntity
  8
PART
100
AcDbCircle
 10
10.70701738704553
 20
-0.5251746906889477
 30
0.0
 40
0.06
100
AcDbArc
 50
270.0
 51
0.0
  0
ARC
  5
7F
330
2
100
AcDbEntity
  8
PART
100
AcDbCircle
 10
10.70701738704553
 20
0.8548253093110549
 30
0.0
 40
0.06
100
AcDbArc
 50
0.0
 51
90.0
  0
INSERT
  5
23A
330
2
100
AcDbEntity
  8
DIM
100
AcDbBlockReference
 66
     1
  2
TFT_APRLIST
 10
4.0
 20
0.15625
 30
0.0
  0
ATTRIB
  5
23B
330
23A
100
AcDbEntity
  8
DIM
100
AcDbText
 10
5.498750002566998
 20
-3.05069501421848
 30
0.0
 40
0.13
  1
FSS9
  7
SIMPLEX
100
AcDbAttribute
  2
PART_#
 70
     0
280
     0
  0
ATTRIB
  5
23C
330
23A
100
AcDbEntity
  8
DIM
100
AcDbText
 10
5.504683745091821
 20
-3.374880609568119
 30
0.0
 40
0.13
  1
STRAIGHT TIP 1.0 x 1.5 NH
  7
SIMPLEX
100
AcDbAttribute
  2
PART_DESCRIPTION
 70
     0
280
     0
  0
ATTRIB
  5
23D
330
23A
100
AcDbEntity
  8
DIM
100
AcDbText
 10
5.500000001465934
 20
-3.688207553051039
 30
0.0
 40
0.13
  1
NH THREAD
  7
SIMPLEX
100
AcDbAttribute
  2
EXTRA_DESCRIPTION
 70
     0
280
     0
  0
ATTRIB
  5
23E
330
23A
100
AcDbEntity
  8
DIM
100
AcDbText
 10
7.482961310989744
 20
-3.093749998273462
 30
0.0
 40
0.1
  1
1 OF 1
  7
SIMPLEX
 72
     4
 11
7.718750001465934
 21
-3.043749998273462
 31
0.0
100
AcDbAttribute
  2
SHEET
 70
     0
280
     0
  0
ATTRIB
  5
23F
330
23A
100
AcDbEntity
  8
DIM
100
AcDbText
 10
12.370750001651
 20
-3.684819024870303
 30
0.0
 40
0.08
  1
F\FIN & SUB\FSS9
  7
SIMPLEX
100
AcDbAttribute
  2
FILE_NAME
 70
     0
280
     0
  0
ATTRIB
  5
240
330
23A
100
AcDbEntity
  8
DIM
100
AcDbText
 10
12.59375000146593
 20
-2.710993860095429
 30
0.0
 40
0.08
  1
FULL
  7
SIMPLEX
100
AcDbAttribute
  2
SCALE
 70
     0
280
     0
  0
ATTRIB
  5
241
330
23A
100
AcDbEntity
  8
DIM
100
AcDbText
 10
12.13626350973248
 20
-3.053601261515141
 30
0.0
 40
0.08
  1
11/9/99
  7
SIMPLEX
 72
     4
 11
12.38179922401819
 21
-3.019434594848474
 31
0.0
100
AcDbAttribute
  2
DATE
 70
     0
280
     0
  0
ATTRIB
  5
242
330
23A
100
AcDbEntity
  8
DIM
100
AcDbText
 10
12.85446550011022
 20
-3.059434594848474
 30
0.0
 40
0.08
  1
MBJ
  7
SIMPLEX
 72
     4
 11
12.95934645249117
 21
-3.019434594848474
 31
0.0
100
AcDbAttribute
  2
WHO?
 70
     0
280
     0
  0
ATTRIB
  5
243
330
23A
100
AcDbEntity
  8
DIM
100
AcDbText
 10
12.13626350973248
 20
-3.377878476989091
 30
0.0
 40
0.08
  1
11/9/99
  7
SCRIPT
 72
     4
 11
12.38179922401819
 21
-3.343711810322424
 31
0.0
100
AcDbAttribute
  2
DATE
 70
     0
280
     0
  0
ATTRIB
  5
244
330
23A
100
AcDbEntity
  8
DIM
100
AcDbText
 10
12.84696550011024
 20
-3.383711810322424
 30
0.0
 40
0.08
  1
RWS
  7
SCRIPT
 72
     4
 11
12.95934645249119
 21
-3.343711810322424
 31
0.0
100
AcDbAttribute
  2
WHO?
 70
     0
280
     0
  0
ATTRIB
  5
245
330
23A
100
AcDbEntity
  8
DIM
100
AcDbText
 10
13.27764585564324
 20
-3.383711810322424
 30
0.0
 40
0.08
  1
Robert W. Steingass
  7
SCRIPT
 11
13.27764585564324
 21
-3.343711810322424
 31
0.0
100
AcDbAttribute
  2
WHO?
 70
     0
 74
     2
280
     0
  0
SEQEND
  5
246
330
23A
100
AcDbEntity
  8
DIM
  0
INSERT
  5
263
330
2
100
AcDbEntity
  8
DIM
100
AcDbBlockReference
 66
     1
  2
rvsn_blk
 10
13.43411963695524
 20
-2.389434594848474
 30
0.0
  0
ATTRIB
  5
264
330
263
100
AcDbEntity
  8
DIM
100
AcDbText
 10
13.289794358726
 20
-2.345161354560655
 30
1.0
 40
0.07
  1
1
  7
SIMPLEX
100
AcDbAttribute
  2
X
 70
     0
280
     0
  0
ATTRIB
  5
265
330
263
100
AcDbEntity
  8
DIM
100
AcDbText
 10
13.48842614080355
 20
-2.342478259406723
 30
1.0
 40
0.07
  1
11/9/99
  7
SIMPLEX
 72
     1
 11
13.70326989080355
 21
-2.342478259406723
 31
1.0
100
AcDbAttribute
  2
DATE
 70
     0
280
     0
  0
ATTRIB
  5
266
330
263
100
AcDbEntity
  8
DIM
100
AcDbText
 10
14.09895927112132
 20
-2.342478259406723
 30
1.0
 40
0.07
  1
BMH
  7
SIMPLEX
 72
     1
 11
14.19729260445465
 21
-2.342478259406723
 31
1.0
100
AcDbAttribute
  2
XXX
 70
     0
280
     0
  0
SEQEND
  5
267
330
263
100
AcDbEntity
  8
DIM
  0
LINE
  5
3DC
330
2
100
AcDbEntity
  8
CENTER
100
AcDbLine
 10
21.71875
 20
0.1773253093110556
 30
0.0
 11
16.46875
 21
0.1773253093110556
 31
0.0
  0
LINE
  5
3DD
330
2
100
AcDbEntity
  8
PART
100
AcDbLine
 10
21.21694379391673
 20
-0.5726746906889453
 30
0.0
 11
21.51951738704553
 21
-0.5726746906889453
 31
0.0
  0
LINE
  5
3DE
330
2
100
AcDbEntity
  8
PART
100
AcDbLine
 10
21.21694379391673
 20
0.9273253093110565
 30
0.0
 11
21.51951738704553
 21
0.9273253093110565
 31
0.0
  0
LINE
  5
3DF
330
2
100
AcDbEntity
  8
PART
100
AcDbLine
 10
17.25951738704554
 20
-1.027674690688945
 30
0.0
 11
17.22951738704554
 21
-1.057674690688945
 31
0.0
  0
ARC
  5
3E0
330
2
100
AcDbEntity
  8
PART
100
AcDbCircle
 10
17.56951738704554
 20
-0.9676746906889457
 30
0.0
 40
0.06
100
AcDbArc
 50
270.0
 51
0.0
  0
ARC
  5
3E1
330
2
100
AcDbEntity
  8
PART
100
AcDbCircle
 10
16.63951738704553
 20
-0.9676746906889457
 30
0.0
 40
0.06
100
AcDbArc
 50
180.0
 51
270.0
  0
LINE
  5
3E2
330
2
100
AcDbEntity
  8
PART
100
AcDbLine
 10
16.69951738704554
 20
-1.027674690688945
 30
0.0
 11
16.72951738704553
 21
-1.057674690688945
 31
0.0
  0
INSERT
  5
3E3
330
2
100
AcDbEntity
  8
PART
100
AcDbBlockReference
  2
HALFKNRL
 10
17.22951738704553
 20
0.1773253093110538
 30
0.0
 41
-0.48
 42
0.705
 43
0.48
 50
180.0
  0
INSERT
  5
3E4
330
2
100
AcDbEntity
  8
PART
100
AcDbBlockReference
  2
HALFKNRL
 10
16.72951738704553
 20
0.1773253093110538
 30
0.0
 41
0.48
 42
0.705
 43
0.48
 50
180.0
  0
LINE
  5
3E5
330
2
100
AcDbEntity
  8
PART
100
AcDbLine
 10
16.72951738704553
 20
-1.057674690688945
 30
0.0
 11
16.72951738704553
 21
0.1773253093110556
 31
0.0
  0
LINE
  5
3E6
330
2
100
AcDbEntity
  8
PART
100
AcDbLine
 10
17.22951738704554
 20
-1.057674690688945
 30
0.0
 11
17.22951738704554
 21
0.1773253093110556
 31
0.0
  0
LINE
  5
3E7
330
2
100
AcDbEntity
  8
PART
100
AcDbLine
 10
17.22951738704554
 20
-1.057674690688945
 30
0.0
 11
16.72951738704553
 21
-1.057674690688945
 31
0.0
  0
ARC
  5
3E8
330
2
100
AcDbEntity
  8
PART
100
AcDbCircle
 10
21.07951738704554
 20
-20.18246977265624
 30
0.0
 40
19.66479508196729
100
AcDbArc
 50
90.00000000000006
 51
99.95745613621682
  0
ARC
  5
3E9
330
2
100
AcDbEntity
  8
PART
100
AcDbCircle
 10
21.07951738704554
 20
20.53712039127835
 30
0.0
 40
19.66479508196729
100
AcDbArc
 50
260.0425438637832
 51
269.9999999999999
  0
LINE
  5
3EA
330
2
100
AcDbEntity
  8
PART
100
AcDbLine
 10
16.57951738704553
 20
1.322325309311057
 30
0.0
 11
16.57951738704553
 21
-0.9676746906889457
 31
0.0
  0
LINE
  5
3EB
330
2
100
AcDbEntity
  8
PART
100
AcDbLine
 10
17.25951738704554
 20
1.382325309311056
 30
0.0
 11
17.25951738704554
 21
0.1773253093110556
 31
0.0
  0
LINE
  5
3EC
330
2
100
AcDbEntity
  8
PART
100
AcDbLine
 10
17.22951738704554
 20
1.412325309311056
 30
0.0
 11
17.22951738704554
 21
0.1773253093110556
 31
0.0
  0
LINE
  5
3ED
330
2
100
AcDbEntity
  8
PART
100
AcDbLine
 10
16.72951738704553
 20
1.412325309311056
 30
0.0
 11
16.72951738704553
 21
0.1773253093110556
 31
0.0
  0
LINE
  5
3EE
330
2
100
AcDbEntity
  8
PART
100
AcDbLine
 10
16.69951738704554
 20
1.382325309311056
 30
0.0
 11
16.69951738704554
 21
0.1773253093110556
 31
0.0
  0
LINE
  5
3EF
330
2
100
AcDbEntity
  8
PART
100
AcDbLine
 10
16.63951738704553
 20
1.382325309311055
 30
0.0
 11
16.63951738704553
 21
0.1773253093110556
 31
0.0
  0
LINE
  5
3F0
330
2
100
AcDbEntity
  8
PART
100
AcDbLine
 10
17.62951738704554
 20
0.1773253093110556
 30
0.0
 11
17.62951738704554
 21
1.227643697024594
 31
0.0
  0
LINE
  5
3F1
330
2
100
AcDbEntity
  8
PART
100
AcDbLine
 10
17.56951738704554
 20
1.382325309311056
 30
0.0
 11
17.56951738704554
 21
0.1773253093110556
 31
0.0
  0
LINE
  5
3F2
330
2
100
AcDbEntity
  8
PART
100
AcDbLine
 10
17.67914237424129
 20
1.168547511789743
 30
0.0
 11
17.67914237424129
 21
0.1773253093110556
 31
0.0
  0
INSERT
  5
3F3
330
2
100
AcDbEntity
  8
PART
100
AcDbBlockReference
  2
HALFKNRL
 10
16.72951738704553
 20
0.1773253093110574
 30
0.0
 41
-0.48
 42
0.705
 43
0.48
  0
INSERT
  5
3F4
330
2
100
AcDbEntity
  8
PART
100
AcDbBlockReference
  2
HALFKNRL
 10
17.22951738704553
 20
0.1773253093110574
 30
0.0
 41
0.48
 42
0.705
 43
0.48
  0
LINE
  5
3F5
330
2
100
AcDbEntity
  8
PART
100
AcDbLine
 10
16.63951738704553
 20
-1.027674690688944
 30
0.0
 11
16.63951738704553
 21
0.1773253093110556
 31
0.0
  0
LINE
  5
3F6
330
2
100
AcDbEntity
  8
PART
100
AcDbLine
 10
16.69951738704554
 20
-1.027674690688945
 30
0.0
 11
16.69951738704554
 21
0.1773253093110556
 31
0.0
  0
LINE
  5
3F7
330
2
100
AcDbEntity
  8
PART
100
AcDbLine
 10
16.69951738704554
 20
-1.027674690688944
 30
0.0
 11
16.63951738704553
 21
-1.027674690688944
 31
0.0
  0
LINE
  5
3F8
330
2
100
AcDbEntity
  8
PART
100
AcDbLine
 10
17.67914237424129
 20
-0.813896893167632
 30
0.0
 11
17.67914237424129
 21
0.1773253093110556
 31
0.0
  0
LINE
  5
3F9
330
2
100
AcDbEntity
  8
PART
100
AcDbLine
 10
17.56951738704554
 20
-1.027674690688945
 30
0.0
 11
17.56951738704554
 21
0.1773253093110556
 31
0.0
  0
LINE
  5
3FA
330
2
100
AcDbEntity
  8
PART
100
AcDbLine
 10
17.62951738704554
 20
0.1773253093110556
 30
0.0
 11
17.62951738704554
 21
-0.8729930784024829
 31
0.0
  0
LINE
  5
3FB
330
2
100
AcDbEntity
  8
PART
100
AcDbLine
 10
17.25951738704554
 20
-1.027674690688945
 30
0.0
 11
17.25951738704554
 21
0.1773253093110556
 31
0.0
  0
LINE
  5
3FC
330
2
100
AcDbEntity
  8
PART
100
AcDbLine
 10
17.56951738704554
 20
-1.027674690688945
 30
0.0
 11
17.25951738704554
 21
-1.027674690688945
 31
0.0
  0
LINE
  5
3FD
330
2
100
AcDbEntity
  8
PART
100
AcDbLine
 10
17.62951738704554
 20
-0.9409743535808657
 30
0.0
 11
17.62951738704554
 21
-0.9676746906889457
 31
0.0
  0
ARC
  5
3FE
330
2
100
AcDbEntity
  8
PART
100
AcDbCircle
 10
17.68951738704553
 20
-0.8729930784024829
 30
0.0
 40
0.06
100
AcDbArc
 50
99.95745613621175
 51
180.0
  0
LINE
  5
3FF
330
2
100
AcDbEntity
  8
PART
100
AcDbLine
 10
17.62951738704554
 20
-0.8729930784024829
 30
0.0
 11
17.62951738704554
 21
-0.9409743535808657
 31
0.0
  0
LINE
  5
400
330
2
100
AcDbEntity
  8
PART
100
AcDbLine
 10
17.22951738704554
 20
1.412325309311056
 30
0.0
 11
16.72951738704553
 21
1.412325309311056
 31
0.0
  0
LINE
  5
401
330
2
100
AcDbEntity
  8
PART
100
AcDbLine
 10
16.69951738704554
 20
1.382325309311055
 30
0.0
 11
16.63951738704553
 21
1.382325309311055
 31
0.0
  0
LINE
  5
402
330
2
100
AcDbEntity
  8
PART
100
AcDbLine
 10
16.69951738704554
 20
1.382325309311056
 30
0.0
 11
16.72951738704553
 21
1.412325309311056
 31
0.0
  0
LINE
  5
403
330
2
100
AcDbEntity
  8
PART
 62
     0
100
AcDbLine
 10
16.72951738704553
 20
1.408645652870698
 30
0.0
 11
16.73319704348589
 21
1.412325309311056
 31
0.0
  0
ARC
  5
404
330
2
100
AcDbEntity
  8
PART
100
AcDbCircle
 10
16.63951738704553
 20
1.322325309311057
 30
0.0
 40
0.06
100
AcDbArc
 50
90.0
 51
180.0
  0
ARC
  5
405
330
2
100
AcDbEntity
  8
PART
100
AcDbCircle
 10
17.56951738704554
 20
1.322325309311057
 30
0.0
 40
0.06
100
AcDbArc
 50
0.0
 51
90.0
  0
LINE
  5
406
330
2
100
AcDbEntity
  8
PART
100
AcDbLine
 10
17.56951738704554
 20
1.382325309311056
 30
0.0
 11
17.25951738704554
 21
1.382325309311056
 31
0.0
  0
LINE
  5
407
330
2
100
AcDbEntity
  8
PART
100
AcDbLine
 10
17.25951738704554
 20
1.382325309311056
 30
0.0
 11
17.22951738704554
 21
1.412325309311056
 31
0.0
  0
LINE
  5
408
330
2
100
AcDbEntity
  8
PART
100
AcDbLine
 10
17.62951738704554
 20
1.227643697024594
 30
0.0
 11
17.62951738704554
 21
1.295624972202976
 31
0.0
  0
ARC
  5
409
330
2
100
AcDbEntity
  8
PART
100
AcDbCircle
 10
17.68951738704553
 20
1.227643697024594
 30
0.0
 40
0.06
100
AcDbArc
 50
180.0
 51
260.0425438637882
  0
LINE
  5
40A
330
2
100
AcDbEntity
  8
PART
100
AcDbLine
 10
17.62951738704554
 20
1.295624972202976
 30
0.0
 11
17.62951738704554
 21
1.322325309311057
 31
0.0
  0
LINE
  5
40B
330
2
100
AcDbEntity
  8
PART
100
AcDbLine
 10
21.13709098017434
 20
0.8723253093110559
 30
0.0
 11
21.13709098017434
 21
0.1773253093110556
 31
0.0
  0
LINE
  5
40C
330
2
100
AcDbEntity
  8
PART
100
AcDbLine
 10
21.15830418360994
 20
0.8811121058754603
 30
0.0
 11
21.15830418360994
 21
0.1773253093110556
 31
0.0
  0
LINE
  5
40D
330
2
100
AcDbEntity
  8
PART
100
AcDbLine
 10
21.19573059048113
 20
0.918538512746653
 30
0.0
 11
21.19573059048113
 21
0.1773253093110556
 31
0.0
  0
LINE
  5
40E
330
2
100
AcDbEntity
  8
PART
100
AcDbLine
 10
21.21694379391673
 20
0.9273253093110565
 30
0.0
 11
21.21694379391673
 21
0.1773253093110556
 31
0.0
  0
LINE
  5
40F
330
2
100
AcDbEntity
  8
PART
100
AcDbLine
 10
21.07951738704553
 20
0.8723253093110559
 30
0.0
 11
21.07951738704553
 21
0.1773253093110556
 31
0.0
  0
LINE
  5
410
330
2
100
AcDbEntity
  8
PART
100
AcDbLine
 10
21.07951738704553
 20
-0.5176746906889447
 30
0.0
 11
21.07951738704553
 21
0.1773253093110556
 31
0.0
  0
LINE
  5
411
330
2
100
AcDbEntity
  8
PART
100
AcDbLine
 10
21.21694379391673
 20
-0.5726746906889453
 30
0.0
 11
21.21694379391673
 21
0.1773253093110556
 31
0.0
  0
LINE
  5
412
330
2
100
AcDbEntity
  8
PART
100
AcDbLine
 10
21.19573059048113
 20
-0.5638878941245418
 30
0.0
 11
21.19573059048113
 21
0.1773253093110556
 31
0.0
  0
LINE
  5
413
330
2
100
AcDbEntity
  8
PART
100
AcDbLine
 10
21.15830418360994
 20
-0.5264614872533491
 30
0.0
 11
21.15830418360994
 21
0.1773253093110556
 31
0.0
  0
LINE
  5
414
330
2
100
AcDbEntity
  8
PART
100
AcDbLine
 10
21.13709098017434
 20
-0.5176746906889447
 30
0.0
 11
21.13709098017434
 21
0.1773253093110556
 31
0.0
  0
ARC
  5
415
330
2
100
AcDbEntity
  8
PART
100
AcDbCircle
 10
21.21694379391673
 20
-0.542674690688945
 30
0.0
 40
0.03
100
AcDbArc
 50
224.9999999999994
 51
270.0
  0
ARC
  5
416
330
2
100
AcDbEntity
  8
PART
100
AcDbCircle
 10
21.13709098017434
 20
-0.5476746906889449
 30
0.0
 40
0.03
100
AcDbArc
 50
45.0000000000042
 51
90.0
  0
LINE
  5
417
330
2
100
AcDbEntity
  8
PART
100
AcDbLine
 10
21.07951738704553
 20
-0.5176746906889447
 30
0.0
 11
21.13709098017434
 21
-0.5176746906889447
 31
0.0
  0
LINE
  5
418
330
2
100
AcDbEntity
  8
PART
100
AcDbLine
 10
21.19573059048113
 20
-0.5638878941245418
 30
0.0
 11
21.15830418360994
 21
-0.5264614872533491
 31
0.0
  0
LINE
  5
419
330
2
100
AcDbEntity
  8
PART
100
AcDbLine
 10
21.19573059048113
 20
0.918538512746653
 30
0.0
 11
21.15830418360994
 21
0.8811121058754603
 31
0.0
  0
LINE
  5
41A
330
2
100
AcDbEntity
  8
PART
100
AcDbLine
 10
21.07951738704553
 20
0.8723253093110559
 30
0.0
 11
21.13709098017434
 21
0.8723253093110559
 31
0.0
  0
ARC
  5
41B
330
2
100
AcDbEntity
  8
PART
100
AcDbCircle
 10
21.13709098017434
 20
0.9023253093110561
 30
0.0
 40
0.03
100
AcDbArc
 50
270.0
 51
314.9999999999952
  0
ARC
  5
41C
330
2
100
AcDbEntity
  8
PART
100
AcDbCircle
 10
21.21694379391673
 20
0.8973253093110563
 30
0.0
 40
0.03
100
AcDbArc
 50
90.0
 51
135.0000000000012
  0
LINE
  5
41D
330
2
100
AcDbEntity
  8
PART
100
AcDbLine
 10
21.57951738704553
 20
0.1773253093110556
 30
0.0
 11
21.57951738704553
 21
0.8673253093110569
 31
0.0
  0
LINE
  5
41E
330
2
100
AcDbEntity
  8
PART
100
AcDbLine
 10
21.51951738704553
 20
0.9273253093110565
 30
0.0
 11
21.51951738704553
 21
0.1773253093110556
 31
0.0
  0
LINE
  5
41F
330
2
100
AcDbEntity
  8
PART
100
AcDbLine
 10
21.51951738704553
 20
-0.5726746906889453
 30
0.0
 11
21.51951738704553
 21
0.1773253093110556
 31
0.0
  0
LINE
  5
420
330
2
100
AcDbEntity
  8
PART
100
AcDbLine
 10
21.57951738704553
 20
0.1773253093110556
 30
0.0
 11
21.57951738704553
 21
-0.5126746906889457
 31
0.0
  0
ARC
  5
421
330
2
100
AcDbEntity
  8
PART
100
AcDbCircle
 10
21.51951738704553
 20
-0.5126746906889457
 30
0.0
 40
0.06
100
AcDbArc
 50
270.0
 51
0.0
  0
ARC
  5
422
330
2
100
AcDbEntity
  8
PART
100
AcDbCircle
 10
21.51951738704553
 20
0.8673253093110569
 30
0.0
 40
0.06
100
AcDbArc
 50
0.0
 51
90.0
  0
INSERT
  5
423
330
2
100
AcDbEntity
  8
DIM
100
AcDbBlockReference
 66
     1
  2
TFT_APRLIST
 10
14.8125
 20
0.168750000000002
 30
0.0
  0
ATTRIB
  5
424
330
423
100
AcDbEntity
  8
DIM
100
AcDbText
 10
16.311250002567
 20
-3.038195014218478
 30
0.0
 40
0.13
  1
FSS9-IF
  7
SIMPLEX
100
AcDbAttribute
  2
PART_#
 70
     0
280
     0
  0
ATTRIB
  5
425
330
423
100
AcDbEntity
  8
DIM
100
AcDbText
 10
16.31718374509182
 20
-3.362380609568117
 30
0.0
 40
0.13
  1
STRAIGHT TIP 1.0 x 1.5 NPSH
  7
SIMPLEX
100
AcDbAttribute
  2
PART_DESCRIPTION
 70
     0
280
     0
  0
ATTRIB
  5
426
330
423
100
AcDbEntity
  8
DIM
100
AcDbText
 10
16.31250000146593
 20
-3.675707553051037
 30
0.0
 40
0.13
  1
NPSH THREAD
  7
SIMPLEX
100
AcDbAttribute
  2
EXTRA_DESCRIPTION
 70
     0
280
     0
  0
ATTRIB
  5
427
330
423
100
AcDbEntity
  8
DIM
100
AcDbText
 10
18.29546131098974
 20
-3.08124999827346
 30
0.0
 40
0.1
  1
1 OF 1
  7
SIMPLEX
 72
     4
 11
18.53125000146593
 21
-3.03124999827346
 31
0.0
100
AcDbAttribute
  2
SHEET
 70
     0
280
     0
  0
ATTRIB
  5
428
330
423
100
AcDbEntity
  8
DIM
100
AcDbText
 10
23.183250001651
 20
-3.672319024870301
 30
0.0
 40
0.08
  1
F\FIN & SUB\FSS9
  7
SIMPLEX
100
AcDbAttribute
  2
FILE_NAME
 70
     0
280
     0
  0
ATTRIB
  5
429
330
423
100
AcDbEntity
  8
DIM
100
AcDbText
 10
23.40625000146593
 20
-2.698493860095427
 30
0.0
 40
0.08
  1
FULL
  7
SIMPLEX
100
AcDbAttribute
  2
SCALE
 70
     0
280
     0
  0
ATTRIB
  5
42A
330
423
100
AcDbEntity
  8
DIM
100
AcDbText
 10
22.93697779544676
 20
-3.041101261515139
 30
0.0
 40
0.08
  1
2/26/14
  7
SIMPLEX
 72
     4
 11
23.19429922401819
 21
-3.006934594848472
 31
0.0
100
AcDbAttribute
  2
DATE
 70
     0
280
     0
  0
ATTRIB
  5
42B
330
423
100
AcDbEntity
  8
DIM
100
AcDbText
 10
23.6539297858245
 20
-3.046934594848472
 30
0.0
 40
0.08
  1
CPW
  7
SIMPLEX
 72
     4
 11
23.77184645249117
 21
-3.006934594848472
 31
0.0
100
AcDbAttribute
  2
WHO?
 70
     0
280
     0
  0
ATTRIB
  5
42C
330
423
100
AcDbEntity
  8
DIM
100
AcDbText
 10
23.15810874782771
 20
-3.331211810322422
 30
0.0
 40
0.08
  1
 
  7
SCRIPT
 72
     4
 11
23.19429922401819
 21
-3.331211810322422
 31
0.0
100
AcDbAttribute
  2
DATE
 70
     0
280
     0
  0
ATTRIB
  5
42D
330
423
100
AcDbEntity
  8
DIM
100
AcDbText
 10
23.73565597630071
 20
-3.331211810322422
 30
0.0
 40
0.08
  1
 
  7
SCRIPT
 72
     4
 11
23.77184645249119
 21
-3.331211810322422
 31
0.0
100
AcDbAttribute
  2
WHO?
 70
     0
280
     0
  0
ATTRIB
  5
42E
330
423
100
AcDbEntity
  8
DIM
100
AcDbText
 10
24.09014585564324
 20
-3.371211810322422
 30
0.0
 40
0.08
  1
Robert W. Steingass
  7
SCRIPT
 11
24.09014585564324
 21
-3.331211810322422
 31
0.0
100
AcDbAttribute
  2
WHO?
 70
     0
 74
     2
280
     0
  0
SEQEND
  5
42F
330
423
100
AcDbEntity
  8
DIM
  0
LINE
  5
43B
330
2
100
AcDbEntity
  8
DIM
100
AcDbLine
 10
16.57951738704553
 20
1.422325309311057
 30
0.0
 11
16.57951738704553
 21
2.15675
 31
0.0
  0
LINE
  5
43C
330
2
100
AcDbEntity
  8
DIM
100
AcDbLine
 10
21.57951738704553
 20
0.9673253093110569
 30
0.0
 11
21.57951738704553
 21
2.15675
 31
0.0
  0
LINE
  5
43D
330
2
100
AcDbEntity
  8
DIM
100
AcDbLine
 10
16.67951738704554
 20
2.09375
 30
0.0
 11
18.78951738704554
 21
2.09375
 31
0.0
  0
LINE
  5
43E
330
2
100
AcDbEntity
  8
DIM
100
AcDbLine
 10
21.47951738704553
 20
2.09375
 30
0.0
 11
19.36951738704553
 21
2.09375
 31
0.0
  0
SOLID
  5
43F
330
2
100
AcDbEntity
  8
DIM
100
AcDbTrace
 10
16.67951738704554
 20
2.110416666666667
 30
0.0
 11
16.67951738704554
 21
2.077083333333333
 31
0.0
 12
16.57951738704553
 22
2.09375
 32
0.0
 13
16.57951738704553
 23
2.09375
 33
0.0
  0
SOLID
  5
440
330
2
100
AcDbEntity
  8
DIM
100
AcDbTrace
 10
21.47951738704553
 20
2.077083333333333
 30
0.0
 11
21.47951738704553
 21
2.110416666666667
 31
0.0
 12
21.57951738704553
 22
2.09375
 32
0.0
 13
21.57951738704553
 23
2.09375
 33
0.0
  0
MTEXT
  5
441
330
2
100
AcDbEntity
  8
DIM
100
AcDbMText
 10
19.07951738704553
 20
2.09375
 30
0.0
 40
0.1
 41
0.0
 46
0.0
 71
     5
 72
     1
  1
{\A1;5.0 REF}
 73
     1
 44
1.0
  0
LINE
  5
442
330
2
100
AcDbEntity
  8
DIM
100
AcDbLine
 10
16.62953427431999
 20
1.413050760127574
 30
0.0
 11
15.7495
 21
1.413050760127574
 31
0.0
  0
LINE
  5
443
330
2
100
AcDbEntity
  8
DIM
100
AcDbLine
 10
16.63198539934178
 20
-1.057674690688945
 30
0.0
 11
15.7495
 21
-1.057674690688945
 31
0.0
  0
LINE
  5
444
330
2
100
AcDbEntity
  8
DIM
100
AcDbLine
 10
15.8125
 20
1.313050760127574
 30
0.0
 11
15.8125
 21
0.53125
 31
0.0
  0
LINE
  5
445
330
2
100
AcDbEntity
  8
DIM
100
AcDbLine
 10
15.8125
 20
-0.9576746906889452
 30
0.0
 11
15.8125
 21
-0.1875
 31
0.0
  0
SOLID
  5
446
330
2
100
AcDbEntity
  8
DIM
100
AcDbTrace
 10
15.82916666666667
 20
1.313050760127574
 30
0.0
 11
15.79583333333333
 21
1.313050760127574
 31
0.0
 12
15.8125
 22
1.413050760127574
 32
0.0
 13
15.8125
 23
1.413050760127574
 33
0.0
  0
SOLID
  5
447
330
2
100
AcDbEntity
  8
DIM
100
AcDbTrace
 10
15.79583333333333
 20
-0.9576746906889452
 30
0.0
 11
15.82916666666667
 21
-0.9576746906889452
 31
0.0
 12
15.8125
 22
-1.057674690688945
 32
0.0
 13
15.8125
 23
-1.057674690688945
 33
0.0
  0
MTEXT
  5
448
330
2
100
AcDbEntity
  8
DIM
100
AcDbMText
 10
15.8125
 20
0.1776880347193144
 30
0.0
 40
0.1
 41
0.0
 46
0.0
 71
     5
 72
     1
  1
{\A1;2.5 REF}
 11
0.0
 21
1.0
 31
0.0
 73
     1
 44
1.0
  0
ENDSEC
  0
SECTION
  2
OBJECTS
  0
DICTIONARY
  5
1A
330
0
100
AcDbDictionary
281
     1
  3
ACAD_COLOR
350
270
  3
ACAD_GROUP
350
18
  3
ACAD_IMAGE_VARS
350
2B4
  3
ACAD_LAYOUT
350
253
  3
ACAD_MATERIAL
350
26F
  3
ACAD_MLEADERSTYLE
350
2C7
  3
ACAD_MLINESTYLE
350
19
  3
ACAD_PLOTSETTINGS
350
252
  3
ACAD_PLOTSTYLENAME
350
250
  3
ACAD_SCALELIST
350
27D
  3
ACAD_TABLESTYLE
350
271
  3
ACAD_VISUALSTYLE
350
2A2
  3
ACDB_RECOMPOSE_DATA
350
454
  3
AcDbVariableDictionary
350
27A
  3
APPDATA
350
2B3
  3
ASE_INDEX_DICTIONARY
350
277
  0
DICTIONARY
  5
270
102
{ACAD_REACTORS
330
1A
102
}
330
1A
100
AcDbDictionary
281
     1
  0
DICTIONARY
  5
18
102
{ACAD_REACTORS
330
1A
102
}
330
1A
100
AcDbDictionary
281
     1
  0
RASTERVARIABLES
  5
2B4
102
{ACAD_REACTORS
330
1A
102
}
330
1A
100
AcDbRasterVariables
 90
        0
 70
     1
 71
     1
 72
     0
  0
DICTIONARY
  5
253
102
{ACAD_REACTORS
330
1A
102
}
330
1A
100
AcDbDictionary
281
     1
  3
Layout1
350
255
  3
Model
350
254
  0
DICTIONARY
  5
26F
102
{ACAD_REACTORS
330
1A
102
}
330
1A
100
AcDbDictionary
281
     1
  3
ByBlock
350
2A0
  3
ByLayer
350
29F
  3
Global
350
2A1
  0
DICTIONARY
  5
2C7
102
{ACAD_REACTORS
330
1A
102
}
330
1A
100
AcDbDictionary
281
     1
  0
DICTIONARY
  5
19
102
{ACAD_REACTORS
330
1A
102
}
330
1A
100
AcDbDictionary
281
     1
  3
STANDARD
350
1C
  0
DICTIONARY
  5
252
102
{ACAD_REACTORS
330
1A
102
}
330
1A
100
AcDbDictionary
281
     1
  0
ACDBDICTIONARYWDFLT
  5
250
102
{ACAD_REACTORS
330
1A
102
}
330
1A
100
AcDbDictionary
281
     1
  3
Normal
350
251
100
AcDbDictionaryWithDefault
340
251
  0
DICTIONARY
  5
27D
102
{ACAD_REACTORS
330
1A
102
}
330
1A
100
AcDbDictionary
281
     1
  3
A0
350
27E
  3
A1
350
27F
  3
A2
350
280
  3
A3
350
281
  3
A4
350
282
  3
A5
350
283
  3
A6
350
284
  3
A7
350
285
  3
A8
350
286
  3
A9
350
287
  3
B0
350
288
  3
B1
350
289
  3
B2
350
28A
  3
B3
350
28B
  3
B4
350
28C
  3
B5
350
28D
  3
B6
350
28E
  3
B7
350
28F
  3
B8
350
290
  3
B9
350
291
  3
C0
350
292
  3
C1
350
293
  3
C2
350
294
  3
C3
350
295
  3
C4
350
296
  3
C5
350
297
  3
C6
350
298
  3
C7
350
299
  3
C8
350
29A
  3
C9
350
29B
  3
D0
350
29C
  3
D1
350
29D
  3
D2
350
29E
  0
DICTIONARY
  5
271
102
{ACAD_REACTORS
330
1A
102
}
330
1A
100
AcDbDictionary
281
     1
  3
Standard
350
272
  0
DICTIONARY
  5
2A2
102
{ACAD_REACTORS
330
1A
102
}
330
1A
100
AcDbDictionary
281
     1
  3
2dWireframe
350
2A7
  3
3D Hidden
350
2A9
  3
3dWireframe
350
2A8
  3
Basic
350
2AA
  3
Brighten
350
2AE
  3
ColorChange
350
2B2
  3
Conceptual
350
2AC
  3
Dim
350
2AD
  3
Facepattern
350
2B1
  3
Flat
350
2A3
  3
FlatWithEdges
350
2A4
  3
Gouraud
350
2A5
  3
GouraudWithEdges
350
2A6
  3
Linepattern
350
2B0
  3
Realistic
350
2AB
  3
Thicken
350
2AF
  0
XRECORD
  5
454
102
{ACAD_REACTORS
330
1A
102
}
330
1A
100
AcDbXrecord
280
     1
 90
        1
330
272
  0
DICTIONARY
  5
27A
102
{ACAD_REACTORS
330
1A
102
}
330
1A
100
AcDbDictionary
281
     1
  3
CANNOSCALE
350
435
  3
CTABLESTYLE
350
27B
  3
XCLIPFRAME
350
439
  0
DICTIONARY
  5
2B3
102
{ACAD_REACTORS
330
1A
102
}
330
1A
100
AcDbDictionary
281
     1
  0
DICTIONARY
  5
277
102
{ACAD_REACTORS
330
1A
102
}
330
1A
100
AcDbDictionary
281
     1
  3
ASEBlockHierarchyIndexRecord
350
279
1001
DCO15
1040
1511683847.084
  0
LAYOUT
  5
255
102
{ACAD_REACTORS
330
253
102
}
330
253
100
AcDbPlotSettings
  1

  2

  4

  6

 40
0.0
 41
0.0
 42
0.0
 43
0.0
 44
0.0
 45
0.0
 46
0.0
 47
0.0
 48
0.0
 49
0.0
140
0.0
141
0.0
142
1.0
143
1.0
 70
   688
 72
     0
 73
     0
 74
     5
  7
monochrome.ctb
 75
    16
 76
     0
 77
     2
 78
   300
147
1.0
148
0.0
149
0.0
100
AcDbLayout
  1
Layout1
 70
     0
 71
     1
 10
0.0
 20
0.0
 11
12.0
 21
9.0
 12
0.0
 22
0.0
 32
0.0
 14
1.000000000000000E+20
 24
1.000000000000000E+20
 34
1.000000000000000E+20
 15
-1.000000000000000E+20
 25
-1.000000000000000E+20
 35
-1.000000000000000E+20
146
0.0
 13
0.0
 23
0.0
 33
0.0
 16
1.0
 26
0.0
 36
0.0
 17
0.0
 27
1.0
 37
0.0
 76
     0
330
7
  0
LAYOUT
  5
254
102
{ACAD_REACTORS
330
253
102
}
330
253
100
AcDbPlotSettings
  1

  2
none_device
  4
ANSI_A_(11.00_x_8.50_Inches)
  6

 40
6.35
 41
19.05
 42
6.35
 43
19.05
 44
279.4
 45
215.9
 46
15.75443037974688
 47
0.0000000000000142
 48
4.0
 49
-3.793750000000002
140
14.45
141
4.106249999999999
142
1.0
143
1.128571428571429
 70
 11956
 72
     0
 73
     0
 74
     4
  7
monochrome.ctb
 75
     0
 76
     0
 77
     2
 78
   300
147
0.8860759493670882
148
-609.3616968973623
149
90.8039604346008
100
AcDbLayout
  1
Model
 70
     1
 71
     0
 10
0.0
 20
0.0
 11
12.0
 21
9.0
 12
0.0
 22
0.0
 32
0.0
 14
4.0
 24
-3.793750000000002
 34
0.0
 15
25.31276490326229
 25
4.11875
 35
1.0
146
0.0
 13
0.0
 23
0.0
 33
0.0
 16
1.0
 26
0.0
 36
0.0
 17
0.0
 27
1.0
 37
0.0
 76
     0
330
2
331
27C
  0
MATERIAL
  5
2A0
102
{ACAD_REACTORS
330
26F
102
}
330
26F
100
AcDbMaterial
  1
ByBlock
 72
     1
 94
      127
  0
MATERIAL
  5
29F
102
{ACAD_REACTORS
330
26F
102
}
330
26F
100
AcDbMaterial
  1
ByLayer
 72
     1
 94
      127
  0
MATERIAL
  5
2A1
102
{ACAD_REACTORS
330
26F
102
}
330
26F
100
AcDbMaterial
  1
Global
 72
     1
 94
      127
  0
MLINESTYLE
  5
1C
102
{ACAD_REACTORS
330
19
102
}
330
19
100
AcDbMlineStyle
  2
STANDARD
 70
     0
  3

 62
     0
 51
90.0
 52
90.0
 71
     2
 49
0.5
 62
   256
  6
BYLAYER
 49
-0.5
 62
   256
  6
BYLAYER
  0
ACDBPLACEHOLDER
  5
251
102
{ACAD_REACTORS
330
250
102
}
330
250
  0
SCALE
  5
27E
102
{ACAD_REACTORS
330
27D
102
}
330
27D
100
AcDbScale
 70
     0
300
1:1
140
1.0
141
1.0
290
     1
  0
SCALE
  5
27F
102
{ACAD_REACTORS
330
27D
102
}
330
27D
100
AcDbScale
 70
     0
300
1:2
140
1.0
141
2.0
290
     0
  0
SCALE
  5
280
102
{ACAD_REACTORS
330
27D
102
}
330
27D
100
AcDbScale
 70
     0
300
1:4
140
1.0
141
4.0
290
     0
  0
SCALE
  5
281
102
{ACAD_REACTORS
330
27D
102
}
330
27D
100
AcDbScale
 70
     0
300
1:5
140
1.0
141
5.0
290
     0
  0
SCALE
  5
282
102
{ACAD_REACTORS
330
27D
102
}
330
27D
100
AcDbScale
 70
     0
300
1:8
140
1.0
141
8.0
290
     0
  0
SCALE
  5
283
102
{ACAD_REACTORS
330
27D
102
}
330
27D
100
AcDbScale
 70
     0
300
1:10
140
1.0
141
10.0
290
     0
  0
SCALE
  5
284
102
{ACAD_REACTORS
330
27D
102
}
330
27D
100
AcDbScale
 70
     0
300
1:16
140
1.0
141
16.0
290
     0
  0
SCALE
  5
285
102
{ACAD_REACTORS
330
27D
102
}
330
27D
100
AcDbScale
 70
     0
300
1:20
140
1.0
141
20.0
290
     0
  0
SCALE
  5
286
102
{ACAD_REACTORS
330
27D
102
}
330
27D
100
AcDbScale
 70
     0
300
1:30
140
1.0
141
30.0
290
     0
  0
SCALE
  5
287
102
{ACAD_REACTORS
330
27D
102
}
330
27D
100
AcDbScale
 70
     0
300
1:40
140
1.0
141
40.0
290
     0
  0
SCALE
  5
288
102
{ACAD_REACTORS
330
27D
102
}
330
27D
100
AcDbScale
 70
     0
300
1:50
140
1.0
141
50.0
290
     0
  0
SCALE
  5
289
102
{ACAD_REACTORS
330
27D
102
}
330
27D
100
AcDbScale
 70
     0
300
1:100
140
1.0
141
100.0
290
     0
  0
SCALE
  5
28A
102
{ACAD_REACTORS
330
27D
102
}
330
27D
100
AcDbScale
 70
     0
300
2:1
140
2.0
141
1.0
290
     0
  0
SCALE
  5
28B
102
{ACAD_REACTORS
330
27D
102
}
330
27D
100
AcDbScale
 70
     0
300
4:1
140
4.0
141
1.0
290
     0
  0
SCALE
  5
28C
102
{ACAD_REACTORS
330
27D
102
}
330
27D
100
AcDbScale
 70
     0
300
8:1
140
8.0
141
1.0
290
     0
  0
SCALE
  5
28D
102
{ACAD_REACTORS
330
27D
102
}
330
27D
100
AcDbScale
 70
     0
300
10:1
140
10.0
141
1.0
290
     0
  0
SCALE
  5
28E
102
{ACAD_REACTORS
330
27D
102
}
330
27D
100
AcDbScale
 70
     0
300
100:1
140
100.0
141
1.0
290
     0
  0
SCALE
  5
28F
102
{ACAD_REACTORS
330
27D
102
}
330
27D
100
AcDbScale
 70
     0
300
1/128" = 1'-0"
140
0.0078125
141
12.0
290
     0
  0
SCALE
  5
290
102
{ACAD_REACTORS
330
27D
102
}
330
27D
100
AcDbScale
 70
     0
300
1/64" = 1'-0"
140
0.015625
141
12.0
290
     0
  0
SCALE
  5
291
102
{ACAD_REACTORS
330
27D
102
}
330
27D
100
AcDbScale
 70
     0
300
1/32" = 1'-0"
140
0.03125
141
12.0
290
     0
  0
SCALE
  5
292
102
{ACAD_REACTORS
330
27D
102
}
330
27D
100
AcDbScale
 70
     0
300
1/16" = 1'-0"
140
0.0625
141
12.0
290
     0
  0
SCALE
  5
293
102
{ACAD_REACTORS
330
27D
102
}
330
27D
100
AcDbScale
 70
     0
300
3/32" = 1'-0"
140
0.09375
141
12.0
290
     0
  0
SCALE
  5
294
102
{ACAD_REACTORS
330
27D
102
}
330
27D
100
AcDbScale
 70
     0
300
1/8" = 1'-0"
140
0.125
141
12.0
290
     0
  0
SCALE
  5
295
102
{ACAD_REACTORS
330
27D
102
}
330
27D
100
AcDbScale
 70
     0
300
3/16" = 1'-0"
140
0.1875
141
12.0
290
     0
  0
SCALE
  5
296
102
{ACAD_REACTORS
330
27D
102
}
330
27D
100
AcDbScale
 70
     0
300
1/4" = 1'-0"
140
0.25
141
12.0
290
     0
  0
SCALE
  5
297
102
{ACAD_REACTORS
330
27D
102
}
330
27D
100
AcDbScale
 70
     0
300
3/8" = 1'-0"
140
0.375
141
12.0
290
     0
  0
SCALE
  5
298
102
{ACAD_REACTORS
330
27D
102
}
330
27D
100
AcDbScale
 70
     0
300
1/2" = 1'-0"
140
0.5
141
12.0
290
     0
  0
SCALE
  5
299
102
{ACAD_REACTORS
330
27D
102
}
330
27D
100
AcDbScale
 70
     0
300
3/4" = 1'-0"
140
0.75
141
12.0
290
     0
  0
SCALE
  5
29A
102
{ACAD_REACTORS
330
27D
102
}
330
27D
100
AcDbScale
 70
     0
300
1" = 1'-0"
140
1.0
141
12.0
290
     0
  0
SCALE
  5
29B
102
{ACAD_REACTORS
330
27D
102
}
330
27D
100
AcDbScale
 70
     0
300
1-1/2" = 1'-0"
140
1.5
141
12.0
290
     0
  0
SCALE
  5
29C
102
{ACAD_REACTORS
330
27D
102
}
330
27D
100
AcDbScale
 70
     0
300
3" = 1'-0"
140
3.0
141
12.0
290
     0
  0
SCALE
  5
29D
102
{ACAD_REACTORS
330
27D
102
}
330
27D
100
AcDbScale
 70
     0
300
6" = 1'-0"
140
6.0
141
12.0
290
     0
  0
SCALE
  5
29E
102
{ACAD_REACTORS
330
27D
102
}
330
27D
100
AcDbScale
 70
     0
300
1'-0" = 1'-0"
140
12.0
141
12.0
290
     0
  0
TABLESTYLE
  5
272
102
{ACAD_REACTORS
330
271
102
}
102
{ACAD_XDICTIONARY
360
452
102
}
330
271
100
AcDbTableStyle
  3
Standard
 70
     0
 71
     0
 40
0.06
 41
0.06
280
     0
281
     0
  7
STANDARD
140
0.18
170
     2
 62
     0
 63
   257
283
     0
 90
        4
 91
        0
  1

274
    -2
284
     1
 64
     0
275
    -2
285
     1
 65
     0
276
    -2
286
     1
 66
     0
277
    -2
287
     1
 67
     0
278
    -2
288
     1
 68
     0
279
    -2
289
     1
 69
     0
  7
STANDARD
140
0.25
170
     5
 62
     0
 63
   257
283
     0
 90
        4
 91
        0
  1

274
    -2
284
     1
 64
     0
275
    -2
285
     1
 65
     0
276
    -2
286
     1
 66
     0
277
    -2
287
     1
 67
     0
278
    -2
288
     1
 68
     0
279
    -2
289
     1
 69
     0
  7
STANDARD
140
0.18
170
     5
 62
     0
 63
   257
283
     0
 90
        4
 91
        0
  1

274
    -2
284
     1
 64
     0
275
    -2
285
     1
 65
     0
276
    -2
286
     1
 66
     0
277
    -2
287
     1
 67
     0
278
    -2
288
     1
 68
     0
279
    -2
289
     1
 69
     0
  0
VISUALSTYLE
  5
2A7
102
{ACAD_REACTORS
330
2A2
102
}
330
2A2
100
AcDbVisualStyle
  2
2dWireframe
 70
     4
177
     2
291
     0
 71
     0
176
     1
 72
     2
176
     1
 73
     0
176
     1
 90
        0
176
     1
 40
-0.6
176
     1
 41
-30.0
176
     1
 62
     5
 63
     7
421
 16777215
176
     1
 74
     1
176
     1
 91
        4
176
     1
 64
     7
176
     1
 65
   257
176
     1
 75
     1
176
     1
175
     1
176
     1
 42
1.0
176
     1
 92
        0
176
     1
 66
   257
176
     1
 43
1.0
176
     1
 76
     1
176
     1
 77
     6
176
     1
 78
     2
176
     1
 67
     7
176
     1
 79
     5
176
     1
170
     0
176
     1
171
     0
176
     1
290
     0
176
     1
 93
        1
176
     1
 44
0.0
176
     1
173
     0
176
     1
  0
VISUALSTYLE
  5
2A9
102
{ACAD_REACTORS
330
2A2
102
}
330
2A2
100
AcDbVisualStyle
  2
3D Hidden
 70
     6
177
     2
291
     0
 71
     1
176
     1
 72
     2
176
     1
 73
     2
176
     1
 90
        0
176
     1
 40
-0.6
176
     1
 41
-30.0
176
     1
 62
     5
 63
     7
421
 16777215
176
     1
 74
     2
176
     1
 91
        2
176
     1
 64
     7
176
     1
 65
   257
176
     1
 75
     2
176
     1
175
     1
176
     1
 42
40.0
176
     1
 92
        0
176
     1
 66
   257
176
     1
 43
1.0
176
     1
 76
     1
176
     1
 77
     6
176
     1
 78
     2
176
     1
 67
     7
176
     1
 79
     3
176
     1
170
     0
176
     1
171
     0
176
     1
290
     0
176
     1
 93
        1
176
     1
 44
0.0
176
     1
173
     0
176
     1
  0
VISUALSTYLE
  5
2A8
102
{ACAD_REACTORS
330
2A2
102
}
330
2A2
100
AcDbVisualStyle
  2
3dWireframe
 70
     5
177
     2
291
     0
 71
     0
176
     1
 72
     2
176
     1
 73
     0
176
     1
 90
        0
176
     1
 40
-0.6
176
     1
 41
-30.0
176
     1
 62
     5
 63
     7
421
 16777215
176
     1
 74
     1
176
     1
 91
        4
176
     1
 64
     7
176
     1
 65
   257
176
     1
 75
     1
176
     1
175
     1
176
     1
 42
1.0
176
     1
 92
        0
176
     1
 66
   257
176
     1
 43
1.0
176
     1
 76
     1
176
     1
 77
     6
176
     1
 78
     2
176
     1
 67
     7
176
     1
 79
     5
176
     1
170
     0
176
     1
171
     0
176
     1
290
     0
176
     1
 93
        1
176
     1
 44
0.0
176
     1
173
     0
176
     1
  0
VISUALSTYLE
  5
2AA
102
{ACAD_REACTORS
330
2A2
102
}
330
2A2
100
AcDbVisualStyle
  2
Basic
 70
     7
177
     2
291
     1
 71
     1
176
     1
 72
     0
176
     1
 73
     1
176
     1
 90
        0
176
     1
 40
-0.6
176
     1
 41
-30.0
176
     1
 62
     5
 63
     7
421
 16777215
176
     1
 74
     0
176
     1
 91
        4
176
     1
 64
     7
176
     1
 65
   257
176
     1
 75
     1
176
     1
175
     1
176
     1
 42
1.0
176
     1
 92
        8
176
     1
 66
     7
176
     1
 43
1.0
176
     1
 76
     1
176
     1
 77
     6
176
     1
 78
     2
176
     1
 67
     7
176
     1
 79
     5
176
     1
170
     0
176
     1
171
     0
176
     1
290
     0
176
     1
 93
        1
176
     1
 44
0.0
176
     1
173
     0
176
     1
  0
VISUALSTYLE
  5
2AE
102
{ACAD_REACTORS
330
2A2
102
}
330
2A2
100
AcDbVisualStyle
  2
Brighten
 70
    12
177
     2
291
     1
 71
     2
176
     1
 72
     2
176
     1
 73
     0
176
     1
 90
        0
176
     1
 40
-0.6
176
     1
 41
-30.0
176
     1
 62
     5
 63
     7
421
 16777215
176
     1
 74
     1
176
     1
 91
        4
176
     1
 64
     7
176
     1
 65
   257
176
     1
 75
     1
176
     1
175
     1
176
     1
 42
1.0
176
     1
 92
        8
176
     1
 66
     7
176
     1
 43
1.0
176
     1
 76
     1
176
     1
 77
     6
176
     1
 78
     2
176
     1
 67
     7
176
     1
 79
     5
176
     1
170
     0
176
     1
171
     0
176
     1
290
     0
176
     1
 93
        1
176
     1
 44
50.0
176
     1
173
     0
176
     1
  0
VISUALSTYLE
  5
2B2
102
{ACAD_REACTORS
330
2A2
102
}
330
2A2
100
AcDbVisualStyle
  2
ColorChange
 70
    16
177
     2
291
     1
 71
     2
176
     1
 72
     2
176
     1
 73
     3
176
     1
 90
        0
176
     1
 40
-0.6
176
     1
 41
-30.0
176
     1
 62
     5
 63
     8
421
  8421504
176
     1
 74
     1
176
     1
 91
        4
176
     1
 64
     7
176
     1
 65
   257
176
     1
 75
     1
176
     1
175
     1
176
     1
 42
1.0
176
     1
 92
        8
176
     1
 66
     8
424
  8421504
176
     1
 43
1.0
176
     1
 76
     1
176
     1
 77
     6
176
     1
 78
     2
176
     1
 67
     7
176
     1
 79
     5
176
     1
170
     0
176
     1
171
     0
176
     1
290
     0
176
     1
 93
        1
176
     1
 44
0.0
176
     1
173
     0
176
     1
  0
VISUALSTYLE
  5
2AC
102
{ACAD_REACTORS
330
2A2
102
}
330
2A2
100
AcDbVisualStyle
  2
Conceptual
 70
     9
177
     2
291
     0
 71
     3
176
     1
 72
     2
176
     1
 73
     0
176
     1
 90
        0
176
     1
 40
-0.6
176
     1
 41
-30.0
176
     1
 62
     5
 63
     7
421
 16777215
176
     1
 74
     2
176
     1
 91
        2
176
     1
 64
     7
176
     1
 65
   257
176
     1
 75
     1
176
     1
175
     1
176
     1
 42
40.0
176
     1
 92
        8
176
     1
 66
     7
176
     1
 43
1.0
176
     1
 76
     1
176
     1
 77
     6
176
     1
 78
     2
176
     1
 67
     7
176
     1
 79
     3
176
     1
170
     0
176
     1
171
     0
176
     1
290
     0
176
     1
 93
        1
176
     1
 44
0.0
176
     1
173
     0
176
     1
  0
VISUALSTYLE
  5
2AD
102
{ACAD_REACTORS
330
2A2
102
}
330
2A2
100
AcDbVisualStyle
  2
Dim
 70
    11
177
     2
291
     1
 71
     2
176
     1
 72
     2
176
     1
 73
     0
176
     1
 90
        0
176
     1
 40
-0.6
176
     1
 41
-30.0
176
     1
 62
     5
 63
     7
421
 16777215
176
     1
 74
     1
176
     1
 91
        4
176
     1
 64
     7
176
     1
 65
   257
176
     1
 75
     1
176
     1
175
     1
176
     1
 42
1.0
176
     1
 92
        8
176
     1
 66
     7
176
     1
 43
1.0
176
     1
 76
     1
176
     1
 77
     6
176
     1
 78
     2
176
     1
 67
     7
176
     1
 79
     5
176
     1
170
     0
176
     1
171
     0
176
     1
290
     0
176
     1
 93
        1
176
     1
 44
-50.0
176
     1
173
     0
176
     1
  0
VISUALSTYLE
  5
2B1
102
{ACAD_REACTORS
330
2A2
102
}
330
2A2
100
AcDbVisualStyle
  2
Facepattern
 70
    15
177
     2
291
     1
 71
     2
176
     1
 72
     2
176
     1
 73
     0
176
     1
 90
        0
176
     1
 40
-0.6
176
     1
 41
-30.0
176
     1
 62
     5
 63
     7
421
 16777215
176
     1
 74
     1
176
     1
 91
        4
176
     1
 64
     7
176
     1
 65
   257
176
     1
 75
     1
176
     1
175
     1
176
     1
 42
1.0
176
     1
 92
        8
176
     1
 66
     7
176
     1
 43
1.0
176
     1
 76
     1
176
     1
 77
     6
176
     1
 78
     2
176
     1
 67
     7
176
     1
 79
     5
176
     1
170
     0
176
     1
171
     0
176
     1
290
     0
176
     1
 93
        1
176
     1
 44
0.0
176
     1
173
     0
176
     1
  0
VISUALSTYLE
  5
2A3
102
{ACAD_REACTORS
330
2A2
102
}
330
2A2
100
AcDbVisualStyle
  2
Flat
 70
     0
177
     2
291
     1
 71
     2
176
     1
 72
     1
176
     1
 73
     1
176
     1
 90
        2
176
     1
 40
-0.6
176
     1
 41
30.0
176
     1
 62
     5
 63
     7
421
 16777215
176
     1
 74
     0
176
     1
 91
        4
176
     1
 64
     7
176
     1
 65
   257
176
     1
 75
     1
176
     1
175
     1
176
     1
 42
1.0
176
     1
 92
        8
176
     1
 66
     7
176
     1
 43
1.0
176
     1
 76
     1
176
     1
 77
     6
176
     1
 78
     2
176
     1
 67
     7
176
     1
 79
     5
176
     1
170
     0
176
     1
171
     0
176
     1
290
     0
176
     1
 93
       13
176
     1
 44
0.0
176
     1
173
     0
176
     1
  0
VISUALSTYLE
  5
2A4
102
{ACAD_REACTORS
330
2A2
102
}
330
2A2
100
AcDbVisualStyle
  2
FlatWithEdges
 70
     1
177
     2
291
     1
 71
     2
176
     1
 72
     1
176
     1
 73
     1
176
     1
 90
        2
176
     1
 40
-0.6
176
     1
 41
30.0
176
     1
 62
     5
 63
     7
421
 16777215
176
     1
 74
     1
176
     1
 91
        4
176
     1
 64
     7
176
     1
 65
   257
176
     1
 75
     1
176
     1
175
     1
176
     1
 42
1.0
176
     1
 92
        0
176
     1
 66
   257
176
     1
 43
1.0
176
     1
 76
     1
176
     1
 77
     6
176
     1
 78
     2
176
     1
 67
     7
176
     1
 79
     5
176
     1
170
     0
176
     1
171
     0
176
     1
290
     0
176
     1
 93
       13
176
     1
 44
0.0
176
     1
173
     0
176
     1
  0
VISUALSTYLE
  5
2A5
102
{ACAD_REACTORS
330
2A2
102
}
330
2A2
100
AcDbVisualStyle
  2
Gouraud
 70
     2
177
     2
291
     1
 71
     2
176
     1
 72
     2
176
     1
 73
     1
176
     1
 90
        2
176
     1
 40
-0.6
176
     1
 41
30.0
176
     1
 62
     5
 63
     7
421
 16777215
176
     1
 74
     0
176
     1
 91
        4
176
     1
 64
     7
176
     1
 65
   257
176
     1
 75
     1
176
     1
175
     1
176
     1
 42
1.0
176
     1
 92
        0
176
     1
 66
     7
176
     1
 43
1.0
176
     1
 76
     1
176
     1
 77
     6
176
     1
 78
     2
176
     1
 67
     7
176
     1
 79
     5
176
     1
170
     0
176
     1
171
     0
176
     1
290
     0
176
     1
 93
       13
176
     1
 44
0.0
176
     1
173
     0
176
     1
  0
VISUALSTYLE
  5
2A6
102
{ACAD_REACTORS
330
2A2
102
}
330
2A2
100
AcDbVisualStyle
  2
GouraudWithEdges
 70
     3
177
     2
291
     1
 71
     2
176
     1
 72
     2
176
     1
 73
     1
176
     1
 90
        2
176
     1
 40
-0.6
176
     1
 41
30.0
176
     1
 62
     5
 63
     7
421
 16777215
176
     1
 74
     1
176
     1
 91
        4
176
     1
 64
     7
176
     1
 65
   257
176
     1
 75
     1
176
     1
175
     1
176
     1
 42
1.0
176
     1
 92
        0
176
     1
 66
   257
176
     1
 43
1.0
176
     1
 76
     1
176
     1
 77
     6
176
     1
 78
     2
176
     1
 67
     7
176
     1
 79
     5
176
     1
170
     0
176
     1
171
     0
176
     1
290
     0
176
     1
 93
       13
176
     1
 44
0.0
176
     1
173
     0
176
     1
  0
VISUALSTYLE
  5
2B0
102
{ACAD_REACTORS
330
2A2
102
}
330
2A2
100
AcDbVisualStyle
  2
Linepattern
 70
    14
177
     2
291
     1
 71
     2
176
     1
 72
     2
176
     1
 73
     0
176
     1
 90
        0
176
     1
 40
-0.6
176
     1
 41
-30.0
176
     1
 62
     5
 63
     7
421
 16777215
176
     1
 74
     1
176
     1
 91
        4
176
     1
 64
     7
176
     1
 65
   257
176
     1
 75
     7
176
     1
175
     7
176
     1
 42
1.0
176
     1
 92
        8
176
     1
 66
     7
176
     1
 43
1.0
176
     1
 76
     1
176
     1
 77
     6
176
     1
 78
     2
176
     1
 67
     7
176
     1
 79
     5
176
     1
170
     0
176
     1
171
     0
176
     1
290
     0
176
     1
 93
        1
176
     1
 44
0.0
176
     1
173
     0
176
     1
  0
VISUALSTYLE
  5
2AB
102
{ACAD_REACTORS
330
2A2
102
}
330
2A2
100
AcDbVisualStyle
  2
Realistic
 70
     8
177
     2
291
     0
 71
     2
176
     1
 72
     2
176
     1
 73
     0
176
     1
 90
        0
176
     1
 40
-0.6
176
     1
 41
-30.0
176
     1
 62
     5
 63
     7
421
 16777215
176
     1
 74
     1
176
     1
 91
        0
176
     1
 64
     7
176
     1
 65
   257
176
     1
 75
     1
176
     1
175
     1
176
     1
 42
1.0
176
     1
 92
        8
176
     1
 66
     8
424
  7895160
176
     1
 43
1.0
176
     1
 76
     1
176
     1
 77
     6
176
     1
 78
     2
176
     1
 67
     7
176
     1
 79
     5
176
     1
170
     0
176
     1
171
     0
176
     1
290
     0
176
     1
 93
       13
176
     1
 44
0.0
176
     1
173
     0
176
     1
  0
VISUALSTYLE
  5
2AF
102
{ACAD_REACTORS
330
2A2
102
}
330
2A2
100
AcDbVisualStyle
  2
Thicken
 70
    13
177
     2
291
     1
 71
     2
176
     1
 72
     2
176
     1
 73
     0
176
     1
 90
        0
176
     1
 40
-0.6
176
     1
 41
-30.0
176
     1
 62
     5
 63
     7
421
 16777215
176
     1
 74
     1
176
     1
 91
        4
176
     1
 64
     7
176
     1
 65
   257
176
     1
 75
     1
176
     1
175
     1
176
     1
 42
1.0
176
     1
 92
       12
176
     1
 66
     7
176
     1
 43
1.0
176
     1
 76
     1
176
     1
 77
     6
176
     1
 78
     2
176
     1
 67
     7
176
     1
 79
     5
176
     1
170
     0
176
     1
171
     0
176
     1
290
     0
176
     1
 93
        1
176
     1
 44
0.0
176
     1
173
     0
176
     1
  0
DICTIONARYVAR
  5
435
102
{ACAD_REACTORS
330
27A
102
}
330
27A
100
DictionaryVariables
280
     0
  1
1:1
  0
DICTIONARYVAR
  5
27B
102
{ACAD_REACTORS
330
27A
102
}
330
27A
100
DictionaryVariables
280
     0
  1
Standard
  0
DICTIONARYVAR
  5
439
102
{ACAD_REACTORS
330
27A
102
}
330
27A
100
DictionaryVariables
280
     0
  1
0
  0
XRECORD
  5
279
102
{ACAD_REACTORS
330
277
102
}
330
277
100
AcDbXrecord
280
     1
330
23A
330
263
330
28
330
41
330
50
330
51
330
1B2
  0
DICTIONARY
  5
452
330
272
100
AcDbDictionary
280
     1
281
     1
  3
ACAD_ROUNDTRIP_2008_TABLESTYLE_CELLSTYLEMAP
360
453
  0
CELLSTYLEMAP
  5
453
102
{ACAD_REACTORS
330
452
102
}
330
452
100
AcDbCellStyleMap
 90
        3
300
CELLSTYLE
  1
TABLEFORMAT_BEGIN
 90
        5
170
     1
 91
        0
 92
    32768
 62
   257
 93
        1
300
CONTENTFORMAT
  1
CONTENTFORMAT_BEGIN
 90
        0
 91
        0
 92
        4
 93
        0
300

 40
0.0
140
1.0
 94
        5
 62
     0
340
C
144
0.25
309
CONTENTFORMAT_END
171
     1
301
MARGIN
  1
CELLMARGIN_BEGIN
 40
0.06
 40
0.06
 40
0.06
 40
0.06
 40
0.06
 40
0.06
309
CELLMARGIN_END
 94
        6
 95
        1
302
GRIDFORMAT
  1
GRIDFORMAT_BEGIN
 90
        0
 91
        1
 62
     0
 92
       -2
340
0
 93
        0
 40
0.045
309
GRIDFORMAT_END
 95
        2
302
GRIDFORMAT
  1
GRIDFORMAT_BEGIN
 90
        0
 91
        1
 62
     0
 92
       -2
340
0
 93
        0
 40
0.045
309
GRIDFORMAT_END
 95
        4
302
GRIDFORMAT
  1
GRIDFORMAT_BEGIN
 90
        0
 91
        1
 62
     0
 92
       -2
340
0
 93
        0
 40
0.045
309
GRIDFORMAT_END
 95
        8
302
GRIDFORMAT
  1
GRIDFORMAT_BEGIN
 90
        0
 91
        1
 62
     0
 92
       -2
340
0
 93
        0
 40
0.045
309
GRIDFORMAT_END
 95
       16
302
GRIDFORMAT
  1
GRIDFORMAT_BEGIN
 90
        0
 91
        1
 62
     0
 92
       -2
340
0
 93
        0
 40
0.045
309
GRIDFORMAT_END
 95
       32
302
GRIDFORMAT
  1
GRIDFORMAT_BEGIN
 90
        0
 91
        1
 62
     0
 92
       -2
340
0
 93
        0
 40
0.045
309
GRIDFORMAT_END
309
TABLEFORMAT_END
  1
CELLSTYLE_BEGIN
 90
        1
 91
        1
300
_TITLE
309
CELLSTYLE_END
300
CELLSTYLE
  1
TABLEFORMAT_BEGIN
 90
        5
170
     1
 91
        0
 92
        0
 62
   257
 93
        1
300
CONTENTFORMAT
  1
CONTENTFORMAT_BEGIN
 90
        0
 91
        0
 92
        4
 93
        0
300

 40
0.0
140
1.0
 94
        5
 62
     0
340
C
144
0.18
309
CONTENTFORMAT_END
171
     1
301
MARGIN
  1
CELLMARGIN_BEGIN
 40
0.06
 40
0.06
 40
0.06
 40
0.06
 40
0.06
 40
0.06
309
CELLMARGIN_END
 94
        6
 95
        1
302
GRIDFORMAT
  1
GRIDFORMAT_BEGIN
 90
        0
 91
        1
 62
     0
 92
       -2
340
0
 93
        0
 40
0.045
309
GRIDFORMAT_END
 95
        2
302
GRIDFORMAT
  1
GRIDFORMAT_BEGIN
 90
        0
 91
        1
 62
     0
 92
       -2
340
0
 93
        0
 40
0.045
309
GRIDFORMAT_END
 95
        4
302
GRIDFORMAT
  1
GRIDFORMAT_BEGIN
 90
        0
 91
        1
 62
     0
 92
       -2
340
0
 93
        0
 40
0.045
309
GRIDFORMAT_END
 95
        8
302
GRIDFORMAT
  1
GRIDFORMAT_BEGIN
 90
        0
 91
        1
 62
     0
 92
       -2
340
0
 93
        0
 40
0.045
309
GRIDFORMAT_END
 95
       16
302
GRIDFORMAT
  1
GRIDFORMAT_BEGIN
 90
        0
 91
        1
 62
     0
 92
       -2
340
0
 93
        0
 40
0.045
309
GRIDFORMAT_END
 95
       32
302
GRIDFORMAT
  1
GRIDFORMAT_BEGIN
 90
        0
 91
        1
 62
     0
 92
       -2
340
0
 93
        0
 40
0.045
309
GRIDFORMAT_END
309
TABLEFORMAT_END
  1
CELLSTYLE_BEGIN
 90
        2
 91
        1
300
_HEADER
309
CELLSTYLE_END
300
CELLSTYLE
  1
TABLEFORMAT_BEGIN
 90
        5
170
     1
 91
        0
 92
        0
 62
   257
 93
        1
300
CONTENTFORMAT
  1
CONTENTFORMAT_BEGIN
 90
        0
 91
        0
 92
        4
 93
        0
300

 40
0.0
140
1.0
 94
        2
 62
     0
340
C
144
0.18
309
CONTENTFORMAT_END
171
     1
301
MARGIN
  1
CELLMARGIN_BEGIN
 40
0.06
 40
0.06
 40
0.06
 40
0.06
 40
0.06
 40
0.06
309
CELLMARGIN_END
 94
        6
 95
        1
302
GRIDFORMAT
  1
GRIDFORMAT_BEGIN
 90
        0
 91
        1
 62
     0
 92
       -2
340
0
 93
        0
 40
0.045
309
GRIDFORMAT_END
 95
        2
302
GRIDFORMAT
  1
GRIDFORMAT_BEGIN
 90
        0
 91
        1
 62
     0
 92
       -2
340
0
 93
        0
 40
0.045
309
GRIDFORMAT_END
 95
        4
302
GRIDFORMAT
  1
GRIDFORMAT_BEGIN
 90
        0
 91
        1
 62
     0
 92
       -2
340
0
 93
        0
 40
0.045
309
GRIDFORMAT_END
 95
        8
302
GRIDFORMAT
  1
GRIDFORMAT_BEGIN
 90
        0
 91
        1
 62
     0
 92
       -2
340
0
 93
        0
 40
0.045
309
GRIDFORMAT_END
 95
       16
302
GRIDFORMAT
  1
GRIDFORMAT_BEGIN
 90
        0
 91
        1
 62
     0
 92
       -2
340
0
 93
        0
 40
0.045
309
GRIDFORMAT_END
 95
       32
302
GRIDFORMAT
  1
GRIDFORMAT_BEGIN
 90
        0
 91
        1
 62
     0
 92
       -2
340
0
 93
        0
 40
0.045
309
GRIDFORMAT_END
309
TABLEFORMAT_END
  1
CELLSTYLE_BEGIN
 90
        3
 91
        2
300
_DATA
309
CELLSTYLE_END
  0
ENDSEC
  0
EOF
