  0
SECTION
  2
HEADER
  9
$ACADVER
  1
AC1018
  9
$ACADMAINTVER
 70
    39
  9
$DWGCODEPAGE
  3
ANSI_1252
  9
$INSBASE
 10
-2.59375
 20
-0.0625
 30
0.0
  9
$EXTMIN
 10
-2.594146679148714
 20
-4.012756317403116
 30
-0.000045764259152
  9
$EXTMAX
 10
7.856597940969045
 20
3.88824465438752
 30
1.000045782886598
  9
$LIMMIN
 10
-9.0
 20
-6.0
  9
$LIMMAX
 10
9.0
 20
6.0
  9
$ORTHOMODE
 70
     0
  9
$REGENMODE
 70
     1
  9
$FILLMODE
 70
     1
  9
$QTEXTMODE
 70
     0
  9
$MIRRTEXT
 70
     0
  9
$LTSCALE
 40
1.0
  9
$ATTMODE
 70
     1
  9
$TEXTSIZE
 40
0.1
  9
$TRACEWID
 40
0.05
  9
$TEXTSTYLE
  7
STANDARD
  9
$CLAYER
  8
DIM
  9
$CELTYPE
  6
BYLAYER
  9
$CECOLOR
 62
   256
  9
$CELTSCALE
 40
1.0
  9
$DISPSILH
 70
     0
  9
$DIMSCALE
 40
1.0
  9
$DIMASZ
 40
0.1
  9
$DIMEXO
 40
0.0625
  9
$DIMDLI
 40
0.375
  9
$DIMRND
 40
0.0
  9
$DIMDLE
 40
0.0
  9
$DIMEXE
 40
0.0625
  9
$DIMTP
 40
0.0
  9
$DIMTM
 40
0.0
  9
$DIMTXT
 40
0.1
  9
$DIMCEN
 40
0.05
  9
$DIMTSZ
 40
0.0
  9
$DIMTOL
 70
     0
  9
$DIMLIM
 70
     0
  9
$DIMTIH
 70
     0
  9
$DIMTOH
 70
     0
  9
$DIMSE1
 70
     0
  9
$DIMSE2
 70
     0
  9
$DIMTAD
 70
     0
  9
$DIMZIN
 70
     4
  9
$DIMBLK
  1

  9
$DIMASO
 70
     0
  9
$DIMSHO
 70
     1
  9
$DIMPOST
  1

  9
$DIMAPOST
  1

  9
$DIMALT
 70
     0
  9
$DIMALTD
 70
     2
  9
$DIMALTF
 40
25.4
  9
$DIMLFAC
 40
1.0
  9
$DIMTOFL
 70
     0
  9
$DIMTVP
 40
0.0
  9
$DIMTIX
 70
     1
  9
$DIMSOXD
 70
     0
  9
$DIMSAH
 70
     0
  9
$DIMBLK1
  1

  9
$DIMBLK2
  1

  9
$DIMSTYLE
  2
STANDARD
  9
$DIMCLRD
 70
     0
  9
$DIMCLRE
 70
     0
  9
$DIMCLRT
 70
     0
  9
$DIMTFAC
 40
1.0
  9
$DIMGAP
 40
0.09
  9
$DIMJUST
 70
     0
  9
$DIMSD1
 70
     0
  9
$DIMSD2
 70
     0
  9
$DIMTOLJ
 70
     1
  9
$DIMTZIN
 70
     4
  9
$DIMALTZ
 70
     4
  9
$DIMALTTZ
 70
     4
  9
$DIMUPT
 70
     0
  9
$DIMDEC
 70
     3
  9
$DIMTDEC
 70
     3
  9
$DIMALTU
 70
     2
  9
$DIMALTTD
 70
     2
  9
$DIMTXSTY
  7
STANDARD
  9
$DIMAUNIT
 70
     0
  9
$DIMADEC
 70
     0
  9
$DIMALTRND
 40
0.0
  9
$DIMAZIN
 70
     0
  9
$DIMDSEP
 70
    46
  9
$DIMATFIT
 70
     3
  9
$DIMFRAC
 70
     0
  9
$DIMLDRBLK
  1

  9
$DIMLUNIT
 70
     2
  9
$DIMLWD
 70
    -2
  9
$DIMLWE
 70
    -2
  9
$DIMTMOVE
 70
     2
  9
$LUNITS
 70
     2
  9
$LUPREC
 70
     3
  9
$SKETCHINC
 40
0.1
  9
$FILLETRAD
 40
0.01
  9
$AUNITS
 70
     0
  9
$AUPREC
 70
     0
  9
$MENU
  1
acad
  9
$ELEVATION
 40
0.0
  9
$PELEVATION
 40
0.0
  9
$THICKNESS
 40
0.0
  9
$LIMCHECK
 70
     0
  9
$CHAMFERA
 40
0.0
  9
$CHAMFERB
 40
0.0
  9
$CHAMFERC
 40
0.0
  9
$CHAMFERD
 40
0.0
  9
$SKPOLY
 70
     0
  9
$TDCREATE
 40
2447439.468648380
  9
$TDUCREATE
 40
2447439.676981713
  9
$TDUPDATE
 40
2453299.484523438
  9
$TDUUPDATE
 40
2453299.692856771
  9
$TDINDWG
 40
0.3644724306
  9
$TDUSRTIMER
 40
0.3644724306
  9
$USRTIMER
 70
     1
  9
$ANGBASE
 50
0.0
  9
$ANGDIR
 70
     0
  9
$PDMODE
 70
     0
  9
$PDSIZE
 40
0.0
  9
$PLINEWID
 40
0.015
  9
$SPLFRAME
 70
     0
  9
$SPLINETYPE
 70
     6
  9
$SPLINESEGS
 70
     8
  9
$HANDSEED
  5
363
  9
$SURFTAB1
 70
     6
  9
$SURFTAB2
 70
     6
  9
$SURFTYPE
 70
     6
  9
$SURFU
 70
     6
  9
$SURFV
 70
     6
  9
$UCSBASE
  2

  9
$UCSNAME
  2

  9
$UCSORG
 10
0.0
 20
0.0
 30
0.0
  9
$UCSXDIR
 10
1.0
 20
0.0
 30
0.0
  9
$UCSYDIR
 10
0.0
 20
1.0
 30
0.0
  9
$UCSORTHOREF
  2

  9
$UCSORTHOVIEW
 70
     0
  9
$UCSORGTOP
 10
0.0
 20
0.0
 30
0.0
  9
$UCSORGBOTTOM
 10
0.0
 20
0.0
 30
0.0
  9
$UCSORGLEFT
 10
0.0
 20
0.0
 30
0.0
  9
$UCSORGRIGHT
 10
0.0
 20
0.0
 30
0.0
  9
$UCSORGFRONT
 10
0.0
 20
0.0
 30
0.0
  9
$UCSORGBACK
 10
0.0
 20
0.0
 30
0.0
  9
$PUCSBASE
  2

  9
$PUCSNAME
  2

  9
$PUCSORG
 10
0.0
 20
0.0
 30
0.0
  9
$PUCSXDIR
 10
1.0
 20
0.0
 30
0.0
  9
$PUCSYDIR
 10
0.0
 20
1.0
 30
0.0
  9
$PUCSORTHOREF
  2

  9
$PUCSORTHOVIEW
 70
     0
  9
$PUCSORGTOP
 10
0.0
 20
0.0
 30
0.0
  9
$PUCSORGBOTTOM
 10
0.0
 20
0.0
 30
0.0
  9
$PUCSORGLEFT
 10
0.0
 20
0.0
 30
0.0
  9
$PUCSORGRIGHT
 10
0.0
 20
0.0
 30
0.0
  9
$PUCSORGFRONT
 10
0.0
 20
0.0
 30
0.0
  9
$PUCSORGBACK
 10
0.0
 20
0.0
 30
0.0
  9
$USERI1
 70
     0
  9
$USERI2
 70
     0
  9
$USERI3
 70
     0
  9
$USERI4
 70
     0
  9
$USERI5
 70
     0
  9
$USERR1
 40
0.0
  9
$USERR2
 40
0.0
  9
$USERR3
 40
0.0
  9
$USERR4
 40
0.0
  9
$USERR5
 40
0.0
  9
$WORLDVIEW
 70
     1
  9
$SHADEDGE
 70
     3
  9
$SHADEDIF
 70
    70
  9
$TILEMODE
 70
     1
  9
$MAXACTVP
 70
    16
  9
$PINSBASE
 10
0.0
 20
0.0
 30
0.0
  9
$PLIMCHECK
 70
     0
  9
$PEXTMIN
 10
1.000000000000000E+20
 20
1.000000000000000E+20
 30
1.000000000000000E+20
  9
$PEXTMAX
 10
-1.000000000000000E+20
 20
-1.000000000000000E+20
 30
-1.000000000000000E+20
  9
$PLIMMIN
 10
0.0
 20
0.0
  9
$PLIMMAX
 10
12.0
 20
9.0
  9
$UNITMODE
 70
     0
  9
$VISRETAIN
 70
     0
  9
$PLINEGEN
 70
     1
  9
$PSLTSCALE
 70
     0
  9
$TREEDEPTH
 70
  3020
  9
$CMLSTYLE
  2
STANDARD
  9
$CMLJUST
 70
     0
  9
$CMLSCALE
 40
1.0
  9
$PROXYGRAPHICS
 70
     0
  9
$MEASUREMENT
 70
     0
  9
$CELWEIGHT
370
    -1
  9
$ENDCAPS
280
     0
  9
$JOINSTYLE
280
     0
  9
$LWDISPLAY
290
     0
  9
$INSUNITS
 70
     0
  9
$HYPERLINKBASE
  1

  9
$STYLESHEET
  1
monochrome.ctb
  9
$XEDIT
290
     1
  9
$CEPSNTYPE
380
     0
  9
$PSTYLEMODE
290
     1
  9
$FINGERPRINTGUID
  2
{23ACC462-4E77-11D3-9C30-006008208A1C}
  9
$VERSIONGUID
  2
{03D5C72E-6727-4E92-9C11-4255E094BBC8}
  9
$EXTNAMES
290
     1
  9
$PSVPSCALE
 40
0.0
  9
$OLESTARTUP
290
     0
  9
$SORTENTS
280
   127
  9
$INDEXCTL
280
     0
  9
$HIDETEXT
280
     0
  9
$XCLIPFRAME
290
     0
  9
$HALOGAP
280
     0
  9
$OBSCOLOR
 70
   257
  9
$OBSLTYPE
280
     0
  9
$INTERSECTIONDISPLAY
280
     0
  9
$INTERSECTIONCOLOR
 70
   257
  9
$DIMASSOC
280
     0
  9
$PROJECTNAME
  1

  0
ENDSEC
  0
SECTION
  2
CLASSES
  0
CLASS
  1
DICTIONARYVAR
  2
AcDbDictionaryVar
  3
ObjectDBX Classes
 90
        0
 91
        1
280
     0
281
     0
  0
CLASS
  1
ACDBDICTIONARYWDFLT
  2
AcDbDictionaryWithDefault
  3
ObjectDBX Classes
 90
        0
 91
        1
280
     0
281
     0
  0
CLASS
  1
TABLESTYLE
  2
AcDbTableStyle
  3
ObjectDBX Classes
 90
     2047
 91
        1
280
     0
281
     0
  0
ENDSEC
  0
SECTION
  2
TABLES
  0
TABLE
  2
VPORT
  5
12
330
0
100
AcDbSymbolTable
 70
     2
  0
VPORT
  5
362
330
12
100
AcDbSymbolTableRecord
100
AcDbViewportTableRecord
  2
*Active
 70
     0
 10
0.0
 20
0.0
 11
1.0
 21
1.0
 12
2.631225630910166
 22
-0.0622558315077981
 13
0.0
 23
0.0
 14
0.03125
 24
0.03125
 15
0.0
 25
0.0
 16
0.0
 26
0.0
 36
1.0
 17
0.0
 27
0.0
 37
0.0
 40
7.962727541882751
 41
1.551499348109517
 42
50.0
 43
0.0
 44
0.0
 50
0.0
 51
0.0
 71
     0
 72
  7500
 73
     1
 74
     0
 75
     0
 76
     0
 77
     0
 78
     0
281
     0
 65
     1
110
0.0
120
0.0
130
0.0
111
1.0
121
0.0
131
0.0
112
0.0
122
1.0
132
0.0
 79
     0
146
0.0
  0
ENDTAB
  0
TABLE
  2
LTYPE
  5
D
330
0
100
AcDbSymbolTable
 70
     4
  0
LTYPE
  5
E
330
D
100
AcDbSymbolTableRecord
100
AcDbLinetypeTableRecord
  2
BYBLOCK
 70
     0
  3

 72
    65
 73
     0
 40
0.0
  0
LTYPE
  5
F
330
D
100
AcDbSymbolTableRecord
100
AcDbLinetypeTableRecord
  2
BYLAYER
 70
     0
  3

 72
    65
 73
     0
 40
0.0
  0
LTYPE
  5
5
330
D
100
AcDbSymbolTableRecord
100
AcDbLinetypeTableRecord
  2
CONTINUOUS
 70
     0
  3
Solid line
 72
    65
 73
     0
 40
0.0
  0
LTYPE
  5
267
330
D
100
AcDbSymbolTableRecord
100
AcDbLinetypeTableRecord
  2
CENTER
 70
     0
  3
Center ____ _ ____ _ ____ _ ____ _ ____ _ ____
 72
    65
 73
     4
 40
2.0
 49
1.25
 74
     0
 49
-0.25
 74
     0
 49
0.25
 74
     0
 49
-0.25
 74
     0
  0
LTYPE
  5
268
330
D
100
AcDbSymbolTableRecord
100
AcDbLinetypeTableRecord
  2
HIDDEN
 70
     0
  3
Hidden __ __ __ __ __ __ __ __ __ __ __ __ __ _
 72
    65
 73
     2
 40
0.375
 49
0.25
 74
     0
 49
-0.125
 74
     0
  0
LTYPE
  5
269
330
D
100
AcDbSymbolTableRecord
100
AcDbLinetypeTableRecord
  2
PHANTOM
 70
     0
  3
Phantom ______  __  __  ______  __  __  ______
 72
    65
 73
     6
 40
2.5
 49
1.25
 74
     0
 49
-0.25
 74
     0
 49
0.25
 74
     0
 49
-0.25
 74
     0
 49
0.25
 74
     0
 49
-0.25
 74
     0
  0
ENDTAB
  0
TABLE
  2
LAYER
  5
A
330
0
100
AcDbSymbolTable
 70
    12
  0
LAYER
  5
4
330
A
100
AcDbSymbolTableRecord
100
AcDbLayerTableRecord
  2
0
 70
     0
 62
     7
  6
CONTINUOUS
370
    -3
390
30B
  0
LAYER
  5
2A
330
A
100
AcDbSymbolTableRecord
100
AcDbLayerTableRecord
  2
HEAD
 70
     0
 62
     1
  6
CONTINUOUS
370
    -3
390
30B
  0
LAYER
  5
38
330
A
100
AcDbSymbolTableRecord
100
AcDbLayerTableRecord
  2
BASE
 70
     0
 62
     1
  6
CONTINUOUS
370
    -3
390
30B
  0
LAYER
  5
F8
330
A
100
AcDbSymbolTableRecord
100
AcDbLayerTableRecord
  2
BUMPER
 70
     0
 62
     1
  6
CONTINUOUS
370
    -3
390
30B
  0
LAYER
  5
1B
330
A
100
AcDbSymbolTableRecord
100
AcDbLayerTableRecord
  2
2095
 70
     0
 62
     6
  6
CONTINUOUS
370
    -3
390
30B
  0
LAYER
  5
22
330
A
100
AcDbSymbolTableRecord
100
AcDbLayerTableRecord
  2
PART
 70
     0
 62
     1
  6
CONTINUOUS
370
    -3
390
30B
  0
LAYER
  5
1F
330
A
100
AcDbSymbolTableRecord
100
AcDbLayerTableRecord
  2
DIM
 70
     0
 62
     2
  6
CONTINUOUS
370
    -3
390
30B
  0
LAYER
  5
26A
330
A
100
AcDbSymbolTableRecord
100
AcDbLayerTableRecord
  2
CENTER
 70
     0
 62
     5
  6
CENTER
370
    -3
390
30B
  0
LAYER
  5
26B
330
A
100
AcDbSymbolTableRecord
100
AcDbLayerTableRecord
  2
HIDDEN
 70
     0
 62
     3
  6
HIDDEN
370
    -3
390
30B
  0
LAYER
  5
26C
330
A
100
AcDbSymbolTableRecord
100
AcDbLayerTableRecord
  2
PHANTOM
 70
     0
 62
     6
  6
PHANTOM
370
    -3
390
30B
  0
LAYER
  5
26D
330
A
100
AcDbSymbolTableRecord
100
AcDbLayerTableRecord
  2
TRIM
 70
     0
 62
     1
  6
CONTINUOUS
370
    -3
390
30B
  0
LAYER
  5
26E
330
A
100
AcDbSymbolTableRecord
100
AcDbLayerTableRecord
  2
SOLID
 70
     0
 62
     5
  6
CONTINUOUS
370
    -3
390
30B
  0
ENDTAB
  0
TABLE
  2
STYLE
  5
B
330
0
100
AcDbSymbolTable
 70
     7
  0
STYLE
  5
C
330
B
100
AcDbSymbolTableRecord
100
AcDbTextStyleTableRecord
  2
STANDARD
 70
     0
 40
0.0
 41
1.0
 50
0.0
 71
     0
 42
0.1
  3
C:\ACADWIN\FONTS\SIMPLEX.SHX
  4

  0
STYLE
  5
EF
330
B
100
AcDbSymbolTableRecord
100
AcDbTextStyleTableRecord
  2
SIMPLEX
 70
     0
 40
0.0
 41
1.0
 50
0.0
 71
     0
 42
0.15
  3
SIMPLEX
  4

  0
STYLE
  5
C0
330
B
100
AcDbSymbolTableRecord
100
AcDbTextStyleTableRecord
  2
COMPLEX
 70
     0
 40
0.0
 41
1.0
 50
15.0
 71
     0
 42
0.08
  3
SIMPLEX
  4

  0
STYLE
  5
32
330
B
100
AcDbSymbolTableRecord
100
AcDbTextStyleTableRecord
  2
TXT
 70
     0
 40
0.0
 41
1.0
 50
0.0
 71
     0
 42
0.15
  3
simplex
  4

  0
STYLE
  5
26F
330
B
100
AcDbSymbolTableRecord
100
AcDbTextStyleTableRecord
  2

 70
     1
 40
0.0
 41
1.0
 50
0.0
 71
     0
 42
0.2
  3
ltypeshp.shx
  4

  0
STYLE
  5
270
330
B
100
AcDbSymbolTableRecord
100
AcDbTextStyleTableRecord
  2
ROMAND
 70
     0
 40
0.0
 41
1.0
 50
0.0
 71
     0
 42
0.1
  3
romand.shx
  4

  0
STYLE
  5
271
330
B
100
AcDbSymbolTableRecord
100
AcDbTextStyleTableRecord
  2
SCRIPT
 70
     0
 40
0.0
 41
0.95
 50
0.0
 71
     0
 42
0.09
  3
scripts.shx
  4

  0
ENDTAB
  0
TABLE
  2
VIEW
  5
10
330
0
100
AcDbSymbolTable
 70
     0
  0
ENDTAB
  0
TABLE
  2
UCS
  5
11
330
0
100
AcDbSymbolTable
 70
     0
  0
ENDTAB
  0
TABLE
  2
APPID
  5
14
330
0
100
AcDbSymbolTable
 70
     1
  0
APPID
  5
15
330
14
100
AcDbSymbolTableRecord
100
AcDbRegAppTableRecord
  2
ACAD
 70
     0
  0
ENDTAB
  0
TABLE
  2
DIMSTYLE
  5
16
330
0
100
AcDbSymbolTable
 70
     2
100
AcDbDimStyleTable
 71
     1
340
1D
  0
DIMSTYLE
105
1D
330
16
100
AcDbSymbolTableRecord
100
AcDbDimStyleTableRecord
  2
STANDARD
 70
     0
340
C
  0
DIMSTYLE
105
318
330
16
100
AcDbSymbolTableRecord
100
AcDbDimStyleTableRecord
  2
STDANG
 70
     0
 41
0.1
 43
0.375
 44
0.0625
 73
     0
 74
     0
 78
     5
140
0.1
141
0.05
147
0.075
271
     3
272
     2
284
     5
340
C
  0
ENDTAB
  0
TABLE
  2
BLOCK_RECORD
  5
1
330
0
100
AcDbSymbolTable
 70
    17
  0
BLOCK_RECORD
  5
2
330
1
100
AcDbSymbolTableRecord
100
AcDbBlockTableRecord
  2
*MODEL_SPACE
340
30E
  0
BLOCK_RECORD
  5
7
330
1
100
AcDbSymbolTableRecord
100
AcDbBlockTableRecord
  2
*PAPER_SPACE
340
30F
  0
BLOCK_RECORD
  5
20
330
1
100
AcDbSymbolTableRecord
100
AcDbBlockTableRecord
  2
TB_A
340
0
  0
BLOCK_RECORD
  5
142
330
1
100
AcDbSymbolTableRecord
100
AcDbBlockTableRecord
  2
A$C435B465C
340
0
  0
BLOCK_RECORD
  5
1B9
330
1
100
AcDbSymbolTableRecord
100
AcDbBlockTableRecord
  2
A$C4FB65283
340
0
102
{BLKREFS
331
1CA
331
273
102
}
  0
BLOCK_RECORD
  5
1BD
330
1
100
AcDbSymbolTableRecord
100
AcDbBlockTableRecord
  2
A$C2BBE0097
340
0
  0
BLOCK_RECORD
  5
1C1
330
1
100
AcDbSymbolTableRecord
100
AcDbBlockTableRecord
  2
A$C10236829
340
0
  0
BLOCK_RECORD
  5
1C5
330
1
100
AcDbSymbolTableRecord
100
AcDbBlockTableRecord
  2
A$C794932C0
340
0
  0
BLOCK_RECORD
  5
1C9
330
1
100
AcDbSymbolTableRecord
100
AcDbBlockTableRecord
  2
TEST
340
0
  0
BLOCK_RECORD
  5
247
330
1
100
AcDbSymbolTableRecord
100
AcDbBlockTableRecord
  2
A$C56887695
340
0
  0
BLOCK_RECORD
  5
24B
330
1
100
AcDbSymbolTableRecord
100
AcDbBlockTableRecord
  2
A$C406F4052
340
0
  0
BLOCK_RECORD
  5
24F
330
1
100
AcDbSymbolTableRecord
100
AcDbBlockTableRecord
  2
A$C217D2A32
340
0
  0
BLOCK_RECORD
  5
253
330
1
100
AcDbSymbolTableRecord
100
AcDbBlockTableRecord
  2
A$C26835032
340
0
  0
BLOCK_RECORD
  5
257
330
1
100
AcDbSymbolTableRecord
100
AcDbBlockTableRecord
  2
A$C11730435
340
0
  0
BLOCK_RECORD
  5
25B
330
1
100
AcDbSymbolTableRecord
100
AcDbBlockTableRecord
  2
A$C740A492C
340
0
  0
BLOCK_RECORD
  5
25F
330
1
100
AcDbSymbolTableRecord
100
AcDbBlockTableRecord
  2
A$C251463E3
340
0
  0
BLOCK_RECORD
  5
263
330
1
100
AcDbSymbolTableRecord
100
AcDbBlockTableRecord
  2
A$C46507260
340
0
  0
BLOCK_RECORD
  5
272
330
1
100
AcDbSymbolTableRecord
100
AcDbBlockTableRecord
  2
TFT_APRLIST
340
0
102
{BLKREFS
331
2FB
102
}
  0
BLOCK_RECORD
  5
319
330
1
100
AcDbSymbolTableRecord
100
AcDbBlockTableRecord
  2
rvsn_blk
340
0
102
{BLKREFS
331
31F
102
}
  0
ENDTAB
  0
ENDSEC
  0
SECTION
  2
BLOCKS
  0
BLOCK
  5
3
330
2
100
AcDbEntity
  8
0
100
AcDbBlockBegin
  2
*MODEL_SPACE
 70
     0
 10
0.0
 20
0.0
 30
0.0
  3
*MODEL_SPACE
  1

  0
ENDBLK
  5
6
330
2
100
AcDbEntity
  8
0
100
AcDbBlockEnd
  0
BLOCK
  5
8
330
7
100
AcDbEntity
 67
     1
  8
0
100
AcDbBlockBegin
  2
*PAPER_SPACE
 70
     0
 10
0.0
 20
0.0
 30
0.0
  3
*PAPER_SPACE
  1

  0
ENDBLK
  5
9
330
7
100
AcDbEntity
 67
     1
  8
0
100
AcDbBlockEnd
  0
BLOCK
  5
27
330
20
100
AcDbEntity
  8
0
100
AcDbBlockBegin
  2
TB_A
 70
     0
 10
0.0
 20
0.0
 30
0.0
  3
TB_A
  1

  0
LINE
  5
21
330
20
100
AcDbEntity
  8
PART
100
AcDbLine
 10
0.0
 20
-3.95
 30
0.0
 11
10.5
 21
-3.95
 31
0.0
  0
LINE
  5
23
330
20
100
AcDbEntity
  8
PART
100
AcDbLine
 10
10.5
 20
3.95
 30
0.0
 11
0.0
 21
3.95
 31
0.0
  0
LINE
  5
24
330
20
100
AcDbEntity
  8
PART
100
AcDbLine
 10
0.0
 20
3.95
 30
0.0
 11
0.0
 21
-3.95
 31
0.0
  0
LINE
  5
25
330
20
100
AcDbEntity
  8
DIM
100
AcDbLine
 10
0.0
 20
-3.95
 30
0.0
 11
-0.075
 21
-3.95
 31
0.0
  0
LINE
  5
26
330
20
100
AcDbEntity
  8
PART
100
AcDbLine
 10
10.5
 20
-3.95
 30
0.0
 11
10.5
 21
3.95
 31
0.0
  0
ENDBLK
  5
28
330
20
100
AcDbEntity
  8
0
100
AcDbBlockEnd
  0
BLOCK
  5
1B7
330
142
100
AcDbEntity
  8
0
100
AcDbBlockBegin
  2
A$C435B465C
 70
     0
 10
0.0
 20
0.0
 30
0.0
  3
A$C435B465C
  1

  0
LINE
  5
143
330
142
100
AcDbEntity
  8
TRIM
100
AcDbLine
 10
10.41999999853406
 20
7.86999999827346
 30
0.0
 11
0.0299999985340644
 21
7.86999999827346
 31
0.0
  0
LINE
  5
144
330
142
100
AcDbEntity
  8
TRIM
100
AcDbLine
 10
-0.0000000014659345
 20
7.899999998273461
 30
0.0
 11
10.44999999853406
 21
7.899999998273461
 31
0.0
  0
LINE
  5
145
330
142
100
AcDbEntity
  8
TRIM
100
AcDbLine
 10
0.0299999985340644
 20
7.86999999827346
 30
0.0
 11
0.0299999985340652
 21
0.9877074628274646
 31
0.0
  0
LINE
  5
146
330
142
100
AcDbEntity
  8
TRIM
100
AcDbLine
 10
-0.0000000014659349
 20
7.899999998273461
 30
0.0
 11
-0.0000000014659349
 21
-0.000000001726538
 31
0.0
  0
LINE
  5
147
330
142
100
AcDbEntity
  8
TRIM
100
AcDbLine
 10
10.41999999853406
 20
2.432499998273461
 30
0.0
 11
10.41999999853406
 21
7.869999998273458
 31
0.0
  0
LINE
  5
148
330
142
100
AcDbEntity
  8
TRIM
100
AcDbLine
 10
10.44999999853406
 20
-0.0000000017265407
 30
0.0
 11
10.44999999853406
 21
7.899999998273459
 31
0.0
  0
SOLID
  5
149
330
142
100
AcDbEntity
  8
SOLID
 62
     1
100
AcDbTrace
 10
8.850645714660327
 20
1.336824719979944
 30
0.0
 11
8.953204583077742
 21
1.529709898068546
 31
0.0
 12
8.844321504076491
 22
1.344775342338473
 32
0.0
 13
8.947606642518891
 23
1.539026435684056
 33
0.0
  0
SOLID
  5
14A
330
142
100
AcDbEntity
  8
SOLID
 62
     1
100
AcDbTrace
 10
8.743633161575985
 20
1.330656234914544
 30
0.0
 11
8.928899857892716
 21
1.55144848583807
 31
0.0
 12
8.835889223298043
 22
1.355376172149846
 32
0.0
 13
8.94014272177376
 23
1.55144848583807
 33
0.0
  0
SOLID
  5
14B
330
142
100
AcDbEntity
  8
SOLID
 62
     1
100
AcDbTrace
 10
8.775982480684099
 20
1.551448485838069
 30
0.0
 11
9.123139625704464
 21
1.644468962492971
 31
0.0
 12
9.073679760929408
 22
1.551448485838069
 32
0.0
 13
9.073679760929408
 23
1.551448485838069
 33
0.0
  0
SOLID
  5
14C
330
142
100
AcDbEntity
  8
SOLID
 62
     1
100
AcDbTrace
 10
8.816585180362723
 20
1.57518819906379
 30
0.0
 11
9.147519865140669
 21
1.663861880597488
 31
0.0
 12
8.834870359939877
 22
1.589732887642179
 32
0.0
 13
9.165805044717822
 23
1.678406569175877
 33
0.0
  0
LINE
  5
14D
330
142
100
AcDbEntity
  8
TRIM
100
AcDbLine
 10
10.41999999853406
 20
2.402499998273461
 30
0.0
 11
8.026999998534064
 21
2.402499998273462
 31
0.0
  0
TEXT
  5
14E
330
142
100
AcDbEntity
  8
TRIM
100
AcDbText
 10
8.093749998534065
 20
2.232876334230538
 30
0.0
 40
0.1
  1
TASK FORCE TIPS, INC.
 51
10.0
  7
ROMAND
100
AcDbText
  0
TEXT
  5
14F
330
142
100
AcDbEntity
  8
TRIM
100
AcDbText
 10
8.128853318574009
 20
1.795200536343402
 30
0.0
 40
0.09
  1
219-462-6161
  7
SIMPLEX
100
AcDbText
  0
TEXT
  5
150
330
142
100
AcDbEntity
  8
TRIM
 62
     2
100
AcDbText
 10
8.128853318574009
 20
1.945864616217594
 30
0.0
 40
0.09
  1
VALPARAISO, IN 46383
  7
SIMPLEX
100
AcDbText
  0
TEXT
  5
151
330
142
100
AcDbEntity
  8
TRIM
 62
     2
100
AcDbText
 10
8.128853318574009
 20
2.090582801482295
 30
0.0
 40
0.09
  1
2800 E. EVANS AVE.
  7
SIMPLEX
100
AcDbText
  0
LINE
  5
152
330
142
100
AcDbEntity
  8
TRIM
100
AcDbLine
 10
10.41999999853406
 20
2.432499998273461
 30
0.0
 11
7.996999998534068
 21
2.432499998273462
 31
0.0
  0
LINE
  5
153
330
142
100
AcDbEntity
  8
TRIM
100
AcDbLine
 10
8.026999998534062
 20
1.224315403424987
 30
0.0
 11
8.026999998534064
 21
2.402499998273462
 31
0.0
  0
LINE
  5
154
330
142
100
AcDbEntity
  8
TRIM
100
AcDbLine
 10
7.996999998534064
 20
0.6684716413094636
 30
0.0
 11
7.996999998534068
 21
2.432499998273462
 31
0.0
  0
SOLID
  5
155
330
142
100
AcDbEntity
  8
SOLID
 62
     1
100
AcDbTrace
 10
8.043289409296239
 20
1.529709898068546
 30
0.0
 11
8.307257975069029
 21
1.529709898068546
 31
0.0
 12
8.114055538205608
 22
1.539026435684056
 32
0.0
 13
8.327237354460679
 23
1.539026435684056
 33
0.0
  0
SOLID
  5
156
330
142
100
AcDbEntity
  8
SOLID
 62
     1
100
AcDbTrace
 10
8.043289409296239
 20
1.529709898068546
 30
0.0
 11
8.598232940785159
 21
1.678406569175877
 31
0.0
 12
8.114055538205608
 22
1.539026435684056
 32
0.0
 13
8.579947761208007
 23
1.663861880597489
 33
0.0
  0
SOLID
  5
157
330
142
100
AcDbEntity
  8
SOLID
 62
     1
100
AcDbTrace
 10
8.168609830666147
 20
1.330656234914544
 30
0.0
 11
8.353876526982878
 21
1.551448485838069
 31
0.0
 12
8.260865892388205
 22
1.355376172149845
 32
0.0
 13
8.365119390863922
 23
1.551448485838069
 33
0.0
  0
SOLID
  5
158
330
142
100
AcDbEntity
  8
SOLID
 62
     1
100
AcDbTrace
 10
8.107639476921409
 20
1.29181383575286
 30
0.0
 11
8.307257975069029
 21
1.529709898068546
 31
0.0
 12
8.133769628526296
 22
1.308460578250724
 32
0.0
 13
8.327237354460679
 23
1.539026435684056
 33
0.0
  0
SOLID
  5
159
330
142
100
AcDbEntity
  8
SOLID
 62
     1
100
AcDbTrace
 10
8.269298173166653
 20
1.344775342338473
 30
0.0
 11
8.372583311609053
 21
1.539026435684056
 31
0.0
 12
8.275622383750489
 22
1.336824719979944
 32
0.0
 13
8.378181252167903
 23
1.529709898068546
 33
0.0
  0
SOLID
  5
15A
330
142
100
AcDbEntity
  8
SOLID
 62
     1
100
AcDbTrace
 10
8.519123822871026
 20
1.446010323780124
 30
0.0
 11
8.389737606638517
 21
1.29181383575286
 31
0.0
 12
8.53420778556849
 22
1.449492730963093
 32
0.0
 13
8.415867758243402
 23
1.308460578250724
 33
0.0
  0
SOLID
  5
15B
330
142
100
AcDbEntity
  8
SOLID
 62
     1
100
AcDbTrace
 10
8.557720513467595
 20
1.336824719979944
 30
0.0
 11
8.597274694021209
 21
1.411215314162212
 31
0.0
 12
8.551396302883759
 22
1.344775342338473
 32
0.0
 13
8.593127360178915
 23
1.423260046220356
 33
0.0
  0
SOLID
  5
15C
330
142
100
AcDbEntity
  8
SOLID
 62
     1
100
AcDbTrace
 10
8.902260685370517
 20
1.539026435684056
 30
0.0
 11
8.708792959436136
 21
1.308460578250725
 31
0.0
 12
8.882281305978867
 22
1.529709898068546
 32
0.0
 13
8.682662807831249
 23
1.29181383575286
 33
0.0
  0
SOLID
  5
15D
330
142
100
AcDbEntity
  8
SOLID
 62
     1
100
AcDbTrace
 10
8.450707960383251
 20
1.330656234914544
 30
0.0
 11
8.554319735831773
 21
1.454135940540385
 31
0.0
 12
8.54296402210531
 22
1.355376172149845
 32
0.0
 13
8.587597581722521
 23
1.439319688964547
 33
0.0
  0
SOLID
  5
15E
330
142
100
AcDbEntity
  8
SOLID
 62
     1
100
AcDbTrace
 10
8.389737606638517
 20
1.29181383575286
 30
0.0
 11
8.557720513467595
 21
1.336824719979944
 31
0.0
 12
8.415867758243402
 22
1.308460578250724
 32
0.0
 13
8.551396302883759
 23
1.344775342338473
 33
0.0
  0
SOLID
  5
15F
330
142
100
AcDbEntity
  8
SOLID
 62
     1
100
AcDbTrace
 10
8.107639476921409
 20
1.29181383575286
 30
0.0
 11
8.275622383750489
 21
1.336824719979944
 31
0.0
 12
8.133769628526296
 22
1.308460578250724
 32
0.0
 13
8.269298173166653
 23
1.344775342338473
 33
0.0
  0
SOLID
  5
160
330
142
100
AcDbEntity
  8
SOLID
 62
     1
100
AcDbTrace
 10
8.682662807831249
 20
1.29181383575286
 30
0.0
 11
8.850645714660327
 21
1.336824719979944
 31
0.0
 12
8.708792959436136
 22
1.308460578250725
 32
0.0
 13
8.844321504076491
 23
1.344775342338473
 33
0.0
  0
SOLID
  5
161
330
142
100
AcDbEntity
  8
SOLID
 62
     1
100
AcDbTrace
 10
8.208410376751436
 20
1.551448485838069
 30
0.0
 11
8.555567521771804
 21
1.644468962492971
 31
0.0
 12
8.506107656996745
 22
1.551448485838069
 32
0.0
 13
8.506107656996745
 23
1.551448485838069
 33
0.0
  0
SOLID
  5
162
330
142
100
AcDbEntity
  8
SOLID
 62
     1
100
AcDbTrace
 10
8.372583311609053
 20
1.539026435684056
 30
0.0
 11
8.609335484177783
 21
1.539026435684056
 31
0.0
 12
8.378181252167903
 22
1.529709898068546
 32
0.0
 13
8.589356104786135
 23
1.529709898068546
 33
0.0
  0
SOLID
  5
163
330
142
100
AcDbEntity
  8
SOLID
 62
     1
100
AcDbTrace
 10
8.572168427478533
 20
1.509226421888862
 30
0.0
 11
8.457090830046876
 21
1.473629191620975
 31
0.0
 12
8.577542130581782
 22
1.501136592315402
 32
0.0
 13
8.483530452159383
 23
1.472055733491771
 33
0.0
  0
SOLID
  5
164
330
142
100
AcDbEntity
  8
SOLID
 62
     1
100
AcDbTrace
 10
8.457090830046876
 20
1.473629191620975
 30
0.0
 11
8.519123822871026
 21
1.446010323780124
 31
0.0
 12
8.483530452159383
 22
1.472055733491771
 32
0.0
 13
8.53420778556849
 23
1.449492730963093
 33
0.0
  0
SOLID
  5
165
330
142
100
AcDbEntity
  8
SOLID
 62
     1
100
AcDbTrace
 10
8.492196428717766
 20
1.551448485838069
 30
0.0
 11
8.839353573738133
 21
1.644468962492971
 31
0.0
 12
8.789893708963075
 22
1.551448485838069
 32
0.0
 13
8.789893708963075
 23
1.551448485838069
 33
0.0
  0
SOLID
  5
166
330
142
100
AcDbEntity
  8
SOLID
 62
     1
100
AcDbTrace
 10
8.710751962356022
 20
1.539026435684056
 30
0.0
 11
8.902260685370517
 21
1.539026435684056
 31
0.0
 12
8.71634990291487
 22
1.529709898068546
 32
0.0
 13
8.882281305978867
 23
1.529709898068546
 33
0.0
  0
SOLID
  5
167
330
142
100
AcDbEntity
  8
SOLID
 62
     1
100
AcDbTrace
 10
8.551084307973546
 20
1.589732887642179
 30
0.0
 11
8.88201899275149
 21
1.678406569175877
 31
0.0
 12
8.532799128396392
 22
1.575188199063791
 32
0.0
 13
8.863733813174338
 23
1.663861880597489
 33
0.0
  0
SOLID
  5
168
330
142
100
AcDbEntity
  8
SOLID
 62
     1
100
AcDbTrace
 10
8.532799128396392
 20
1.575188199063791
 30
0.0
 11
8.579947761208007
 21
1.663861880597489
 31
0.0
 12
8.551084307973546
 22
1.589732887642179
 32
0.0
 13
8.598232940785159
 23
1.678406569175877
 33
0.0
  0
SOLID
  5
169
330
142
100
AcDbEntity
  8
SOLID
 62
     1
100
AcDbTrace
 10
8.593127360178915
 20
1.423260046220356
 30
0.0
 11
8.638464998265758
 21
1.403074429219956
 31
0.0
 12
8.597274694021209
 22
1.411215314162212
 32
0.0
 13
8.642612332108052
 23
1.391029697161812
 33
0.0
  0
SOLID
  5
16A
330
142
100
AcDbEntity
  8
SOLID
 62
     1
100
AcDbTrace
 10
8.518783281642729
 20
1.4699577893195
 30
0.0
 11
8.687749358113208
 21
1.522224472547337
 31
0.0
 12
8.632935219809365
 22
1.419134071964148
 32
0.0
 13
8.632935219809365
 23
1.419134071964148
 33
0.0
  0
SOLID
  5
16B
330
142
100
AcDbEntity
  8
SOLID
 62
     1
100
AcDbTrace
 10
8.584707068052781
 20
1.490350152884122
 30
0.0
 11
8.635974656699984
 21
1.551448485838069
 31
0.0
 12
8.620641230585929
 22
1.501465753893571
 32
0.0
 13
8.647217520581028
 23
1.551448485838069
 33
0.0
  0
SOLID
  5
16C
330
142
100
AcDbEntity
  8
SOLID
 62
     1
100
AcDbTrace
 10
8.589356104786135
 20
1.529709898068546
 30
0.0
 11
8.572168427478533
 21
1.509226421888862
 31
0.0
 12
8.609335484177783
 22
1.539026435684056
 32
0.0
 13
8.577542130581782
 23
1.501136592315402
 33
0.0
  0
SOLID
  5
16D
330
142
100
AcDbEntity
  8
SOLID
 62
     1
100
AcDbTrace
 10
8.638464998265758
 20
1.403074429219956
 30
0.0
 11
8.710751962356022
 21
1.539026435684056
 31
0.0
 12
8.642612332108052
 22
1.391029697161812
 32
0.0
 13
8.71634990291487
 23
1.529709898068546
 33
0.0
  0
SOLID
  5
16E
330
142
100
AcDbEntity
  8
SOLID
 62
     1
100
AcDbTrace
 10
8.645754237745254
 20
1.522236807647912
 30
0.0
 11
8.70003121496035
 21
1.539026435684056
 31
0.0
 12
8.654681441326159
 22
1.539026435684056
 32
0.0
 13
8.654681441326159
 23
1.539026435684056
 33
0.0
  0
SOLID
  5
16F
330
142
100
AcDbEntity
  8
SOLID
 62
     1
100
AcDbTrace
 10
8.816585180362723
 20
1.57518819906379
 30
0.0
 11
8.863733813174338
 21
1.663861880597489
 31
0.0
 12
8.834870359939877
 22
1.589732887642179
 32
0.0
 13
8.88201899275149
 23
1.678406569175877
 33
0.0
  0
LINE
  5
170
330
142
100
AcDbEntity
  8
TRIM
100
AcDbLine
 10
10.41999999853406
 20
1.780339596352224
 30
0.0
 11
10.41999999853406
 21
2.402499998273461
 31
0.0
  0
LINE
  5
171
330
142
100
AcDbEntity
  8
TRIM
100
AcDbLine
 10
9.212094455479999
 20
1.750339596352224
 30
0.0
 11
9.212094455480064
 21
0.3543154034249878
 31
0.0
  0
LINE
  5
172
330
142
100
AcDbEntity
  8
TRIM
100
AcDbLine
 10
10.41999999853406
 20
0.3543154034249873
 30
0.0
 11
10.41999999853406
 21
1.750339596352224
 31
0.0
  0
LINE
  5
173
330
142
100
AcDbEntity
  8
TRIM
100
AcDbLine
 10
9.212094455479999
 20
1.750339596352224
 30
0.0
 11
10.41999999853406
 21
1.750339596352224
 31
0.0
  0
LINE
  5
174
330
142
100
AcDbEntity
  8
TRIM
100
AcDbLine
 10
9.182094455479997
 20
1.780339596352224
 30
0.0
 11
10.41999999853406
 21
1.780339596352224
 31
0.0
  0
TEXT
  5
175
330
142
100
AcDbEntity
  8
DIM
100
AcDbText
 10
9.571579664239893
 20
1.615565403424988
 30
0.0
 40
0.09
  1
DATE
 41
0.9
 72
     1
 11
9.714293949954178
 21
1.615565403424988
 31
0.0
100
AcDbText
  0
LINE
  5
176
330
142
100
AcDbEntity
  8
TRIM
100
AcDbLine
 10
9.994468264419049
 20
1.584315403424988
 30
0.0
 11
9.434119635489306
 21
1.584315403424988
 31
0.0
  0
LINE
  5
177
330
142
100
AcDbEntity
  8
TRIM
100
AcDbLine
 10
10.41999999853406
 20
1.404315403424988
 30
0.0
 11
9.212094455480011
 21
1.404315403424988
 31
0.0
  0
LINE
  5
178
330
142
100
AcDbEntity
  8
TRIM
100
AcDbLine
 10
9.434119635489306
 20
1.750339596352224
 30
0.0
 11
9.434119635489302
 21
0.6843154034249875
 31
0.0
  0
LINE
  5
179
330
142
100
AcDbEntity
  8
TRIM
100
AcDbLine
 10
9.182094455479997
 20
1.780339596352224
 30
0.0
 11
9.182094455480022
 21
1.224315403424987
 31
0.0
  0
TEXT
  5
17A
330
142
100
AcDbEntity
  8
DIM
100
AcDbText
 10
9.227107045484656
 20
1.615565403424988
 30
0.0
 40
0.09
  1
REV
 41
0.8
 72
     1
 11
9.323107045484656
 21
1.615565403424988
 31
0.0
100
AcDbText
  0
LINE
  5
17B
330
142
100
AcDbEntity
  8
TRIM
100
AcDbLine
 10
9.434119635489306
 20
1.584315403424988
 30
0.0
 11
9.212094455480006
 21
1.584315403424988
 31
0.0
  0
SOLID
  5
17C
330
142
100
AcDbEntity
  8
SOLID
 62
     1
100
AcDbTrace
 10
9.086741622233388
 20
1.529709898068546
 30
0.0
 11
9.165805044717822
 21
1.678406569175877
 31
0.0
 12
9.081143681674539
 22
1.539026435684056
 32
0.0
 13
9.147519865140669
 23
1.663861880597488
 33
0.0
  0
SOLID
  5
17D
330
142
100
AcDbEntity
  8
SOLID
 62
     1
100
AcDbTrace
 10
8.953204583077742
 20
1.529709898068546
 30
0.0
 11
9.086741622233388
 21
1.529709898068546
 31
0.0
 12
8.947606642518891
 22
1.539026435684056
 32
0.0
 13
9.081143681674539
 23
1.539026435684056
 33
0.0
  0
LINE
  5
17E
330
142
100
AcDbEntity
  8
TRIM
100
AcDbLine
 10
9.994468264419047
 20
1.750339596352224
 30
0.0
 11
9.994468264419047
 21
0.684315403424987
 31
0.0
  0
TEXT
  5
17F
330
142
100
AcDbEntity
  8
DIM
100
AcDbText
 10
10.0105817160691
 20
1.615565403424988
 30
0.0
 40
0.09
  1
INITIALS
 41
0.8
 72
     1
 11
10.21115314464053
 21
1.615565403424988
 31
0.0
100
AcDbText
  0
LINE
  5
180
330
142
100
AcDbEntity
  8
TRIM
100
AcDbLine
 10
10.41999999853406
 20
1.584315403424988
 30
0.0
 11
9.994468264419049
 21
1.584315403424988
 31
0.0
  0
LINE
  5
181
330
142
100
AcDbEntity
  8
TRIM
100
AcDbLine
 10
0.0299999985341133
 20
0.3492358197914696
 30
0.0
 11
7.996999998534064
 21
0.3492358197914633
 31
0.0
  0
LINE
  5
182
330
142
100
AcDbEntity
  8
TRIM
100
AcDbLine
 10
0.0299999985340644
 20
0.6384716413094696
 30
0.0
 11
7.996999998534064
 21
0.6384716413094634
 31
0.0
  0
LINE
  5
183
330
142
100
AcDbEntity
  8
TRIM
100
AcDbLine
 10
-0.0000000014659349
 20
-0.000000001726538
 30
0.0
 11
10.44999999853406
 21
-0.0000000017265371
 31
0.0
  0
LINE
  5
184
330
142
100
AcDbEntity
  8
TRIM
100
AcDbLine
 10
0.0299999985340644
 20
0.3192358197914693
 30
0.0
 11
7.996999998534064
 21
0.3192358197914626
 31
0.0
  0
LINE
  5
185
330
142
100
AcDbEntity
  8
TRIM
100
AcDbLine
 10
0.0299999985341133
 20
0.0299999982734693
 30
0.0
 11
7.996999998534064
 21
0.0299999982734627
 31
0.0
  0
LINE
  5
186
330
142
100
AcDbEntity
  8
TRIM
100
AcDbLine
 10
0.0299999985340652
 20
0.9877074628274646
 30
0.0
 11
4.123749998534062
 21
0.9877074628274638
 31
0.0
  0
LINE
  5
187
330
142
100
AcDbEntity
  8
TRIM
100
AcDbLine
 10
0.0299999985341142
 20
0.9577074628274647
 30
0.0
 11
3.312499998534065
 21
0.9577074628274647
 31
0.0
  0
LINE
  5
188
330
142
100
AcDbEntity
  8
TRIM
100
AcDbLine
 10
0.0299999985340644
 20
0.6684716413094645
 30
0.0
 11
3.312499998534113
 21
0.6684716413094645
 31
0.0
  0
TEXT
  5
189
330
142
100
AcDbEntity
  8
TRIM
100
AcDbText
 10
0.1075473542991792
 20
0.4200287859488796
 30
0.0
 40
0.14
  1
DESCRIPTION:
 41
0.9
  7
SIMPLEX
100
AcDbText
  0
TEXT
  5
18A
330
142
100
AcDbEntity
  8
TRIM
100
AcDbText
 10
0.1075473542991792
 20
0.1075287859488796
 30
0.0
 40
0.14
  1
EXTRA DESC:
 41
0.9
  7
SIMPLEX
100
AcDbText
  0
TEXT
  5
18B
330
142
100
AcDbEntity
  8
TRIM
100
AcDbText
 10
0.1101805216547635
 20
0.7431394110287762
 30
0.0
 40
0.14
  1
PART NUMBER:
 41
0.8
  7
SIMPLEX
100
AcDbText
  0
LINE
  5
18C
330
142
100
AcDbEntity
  8
TRIM
100
AcDbLine
 10
0.0299999985340644
 20
0.6384716413094696
 30
0.0
 11
0.0299999985341133
 21
0.3492358197914696
 31
0.0
  0
LINE
  5
18D
330
142
100
AcDbEntity
  8
TRIM
100
AcDbLine
 10
0.0299999985340644
 20
0.3192358197914693
 30
0.0
 11
0.0299999985341133
 21
0.0299999982734693
 31
0.0
  0
LINE
  5
18E
330
142
100
AcDbEntity
  8
TRIM
100
AcDbLine
 10
0.0299999985340653
 20
0.9577074628274653
 30
0.0
 11
0.0299999985340644
 21
0.6684716413094645
 31
0.0
  0
LINE
  5
18F
330
142
100
AcDbEntity
  8
TRIM
100
AcDbLine
 10
3.342499998534066
 20
0.9577074628274647
 30
0.0
 11
4.093749998534065
 21
0.9577074628274647
 31
0.0
  0
TEXT
  5
190
330
142
100
AcDbEntity
  8
DIM
 62
     1
100
AcDbText
 10
3.539702379486445
 20
0.8537499982734622
 30
0.0
 40
0.08
  1
SHEET
 72
     1
 11
3.718749998534065
 21
0.8537499982734622
 31
0.0
100
AcDbText
  0
LINE
  5
191
330
142
100
AcDbEntity
  8
TRIM
100
AcDbLine
 10
3.342499998534066
 20
0.9577074628274647
 30
0.0
 11
3.342499998534113
 21
0.6684716413094672
 31
0.0
  0
LINE
  5
192
330
142
100
AcDbEntity
  8
TRIM
100
AcDbLine
 10
3.312499998534065
 20
0.9577074628274644
 30
0.0
 11
3.312499998534113
 21
0.6684716413094645
 31
0.0
  0
LINE
  5
193
330
142
100
AcDbEntity
  8
TRIM
100
AcDbLine
 10
4.123749998534062
 20
0.9877074628274638
 30
0.0
 11
4.123749998534114
 21
0.6684716413094672
 31
0.0
  0
LINE
  5
194
330
142
100
AcDbEntity
  8
TRIM
100
AcDbLine
 10
4.093749998534065
 20
0.9577074628274647
 30
0.0
 11
4.093749998534113
 21
0.6684716413094645
 31
0.0
  0
LINE
  5
195
330
142
100
AcDbEntity
  8
TRIM
100
AcDbLine
 10
4.123749998534114
 20
0.6684716413094663
 30
0.0
 11
7.996999998534064
 21
0.6684716413094632
 31
0.0
  0
LINE
  5
196
330
142
100
AcDbEntity
  8
TRIM
100
AcDbLine
 10
9.182094455480024
 20
1.224315403424987
 30
0.0
 11
8.026999998534062
 21
1.224315403424987
 31
0.0
  0
TEXT
  5
197
330
142
100
AcDbEntity
  8
DIM
100
AcDbText
 10
8.043249998534063
 20
0.2653392262302923
 30
0.0
 40
0.056
  1
DIMENSIONS IN 'INCHES' UNLESS SPECIFIED OTHERWISE
100
AcDbText
  0
LINE
  5
198
330
142
100
AcDbEntity
  8
TRIM
100
AcDbLine
 10
9.182094455480005
 20
1.044315403424988
 30
0.0
 11
8.026999998534051
 21
1.044315403424987
 31
0.0
  0
LINE
  5
199
330
142
100
AcDbEntity
  8
TRIM
100
AcDbLine
 10
9.182094455480024
 20
1.194315403424987
 30
0.0
 11
8.026999998534066
 21
1.194315403424987
 31
0.0
  0
LINE
  5
19A
330
142
100
AcDbEntity
  8
TRIM
100
AcDbLine
 10
8.026999998534064
 20
0.0749999982734631
 30
0.0
 11
10.41999999853406
 21
0.0749999982734622
 31
0.0
  0
LINE
  5
19B
330
142
100
AcDbEntity
  8
TRIM
100
AcDbLine
 10
8.026999998534064
 20
0.2249999982734629
 30
0.0
 11
10.41999999853406
 21
0.2249999982734625
 31
0.0
  0
TEXT
  5
19C
330
142
100
AcDbEntity
  8
TRIM
100
AcDbText
 10
8.074563651603105
 20
0.5810145276027239
 30
0.0
 40
0.07
  1
PRINT APPROVED
 41
1.058889550608496
  7
SIMPLEX
 72
     5
 11
9.02403461531539
 21
0.5810145276027239
 31
0.0
100
AcDbText
  0
LINE
  5
19D
330
142
100
AcDbEntity
  8
TRIM
100
AcDbLine
 10
9.182094455480063
 20
0.3543154034249878
 30
0.0
 11
8.026999998534064
 21
0.3543154034249878
 31
0.0
  0
LINE
  5
19E
330
142
100
AcDbEntity
  8
TRIM
 62
     2
100
AcDbLine
 10
9.182094455480012
 20
0.8643154034249874
 30
0.0
 11
8.026999998534064
 21
0.8643154034249874
 31
0.0
  0
LINE
  5
19F
330
142
100
AcDbEntity
  8
TRIM
100
AcDbLine
 10
9.182094455480017
 20
0.6843154034249875
 30
0.0
 11
8.026999998534064
 21
0.684315403424987
 31
0.0
  0
LINE
  5
1A0
330
142
100
AcDbEntity
  8
TRIM
 62
     2
100
AcDbLine
 10
9.182094455480024
 20
0.5457609724770878
 30
0.0
 11
8.026999998534064
 21
0.5457609724770878
 31
0.0
  0
LINE
  5
1A1
330
142
100
AcDbEntity
  8
TRIM
100
AcDbLine
 10
9.182094455480031
 20
0.3543154034249873
 30
0.0
 11
8.026999998534064
 21
0.3543154034249873
 31
0.0
  0
LINE
  5
1A2
330
142
100
AcDbEntity
  8
TRIM
100
AcDbLine
 10
7.996999998534064
 20
0.3492358197914598
 30
0.0
 11
7.996999998534064
 21
0.6384716413094598
 31
0.0
  0
LINE
  5
1A3
330
142
100
AcDbEntity
  8
TRIM
100
AcDbLine
 10
8.026999998534064
 20
0.3543154034249878
 30
0.0
 11
8.026999998534064
 21
0.864315403424988
 31
0.0
  0
TEXT
  5
1A4
330
142
100
AcDbEntity
  8
TRIM
100
AcDbText
 10
8.062499998534065
 20
0.1099999982734623
 30
0.0
 40
0.08
  1
FILE:
  7
SIMPLEX
100
AcDbText
  0
LINE
  5
1A5
330
142
100
AcDbEntity
  8
TRIM
100
AcDbLine
 10
8.026999998534064
 20
0.0749999982734653
 30
0.0
 11
8.099999998534064
 21
0.0749999982734648
 31
0.0
  0
LINE
  5
1A6
330
142
100
AcDbEntity
  8
TRIM
100
AcDbLine
 10
8.026999998534064
 20
0.0749999982734622
 30
0.0
 11
8.026999998534064
 21
0.2249999982734629
 31
0.0
  0
LINE
  5
1A7
330
142
100
AcDbEntity
  8
TRIM
100
AcDbLine
 10
7.996999998534064
 20
0.0299999982734596
 30
0.0
 11
7.996999998534064
 21
0.3192358197914595
 31
0.0
  0
TEXT
  5
1A8
330
142
100
AcDbEntity
  8
TRIM
100
AcDbText
 10
8.074563651603092
 20
0.8995689585506237
 30
0.0
 40
0.07
  1
PRINT DRAWN
 41
1.047995828933662
  7
SIMPLEX
 72
     5
 11
8.811654051286435
 21
0.8995689585506237
 31
0.0
100
AcDbText
  0
TEXT
  5
1A9
330
142
100
AcDbEntity
  8
TRIM
100
AcDbText
 10
8.074583587926003
 20
1.067921744520258
 30
0.0
 40
0.09
  1
SCALE:
  7
SIMPLEX
100
AcDbText
  0
LINE
  5
1AA
330
142
100
AcDbEntity
  8
TRIM
100
AcDbLine
 10
8.026999998534064
 20
0.864315403424988
 30
0.0
 11
8.026999998534064
 21
1.194315403424987
 31
0.0
  0
LINE
  5
1AB
330
142
100
AcDbEntity
  8
TRIM
100
AcDbLine
 10
10.41999999853406
 20
0.3543154034249873
 30
0.0
 11
9.212094455480064
 21
0.3543154034249878
 31
0.0
  0
LINE
  5
1AC
330
142
100
AcDbEntity
  8
TRIM
100
AcDbLine
 10
10.41999999853406
 20
0.0749999982734622
 30
0.0
 11
10.41999999853406
 21
0.2249999982734625
 31
0.0
  0
LINE
  5
1AD
330
142
100
AcDbEntity
  8
TRIM
100
AcDbLine
 10
10.41999999853406
 20
0.684315403424987
 30
0.0
 11
9.212094455480039
 21
0.6843154034249875
 31
0.0
  0
LINE
  5
1AE
330
142
100
AcDbEntity
  8
TRIM
100
AcDbLine
 10
10.41999999853406
 20
0.8643154034249874
 30
0.0
 11
9.212094455480032
 21
0.8643154034249874
 31
0.0
  0
LINE
  5
1AF
330
142
100
AcDbEntity
  8
TRIM
100
AcDbLine
 10
10.41999999853406
 20
1.044315403424987
 30
0.0
 11
9.212094455480025
 21
1.044315403424988
 31
0.0
  0
LINE
  5
1B0
330
142
100
AcDbEntity
  8
TRIM
100
AcDbLine
 10
10.41999999853406
 20
1.224315403424987
 30
0.0
 11
9.212094455480018
 21
1.224315403424987
 31
0.0
  0
TEXT
  5
1B1
330
142
100
AcDbEntity
  8
TRIM
100
AcDbText
 10
9.277645854177304
 20
0.5810145276027239
 30
0.0
 40
0.07
  1
DESIGN ENGINEER
  7
SIMPLEX
100
AcDbText
  0
LINE
  5
1B2
330
142
100
AcDbEntity
  8
TRIM
 62
     2
100
AcDbLine
 10
10.41418891242604
 20
0.5457609724770874
 30
0.0
 11
9.212094455480064
 21
0.5457609724770878
 31
0.0
  0
LINE
  5
1B3
330
142
100
AcDbEntity
  8
TRIM
100
AcDbLine
 10
9.182094455480024
 20
1.194315403424987
 30
0.0
 11
9.182094455480063
 21
0.3543154034249878
 31
0.0
  0
LINE
  5
1B4
330
142
100
AcDbEntity
  8
TRIM
 62
     2
100
AcDbLine
 10
8.736598446570452
 20
0.5457609724770878
 30
0.0
 11
8.73659844657045
 21
0.3543154034249878
 31
0.0
  0
LINE
  5
1B5
330
142
100
AcDbEntity
  8
TRIM
 62
     2
100
AcDbLine
 10
8.736598446570452
 20
0.8643154034249874
 30
0.0
 11
8.736598446570452
 21
0.6843154034249875
 31
0.0
  0
LINE
  5
1B6
330
142
100
AcDbEntity
  8
TRIM
100
AcDbLine
 10
3.342499998534113
 20
0.6684716413094672
 30
0.0
 11
4.093749998534113
 21
0.6684716413094663
 31
0.0
  0
ENDBLK
  5
1B8
330
142
100
AcDbEntity
  8
0
100
AcDbBlockEnd
  0
BLOCK
  5
1BB
330
1B9
100
AcDbEntity
  8
0
100
AcDbBlockBegin
  2
A$C4FB65283
 70
     2
 10
0.0
 20
0.0
 30
0.0
  3
A$C4FB65283
  1

  0
ATTDEF
  5
1BA
330
1B9
100
AcDbEntity
  8
DIM
100
AcDbText
 10
0.0000000025669991
 20
0.0433333427455174
 30
0.0
 40
0.13
  1

  7
SIMPLEX
100
AcDbAttributeDefinition
  3
PART_#
  2
PART_#
 70
     0
  0
ENDBLK
  5
1BC
330
1B9
100
AcDbEntity
  8
0
100
AcDbBlockEnd
  0
BLOCK
  5
1BF
330
1BD
100
AcDbEntity
  8
0
100
AcDbBlockBegin
  2
A$C2BBE0097
 70
     2
 10
0.0
 20
0.0
 30
0.0
  3
A$C2BBE0097
  1

  0
ATTDEF
  5
1BE
330
1BD
100
AcDbEntity
  8
DIM
100
AcDbText
 10
0.0000000025669991
 20
0.0123809372330444
 30
0.0
 40
0.13
  1

  7
SIMPLEX
100
AcDbAttributeDefinition
  3
PART_DESCRIPTION
  2
PART_DESCRIPTION
 70
     0
  0
ENDBLK
  5
1C0
330
1BD
100
AcDbEntity
  8
0
100
AcDbBlockEnd
  0
BLOCK
  5
1C3
330
1C1
100
AcDbEntity
  8
0
100
AcDbBlockBegin
  2
A$C10236829
 70
     2
 10
0.0
 20
0.0
 30
0.0
  3
A$C10236829
  1

  0
ATTDEF
  5
1C2
330
1C1
100
AcDbEntity
  8
DIM
100
AcDbText
 10
0.0000000025669991
 20
0.0123809528212267
 30
0.0
 40
0.13
  1

  7
SIMPLEX
100
AcDbAttributeDefinition
  3
EXTRA_DESCRIPTION
  2
EXTRA_DESCRIPTION
 70
     0
  0
ENDBLK
  5
1C4
330
1C1
100
AcDbEntity
  8
0
100
AcDbBlockEnd
  0
BLOCK
  5
1C7
330
1C5
100
AcDbEntity
  8
0
100
AcDbBlockBegin
  2
A$C794932C0
 70
     2
 10
0.0
 20
0.0
 30
0.0
  3
A$C794932C0
  1

  0
ATTDEF
  5
1C6
330
1C5
100
AcDbEntity
  8
DIM
100
AcDbText
 10
0.2238095347306626
 20
0.0499999881906419
 30
0.0
 40
0.1
  1

  7
SIMPLEX
 72
     4
 11
0.2238095347306626
 21
0.0499999881906419
 31
0.0
100
AcDbAttributeDefinition
  3
SHEET
  2
SHEET
 70
     0
  0
ENDBLK
  5
1C8
330
1C5
100
AcDbEntity
  8
0
100
AcDbBlockEnd
  0
BLOCK
  5
245
330
1C9
100
AcDbEntity
  8
0
100
AcDbBlockBegin
  2
TEST
 70
     2
 10
0.0
 20
0.0
 30
0.0
  3
TEST
  1

  0
INSERT
  5
1CA
330
1C9
100
AcDbEntity
  8
DIM
100
AcDbBlockReference
 66
     1
  2
A$C4FB65283
 10
0.9375
 20
-0.9375
 30
0.0
  0
ATTRIB
  5
1CB
330
1CA
100
AcDbEntity
  8
DIM
100
AcDbText
 10
0.937500002566999
 20
-0.8941666572544825
 30
0.0
 40
0.13
  1

  7
SIMPLEX
100
AcDbAttribute
  2
PART_#
 70
     0
  0
SEQEND
  5
1CC
330
1CA
100
AcDbEntity
  8
DIM
  0
LINE
  5
1CD
330
1C9
100
AcDbEntity
  8
TRIM
100
AcDbLine
 10
10.66999999853406
 20
8.11999999827346
 30
0.0
 11
0.2799999985340644
 21
8.11999999827346
 31
0.0
  0
LINE
  5
1CE
330
1C9
100
AcDbEntity
  8
TRIM
100
AcDbLine
 10
0.2499999985340655
 20
8.149999998273461
 30
0.0
 11
10.69999999853406
 21
8.149999998273461
 31
0.0
  0
LINE
  5
1CF
330
1C9
100
AcDbEntity
  8
TRIM
100
AcDbLine
 10
0.2799999985340644
 20
8.11999999827346
 30
0.0
 11
0.2799999985340651
 21
1.237707462827464
 31
0.0
  0
LINE
  5
1D0
330
1C9
100
AcDbEntity
  8
TRIM
100
AcDbLine
 10
0.2499999985340651
 20
8.149999998273461
 30
0.0
 11
0.2499999985340651
 21
0.249999998273462
 31
0.0
  0
LINE
  5
1D1
330
1C9
100
AcDbEntity
  8
TRIM
100
AcDbLine
 10
10.66999999853406
 20
2.682499998273461
 30
0.0
 11
10.66999999853406
 21
8.119999998273458
 31
0.0
  0
LINE
  5
1D2
330
1C9
100
AcDbEntity
  8
TRIM
100
AcDbLine
 10
10.69999999853406
 20
0.2499999982734593
 30
0.0
 11
10.69999999853406
 21
8.149999998273459
 31
0.0
  0
SOLID
  5
1D3
330
1C9
100
AcDbEntity
  8
SOLID
 62
     1
100
AcDbTrace
 10
9.100645714660327
 20
1.586824719979944
 30
0.0
 11
9.203204583077742
 21
1.779709898068546
 31
0.0
 12
9.094321504076491
 22
1.594775342338473
 32
0.0
 13
9.197606642518891
 23
1.789026435684056
 33
0.0
  0
SOLID
  5
1D4
330
1C9
100
AcDbEntity
  8
SOLID
 62
     1
100
AcDbTrace
 10
8.993633161575985
 20
1.580656234914544
 30
0.0
 11
9.178899857892716
 21
1.80144848583807
 31
0.0
 12
9.085889223298043
 22
1.605376172149846
 32
0.0
 13
9.19014272177376
 23
1.80144848583807
 33
0.0
  0
SOLID
  5
1D5
330
1C9
100
AcDbEntity
  8
SOLID
 62
     1
100
AcDbTrace
 10
9.025982480684099
 20
1.801448485838069
 30
0.0
 11
9.373139625704464
 21
1.894468962492971
 31
0.0
 12
9.323679760929408
 22
1.801448485838069
 32
0.0
 13
9.323679760929408
 23
1.801448485838069
 33
0.0
  0
SOLID
  5
1D6
330
1C9
100
AcDbEntity
  8
SOLID
 62
     1
100
AcDbTrace
 10
9.066585180362723
 20
1.82518819906379
 30
0.0
 11
9.397519865140669
 21
1.913861880597488
 31
0.0
 12
9.084870359939877
 22
1.839732887642179
 32
0.0
 13
9.415805044717822
 23
1.928406569175877
 33
0.0
  0
LINE
  5
1D7
330
1C9
100
AcDbEntity
  8
TRIM
100
AcDbLine
 10
10.66999999853406
 20
2.652499998273461
 30
0.0
 11
8.276999998534064
 21
2.652499998273462
 31
0.0
  0
TEXT
  5
1D8
330
1C9
100
AcDbEntity
  8
TRIM
100
AcDbText
 10
8.343749998534065
 20
2.482876334230538
 30
0.0
 40
0.1
  1
TASK FORCE TIPS, INC.
 51
10.0
  7
ROMAND
100
AcDbText
  0
TEXT
  5
1D9
330
1C9
100
AcDbEntity
  8
TRIM
100
AcDbText
 10
8.378853318574009
 20
2.045200536343402
 30
0.0
 40
0.09
  1
219-462-6161
  7
SIMPLEX
100
AcDbText
  0
TEXT
  5
1DA
330
1C9
100
AcDbEntity
  8
TRIM
 62
     2
100
AcDbText
 10
8.378853318574009
 20
2.195864616217594
 30
0.0
 40
0.09
  1
VALPARAISO, IN 46383
  7
SIMPLEX
100
AcDbText
  0
TEXT
  5
1DB
330
1C9
100
AcDbEntity
  8
TRIM
 62
     2
100
AcDbText
 10
8.378853318574009
 20
2.340582801482295
 30
0.0
 40
0.09
  1
2800 E. EVANS AVE.
  7
SIMPLEX
100
AcDbText
  0
LINE
  5
1DC
330
1C9
100
AcDbEntity
  8
TRIM
100
AcDbLine
 10
10.66999999853406
 20
2.682499998273461
 30
0.0
 11
8.246999998534068
 21
2.682499998273462
 31
0.0
  0
LINE
  5
1DD
330
1C9
100
AcDbEntity
  8
TRIM
100
AcDbLine
 10
8.276999998534062
 20
1.474315403424987
 30
0.0
 11
8.276999998534064
 21
2.652499998273462
 31
0.0
  0
LINE
  5
1DE
330
1C9
100
AcDbEntity
  8
TRIM
100
AcDbLine
 10
8.246999998534064
 20
0.9184716413094635
 30
0.0
 11
8.246999998534068
 21
2.682499998273462
 31
0.0
  0
SOLID
  5
1DF
330
1C9
100
AcDbEntity
  8
SOLID
 62
     1
100
AcDbTrace
 10
8.293289409296239
 20
1.779709898068546
 30
0.0
 11
8.557257975069029
 21
1.779709898068546
 31
0.0
 12
8.364055538205608
 22
1.789026435684056
 32
0.0
 13
8.577237354460679
 23
1.789026435684056
 33
0.0
  0
SOLID
  5
1E0
330
1C9
100
AcDbEntity
  8
SOLID
 62
     1
100
AcDbTrace
 10
8.293289409296239
 20
1.779709898068546
 30
0.0
 11
8.848232940785159
 21
1.928406569175877
 31
0.0
 12
8.364055538205608
 22
1.789026435684056
 32
0.0
 13
8.829947761208007
 23
1.913861880597489
 33
0.0
  0
SOLID
  5
1E1
330
1C9
100
AcDbEntity
  8
SOLID
 62
     1
100
AcDbTrace
 10
8.418609830666147
 20
1.580656234914544
 30
0.0
 11
8.603876526982878
 21
1.801448485838069
 31
0.0
 12
8.510865892388205
 22
1.605376172149845
 32
0.0
 13
8.615119390863922
 23
1.801448485838069
 33
0.0
  0
SOLID
  5
1E2
330
1C9
100
AcDbEntity
  8
SOLID
 62
     1
100
AcDbTrace
 10
8.357639476921409
 20
1.54181383575286
 30
0.0
 11
8.557257975069029
 21
1.779709898068546
 31
0.0
 12
8.383769628526296
 22
1.558460578250724
 32
0.0
 13
8.577237354460679
 23
1.789026435684056
 33
0.0
  0
SOLID
  5
1E3
330
1C9
100
AcDbEntity
  8
SOLID
 62
     1
100
AcDbTrace
 10
8.519298173166653
 20
1.594775342338473
 30
0.0
 11
8.622583311609053
 21
1.789026435684056
 31
0.0
 12
8.525622383750489
 22
1.586824719979944
 32
0.0
 13
8.628181252167903
 23
1.779709898068546
 33
0.0
  0
SOLID
  5
1E4
330
1C9
100
AcDbEntity
  8
SOLID
 62
     1
100
AcDbTrace
 10
8.769123822871026
 20
1.696010323780124
 30
0.0
 11
8.639737606638517
 21
1.54181383575286
 31
0.0
 12
8.78420778556849
 22
1.699492730963093
 32
0.0
 13
8.665867758243402
 23
1.558460578250724
 33
0.0
  0
SOLID
  5
1E5
330
1C9
100
AcDbEntity
  8
SOLID
 62
     1
100
AcDbTrace
 10
8.807720513467595
 20
1.586824719979944
 30
0.0
 11
8.847274694021209
 21
1.661215314162212
 31
0.0
 12
8.801396302883759
 22
1.594775342338473
 32
0.0
 13
8.843127360178915
 23
1.673260046220356
 33
0.0
  0
SOLID
  5
1E6
330
1C9
100
AcDbEntity
  8
SOLID
 62
     1
100
AcDbTrace
 10
9.152260685370517
 20
1.789026435684056
 30
0.0
 11
8.958792959436136
 21
1.558460578250725
 31
0.0
 12
9.132281305978867
 22
1.779709898068546
 32
0.0
 13
8.932662807831249
 23
1.54181383575286
 33
0.0
  0
SOLID
  5
1E7
330
1C9
100
AcDbEntity
  8
SOLID
 62
     1
100
AcDbTrace
 10
8.700707960383251
 20
1.580656234914544
 30
0.0
 11
8.804319735831773
 21
1.704135940540385
 31
0.0
 12
8.79296402210531
 22
1.605376172149845
 32
0.0
 13
8.837597581722521
 23
1.689319688964547
 33
0.0
  0
SOLID
  5
1E8
330
1C9
100
AcDbEntity
  8
SOLID
 62
     1
100
AcDbTrace
 10
8.639737606638517
 20
1.54181383575286
 30
0.0
 11
8.807720513467595
 21
1.586824719979944
 31
0.0
 12
8.665867758243402
 22
1.558460578250724
 32
0.0
 13
8.801396302883759
 23
1.594775342338473
 33
0.0
  0
SOLID
  5
1E9
330
1C9
100
AcDbEntity
  8
SOLID
 62
     1
100
AcDbTrace
 10
8.357639476921409
 20
1.54181383575286
 30
0.0
 11
8.525622383750489
 21
1.586824719979944
 31
0.0
 12
8.383769628526296
 22
1.558460578250724
 32
0.0
 13
8.519298173166653
 23
1.594775342338473
 33
0.0
  0
SOLID
  5
1EA
330
1C9
100
AcDbEntity
  8
SOLID
 62
     1
100
AcDbTrace
 10
8.932662807831249
 20
1.54181383575286
 30
0.0
 11
9.100645714660327
 21
1.586824719979944
 31
0.0
 12
8.958792959436136
 22
1.558460578250725
 32
0.0
 13
9.094321504076491
 23
1.594775342338473
 33
0.0
  0
SOLID
  5
1EB
330
1C9
100
AcDbEntity
  8
SOLID
 62
     1
100
AcDbTrace
 10
8.458410376751436
 20
1.801448485838069
 30
0.0
 11
8.805567521771804
 21
1.894468962492971
 31
0.0
 12
8.756107656996745
 22
1.801448485838069
 32
0.0
 13
8.756107656996745
 23
1.801448485838069
 33
0.0
  0
SOLID
  5
1EC
330
1C9
100
AcDbEntity
  8
SOLID
 62
     1
100
AcDbTrace
 10
8.622583311609053
 20
1.789026435684056
 30
0.0
 11
8.859335484177783
 21
1.789026435684056
 31
0.0
 12
8.628181252167903
 22
1.779709898068546
 32
0.0
 13
8.839356104786135
 23
1.779709898068546
 33
0.0
  0
SOLID
  5
1ED
330
1C9
100
AcDbEntity
  8
SOLID
 62
     1
100
AcDbTrace
 10
8.822168427478533
 20
1.759226421888862
 30
0.0
 11
8.707090830046876
 21
1.723629191620975
 31
0.0
 12
8.827542130581782
 22
1.751136592315402
 32
0.0
 13
8.733530452159383
 23
1.722055733491771
 33
0.0
  0
SOLID
  5
1EE
330
1C9
100
AcDbEntity
  8
SOLID
 62
     1
100
AcDbTrace
 10
8.707090830046876
 20
1.723629191620975
 30
0.0
 11
8.769123822871026
 21
1.696010323780124
 31
0.0
 12
8.733530452159383
 22
1.722055733491771
 32
0.0
 13
8.78420778556849
 23
1.699492730963093
 33
0.0
  0
SOLID
  5
1EF
330
1C9
100
AcDbEntity
  8
SOLID
 62
     1
100
AcDbTrace
 10
8.742196428717766
 20
1.801448485838069
 30
0.0
 11
9.089353573738133
 21
1.894468962492971
 31
0.0
 12
9.039893708963075
 22
1.801448485838069
 32
0.0
 13
9.039893708963075
 23
1.801448485838069
 33
0.0
  0
SOLID
  5
1F0
330
1C9
100
AcDbEntity
  8
SOLID
 62
     1
100
AcDbTrace
 10
8.960751962356022
 20
1.789026435684056
 30
0.0
 11
9.152260685370517
 21
1.789026435684056
 31
0.0
 12
8.96634990291487
 22
1.779709898068546
 32
0.0
 13
9.132281305978867
 23
1.779709898068546
 33
0.0
  0
SOLID
  5
1F1
330
1C9
100
AcDbEntity
  8
SOLID
 62
     1
100
AcDbTrace
 10
8.801084307973546
 20
1.839732887642179
 30
0.0
 11
9.13201899275149
 21
1.928406569175877
 31
0.0
 12
8.782799128396392
 22
1.825188199063791
 32
0.0
 13
9.113733813174338
 23
1.913861880597489
 33
0.0
  0
SOLID
  5
1F2
330
1C9
100
AcDbEntity
  8
SOLID
 62
     1
100
AcDbTrace
 10
8.782799128396392
 20
1.825188199063791
 30
0.0
 11
8.829947761208007
 21
1.913861880597489
 31
0.0
 12
8.801084307973546
 22
1.839732887642179
 32
0.0
 13
8.848232940785159
 23
1.928406569175877
 33
0.0
  0
SOLID
  5
1F3
330
1C9
100
AcDbEntity
  8
SOLID
 62
     1
100
AcDbTrace
 10
8.843127360178915
 20
1.673260046220356
 30
0.0
 11
8.888464998265758
 21
1.653074429219956
 31
0.0
 12
8.847274694021209
 22
1.661215314162212
 32
0.0
 13
8.892612332108052
 23
1.641029697161812
 33
0.0
  0
SOLID
  5
1F4
330
1C9
100
AcDbEntity
  8
SOLID
 62
     1
100
AcDbTrace
 10
8.768783281642729
 20
1.7199577893195
 30
0.0
 11
8.937749358113208
 21
1.772224472547337
 31
0.0
 12
8.882935219809365
 22
1.669134071964148
 32
0.0
 13
8.882935219809365
 23
1.669134071964148
 33
0.0
  0
SOLID
  5
1F5
330
1C9
100
AcDbEntity
  8
SOLID
 62
     1
100
AcDbTrace
 10
8.834707068052781
 20
1.740350152884122
 30
0.0
 11
8.885974656699984
 21
1.801448485838069
 31
0.0
 12
8.870641230585929
 22
1.751465753893571
 32
0.0
 13
8.897217520581028
 23
1.801448485838069
 33
0.0
  0
SOLID
  5
1F6
330
1C9
100
AcDbEntity
  8
SOLID
 62
     1
100
AcDbTrace
 10
8.839356104786135
 20
1.779709898068546
 30
0.0
 11
8.822168427478533
 21
1.759226421888862
 31
0.0
 12
8.859335484177783
 22
1.789026435684056
 32
0.0
 13
8.827542130581782
 23
1.751136592315402
 33
0.0
  0
SOLID
  5
1F7
330
1C9
100
AcDbEntity
  8
SOLID
 62
     1
100
AcDbTrace
 10
8.888464998265758
 20
1.653074429219956
 30
0.0
 11
8.960751962356022
 21
1.789026435684056
 31
0.0
 12
8.892612332108052
 22
1.641029697161812
 32
0.0
 13
8.96634990291487
 23
1.779709898068546
 33
0.0
  0
SOLID
  5
1F8
330
1C9
100
AcDbEntity
  8
SOLID
 62
     1
100
AcDbTrace
 10
8.895754237745254
 20
1.772236807647912
 30
0.0
 11
8.95003121496035
 21
1.789026435684056
 31
0.0
 12
8.904681441326159
 22
1.789026435684056
 32
0.0
 13
8.904681441326159
 23
1.789026435684056
 33
0.0
  0
SOLID
  5
1F9
330
1C9
100
AcDbEntity
  8
SOLID
 62
     1
100
AcDbTrace
 10
9.066585180362723
 20
1.82518819906379
 30
0.0
 11
9.113733813174338
 21
1.913861880597489
 31
0.0
 12
9.084870359939877
 22
1.839732887642179
 32
0.0
 13
9.13201899275149
 23
1.928406569175877
 33
0.0
  0
LINE
  5
1FA
330
1C9
100
AcDbEntity
  8
TRIM
100
AcDbLine
 10
10.66999999853406
 20
2.030339596352224
 30
0.0
 11
10.66999999853406
 21
2.652499998273461
 31
0.0
  0
LINE
  5
1FB
330
1C9
100
AcDbEntity
  8
TRIM
100
AcDbLine
 10
9.462094455479999
 20
2.000339596352224
 30
0.0
 11
9.462094455480064
 21
0.6043154034249878
 31
0.0
  0
LINE
  5
1FC
330
1C9
100
AcDbEntity
  8
TRIM
100
AcDbLine
 10
10.66999999853406
 20
0.6043154034249874
 30
0.0
 11
10.66999999853406
 21
2.000339596352224
 31
0.0
  0
LINE
  5
1FD
330
1C9
100
AcDbEntity
  8
TRIM
100
AcDbLine
 10
9.462094455479999
 20
2.000339596352224
 30
0.0
 11
10.66999999853406
 21
2.000339596352224
 31
0.0
  0
LINE
  5
1FE
330
1C9
100
AcDbEntity
  8
TRIM
100
AcDbLine
 10
9.432094455479997
 20
2.030339596352224
 30
0.0
 11
10.66999999853406
 21
2.030339596352224
 31
0.0
  0
TEXT
  5
1FF
330
1C9
100
AcDbEntity
  8
DIM
100
AcDbText
 10
9.821579664239893
 20
1.865565403424988
 30
0.0
 40
0.09
  1
DATE
 41
0.9
 72
     1
 11
9.964293949954178
 21
1.865565403424988
 31
0.0
100
AcDbText
  0
LINE
  5
200
330
1C9
100
AcDbEntity
  8
TRIM
100
AcDbLine
 10
10.24446826441905
 20
1.834315403424988
 30
0.0
 11
9.684119635489306
 21
1.834315403424988
 31
0.0
  0
LINE
  5
201
330
1C9
100
AcDbEntity
  8
TRIM
100
AcDbLine
 10
10.66999999853406
 20
1.654315403424988
 30
0.0
 11
9.462094455480011
 21
1.654315403424988
 31
0.0
  0
LINE
  5
202
330
1C9
100
AcDbEntity
  8
TRIM
100
AcDbLine
 10
9.684119635489306
 20
2.000339596352224
 30
0.0
 11
9.684119635489302
 21
0.9343154034249874
 31
0.0
  0
LINE
  5
203
330
1C9
100
AcDbEntity
  8
TRIM
100
AcDbLine
 10
9.432094455479997
 20
2.030339596352224
 30
0.0
 11
9.432094455480022
 21
1.474315403424987
 31
0.0
  0
TEXT
  5
204
330
1C9
100
AcDbEntity
  8
DIM
100
AcDbText
 10
9.477107045484656
 20
1.865565403424988
 30
0.0
 40
0.09
  1
REV
 41
0.8
 72
     1
 11
9.573107045484656
 21
1.865565403424988
 31
0.0
100
AcDbText
  0
LINE
  5
205
330
1C9
100
AcDbEntity
  8
TRIM
100
AcDbLine
 10
9.684119635489306
 20
1.834315403424988
 30
0.0
 11
9.462094455480006
 21
1.834315403424988
 31
0.0
  0
SOLID
  5
206
330
1C9
100
AcDbEntity
  8
SOLID
 62
     1
100
AcDbTrace
 10
9.336741622233388
 20
1.779709898068546
 30
0.0
 11
9.415805044717822
 21
1.928406569175877
 31
0.0
 12
9.331143681674539
 22
1.789026435684056
 32
0.0
 13
9.397519865140669
 23
1.913861880597488
 33
0.0
  0
SOLID
  5
207
330
1C9
100
AcDbEntity
  8
SOLID
 62
     1
100
AcDbTrace
 10
9.203204583077742
 20
1.779709898068546
 30
0.0
 11
9.336741622233388
 21
1.779709898068546
 31
0.0
 12
9.197606642518891
 22
1.789026435684056
 32
0.0
 13
9.331143681674539
 23
1.789026435684056
 33
0.0
  0
LINE
  5
208
330
1C9
100
AcDbEntity
  8
TRIM
100
AcDbLine
 10
10.24446826441905
 20
2.000339596352224
 30
0.0
 11
10.24446826441905
 21
0.934315403424987
 31
0.0
  0
TEXT
  5
209
330
1C9
100
AcDbEntity
  8
DIM
100
AcDbText
 10
10.2605817160691
 20
1.865565403424988
 30
0.0
 40
0.09
  1
INITIALS
 41
0.8
 72
     1
 11
10.46115314464053
 21
1.865565403424988
 31
0.0
100
AcDbText
  0
LINE
  5
20A
330
1C9
100
AcDbEntity
  8
TRIM
100
AcDbLine
 10
10.66999999853406
 20
1.834315403424988
 30
0.0
 11
10.24446826441905
 21
1.834315403424988
 31
0.0
  0
LINE
  5
20B
330
1C9
100
AcDbEntity
  8
TRIM
100
AcDbLine
 10
0.2799999985341133
 20
0.5992358197914696
 30
0.0
 11
8.246999998534064
 21
0.5992358197914634
 31
0.0
  0
LINE
  5
20C
330
1C9
100
AcDbEntity
  8
TRIM
100
AcDbLine
 10
0.2799999985340644
 20
0.8884716413094695
 30
0.0
 11
8.246999998534064
 21
0.8884716413094633
 31
0.0
  0
LINE
  5
20D
330
1C9
100
AcDbEntity
  8
TRIM
100
AcDbLine
 10
0.2499999985340651
 20
0.249999998273462
 30
0.0
 11
10.69999999853406
 21
0.2499999982734629
 31
0.0
  0
LINE
  5
20E
330
1C9
100
AcDbEntity
  8
TRIM
100
AcDbLine
 10
0.2799999985340644
 20
0.5692358197914693
 30
0.0
 11
8.246999998534064
 21
0.5692358197914627
 31
0.0
  0
LINE
  5
20F
330
1C9
100
AcDbEntity
  8
TRIM
100
AcDbLine
 10
0.2799999985341133
 20
0.2799999982734693
 30
0.0
 11
8.246999998534064
 21
0.2799999982734627
 31
0.0
  0
LINE
  5
210
330
1C9
100
AcDbEntity
  8
TRIM
100
AcDbLine
 10
0.2799999985340651
 20
1.237707462827464
 30
0.0
 11
4.373749998534062
 21
1.237707462827463
 31
0.0
  0
LINE
  5
211
330
1C9
100
AcDbEntity
  8
TRIM
100
AcDbLine
 10
0.2799999985341142
 20
1.207707462827464
 30
0.0
 11
3.562499998534065
 21
1.207707462827464
 31
0.0
  0
LINE
  5
212
330
1C9
100
AcDbEntity
  8
TRIM
100
AcDbLine
 10
0.2799999985340644
 20
0.9184716413094644
 30
0.0
 11
3.562499998534113
 21
0.9184716413094644
 31
0.0
  0
TEXT
  5
213
330
1C9
100
AcDbEntity
  8
TRIM
100
AcDbText
 10
0.3575473542991792
 20
0.6700287859488796
 30
0.0
 40
0.14
  1
DESCRIPTION:
 41
0.9
  7
SIMPLEX
100
AcDbText
  0
TEXT
  5
214
330
1C9
100
AcDbEntity
  8
TRIM
100
AcDbText
 10
0.3575473542991792
 20
0.3575287859488796
 30
0.0
 40
0.14
  1
EXTRA DESC:
 41
0.9
  7
SIMPLEX
100
AcDbText
  0
TEXT
  5
215
330
1C9
100
AcDbEntity
  8
TRIM
100
AcDbText
 10
0.3601805216547635
 20
0.9931394110287762
 30
0.0
 40
0.14
  1
PART NUMBER:
 41
0.8
  7
SIMPLEX
100
AcDbText
  0
LINE
  5
216
330
1C9
100
AcDbEntity
  8
TRIM
100
AcDbLine
 10
0.2799999985340644
 20
0.8884716413094695
 30
0.0
 11
0.2799999985341133
 21
0.5992358197914696
 31
0.0
  0
LINE
  5
217
330
1C9
100
AcDbEntity
  8
TRIM
100
AcDbLine
 10
0.2799999985340644
 20
0.5692358197914693
 30
0.0
 11
0.2799999985341133
 21
0.2799999982734693
 31
0.0
  0
LINE
  5
218
330
1C9
100
AcDbEntity
  8
TRIM
100
AcDbLine
 10
0.2799999985340653
 20
1.207707462827465
 30
0.0
 11
0.2799999985340644
 21
0.9184716413094644
 31
0.0
  0
LINE
  5
219
330
1C9
100
AcDbEntity
  8
TRIM
100
AcDbLine
 10
3.592499998534066
 20
1.207707462827464
 30
0.0
 11
4.343749998534065
 21
1.207707462827464
 31
0.0
  0
TEXT
  5
21A
330
1C9
100
AcDbEntity
  8
DIM
 62
     1
100
AcDbText
 10
3.789702379486445
 20
1.103749998273462
 30
0.0
 40
0.08
  1
SHEET
 72
     1
 11
3.968749998534065
 21
1.103749998273462
 31
0.0
100
AcDbText
  0
LINE
  5
21B
330
1C9
100
AcDbEntity
  8
TRIM
100
AcDbLine
 10
3.592499998534066
 20
1.207707462827464
 30
0.0
 11
3.592499998534113
 21
0.9184716413094671
 31
0.0
  0
LINE
  5
21C
330
1C9
100
AcDbEntity
  8
TRIM
100
AcDbLine
 10
3.562499998534065
 20
1.207707462827464
 30
0.0
 11
3.562499998534113
 21
0.9184716413094644
 31
0.0
  0
LINE
  5
21D
330
1C9
100
AcDbEntity
  8
TRIM
100
AcDbLine
 10
4.373749998534062
 20
1.237707462827463
 30
0.0
 11
4.373749998534114
 21
0.9184716413094671
 31
0.0
  0
LINE
  5
21E
330
1C9
100
AcDbEntity
  8
TRIM
100
AcDbLine
 10
4.343749998534065
 20
1.207707462827464
 30
0.0
 11
4.343749998534113
 21
0.9184716413094644
 31
0.0
  0
LINE
  5
21F
330
1C9
100
AcDbEntity
  8
TRIM
100
AcDbLine
 10
4.373749998534114
 20
0.9184716413094662
 30
0.0
 11
8.246999998534064
 21
0.918471641309463
 31
0.0
  0
LINE
  5
220
330
1C9
100
AcDbEntity
  8
TRIM
100
AcDbLine
 10
9.432094455480024
 20
1.474315403424987
 30
0.0
 11
8.276999998534062
 21
1.474315403424987
 31
0.0
  0
TEXT
  5
221
330
1C9
100
AcDbEntity
  8
DIM
100
AcDbText
 10
8.293249998534063
 20
0.5153392262302923
 30
0.0
 40
0.056
  1
DIMENSIONS IN 'INCHES' UNLESS SPECIFIED OTHERWISE
100
AcDbText
  0
LINE
  5
222
330
1C9
100
AcDbEntity
  8
TRIM
100
AcDbLine
 10
9.432094455480005
 20
1.294315403424988
 30
0.0
 11
8.276999998534051
 21
1.294315403424987
 31
0.0
  0
LINE
  5
223
330
1C9
100
AcDbEntity
  8
TRIM
100
AcDbLine
 10
9.432094455480024
 20
1.444315403424987
 30
0.0
 11
8.276999998534066
 21
1.444315403424987
 31
0.0
  0
LINE
  5
224
330
1C9
100
AcDbEntity
  8
TRIM
100
AcDbLine
 10
8.276999998534064
 20
0.324999998273463
 30
0.0
 11
10.66999999853406
 21
0.3249999982734621
 31
0.0
  0
LINE
  5
225
330
1C9
100
AcDbEntity
  8
TRIM
100
AcDbLine
 10
8.276999998534064
 20
0.474999998273463
 30
0.0
 11
10.66999999853406
 21
0.4749999982734625
 31
0.0
  0
TEXT
  5
226
330
1C9
100
AcDbEntity
  8
TRIM
100
AcDbText
 10
8.324563651603105
 20
0.8310145276027238
 30
0.0
 40
0.07
  1
PRINT APPROVED
 41
1.058889550608496
  7
SIMPLEX
 72
     5
 11
9.27403461531539
 21
0.8310145276027238
 31
0.0
100
AcDbText
  0
LINE
  5
227
330
1C9
100
AcDbEntity
  8
TRIM
100
AcDbLine
 10
9.432094455480063
 20
0.6043154034249878
 30
0.0
 11
8.276999998534064
 21
0.6043154034249878
 31
0.0
  0
LINE
  5
228
330
1C9
100
AcDbEntity
  8
TRIM
 62
     2
100
AcDbLine
 10
9.432094455480012
 20
1.114315403424987
 30
0.0
 11
8.276999998534064
 21
1.114315403424987
 31
0.0
  0
LINE
  5
229
330
1C9
100
AcDbEntity
  8
TRIM
100
AcDbLine
 10
9.432094455480017
 20
0.9343154034249874
 30
0.0
 11
8.276999998534064
 21
0.934315403424987
 31
0.0
  0
LINE
  5
22A
330
1C9
100
AcDbEntity
  8
TRIM
 62
     2
100
AcDbLine
 10
9.432094455480024
 20
0.7957609724770878
 30
0.0
 11
8.276999998534064
 21
0.7957609724770878
 31
0.0
  0
LINE
  5
22B
330
1C9
100
AcDbEntity
  8
TRIM
100
AcDbLine
 10
9.432094455480031
 20
0.6043154034249874
 30
0.0
 11
8.276999998534064
 21
0.6043154034249874
 31
0.0
  0
LINE
  5
22C
330
1C9
100
AcDbEntity
  8
TRIM
100
AcDbLine
 10
8.246999998534064
 20
0.5992358197914598
 30
0.0
 11
8.246999998534064
 21
0.8884716413094597
 31
0.0
  0
LINE
  5
22D
330
1C9
100
AcDbEntity
  8
TRIM
100
AcDbLine
 10
8.276999998534064
 20
0.6043154034249878
 30
0.0
 11
8.276999998534064
 21
1.114315403424988
 31
0.0
  0
TEXT
  5
22E
330
1C9
100
AcDbEntity
  8
TRIM
100
AcDbText
 10
8.312499998534065
 20
0.3599999982734623
 30
0.0
 40
0.08
  1
FILE:
  7
SIMPLEX
100
AcDbText
  0
LINE
  5
22F
330
1C9
100
AcDbEntity
  8
TRIM
100
AcDbLine
 10
8.276999998534064
 20
0.3249999982734653
 30
0.0
 11
8.349999998534064
 21
0.3249999982734648
 31
0.0
  0
LINE
  5
230
330
1C9
100
AcDbEntity
  8
TRIM
100
AcDbLine
 10
8.276999998534064
 20
0.3249999982734621
 30
0.0
 11
8.276999998534064
 21
0.474999998273463
 31
0.0
  0
LINE
  5
231
330
1C9
100
AcDbEntity
  8
TRIM
100
AcDbLine
 10
8.246999998534064
 20
0.2799999982734596
 30
0.0
 11
8.246999998534064
 21
0.5692358197914596
 31
0.0
  0
TEXT
  5
232
330
1C9
100
AcDbEntity
  8
TRIM
100
AcDbText
 10
8.324563651603092
 20
1.149568958550623
 30
0.0
 40
0.07
  1
PRINT DRAWN
 41
1.047995828933661
  7
SIMPLEX
 72
     5
 11
9.061654051286435
 21
1.149568958550623
 31
0.0
100
AcDbText
  0
TEXT
  5
233
330
1C9
100
AcDbEntity
  8
TRIM
100
AcDbText
 10
8.324583587926003
 20
1.317921744520258
 30
0.0
 40
0.09
  1
SCALE:
  7
SIMPLEX
100
AcDbText
  0
LINE
  5
234
330
1C9
100
AcDbEntity
  8
TRIM
100
AcDbLine
 10
8.276999998534064
 20
1.114315403424988
 30
0.0
 11
8.276999998534064
 21
1.444315403424987
 31
0.0
  0
LINE
  5
235
330
1C9
100
AcDbEntity
  8
TRIM
100
AcDbLine
 10
10.66999999853406
 20
0.6043154034249874
 30
0.0
 11
9.462094455480064
 21
0.6043154034249878
 31
0.0
  0
LINE
  5
236
330
1C9
100
AcDbEntity
  8
TRIM
100
AcDbLine
 10
10.66999999853406
 20
0.3249999982734621
 30
0.0
 11
10.66999999853406
 21
0.4749999982734625
 31
0.0
  0
LINE
  5
237
330
1C9
100
AcDbEntity
  8
TRIM
100
AcDbLine
 10
10.66999999853406
 20
0.934315403424987
 30
0.0
 11
9.462094455480039
 21
0.9343154034249874
 31
0.0
  0
LINE
  5
238
330
1C9
100
AcDbEntity
  8
TRIM
100
AcDbLine
 10
10.66999999853406
 20
1.114315403424987
 30
0.0
 11
9.462094455480032
 21
1.114315403424987
 31
0.0
  0
LINE
  5
239
330
1C9
100
AcDbEntity
  8
TRIM
100
AcDbLine
 10
10.66999999853406
 20
1.294315403424987
 30
0.0
 11
9.462094455480025
 21
1.294315403424988
 31
0.0
  0
LINE
  5
23A
330
1C9
100
AcDbEntity
  8
TRIM
100
AcDbLine
 10
10.66999999853406
 20
1.474315403424987
 30
0.0
 11
9.462094455480018
 21
1.474315403424987
 31
0.0
  0
TEXT
  5
23B
330
1C9
100
AcDbEntity
  8
TRIM
100
AcDbText
 10
9.527645854177304
 20
0.8310145276027238
 30
0.0
 40
0.07
  1
DESIGN ENGINEER
  7
SIMPLEX
100
AcDbText
  0
LINE
  5
23C
330
1C9
100
AcDbEntity
  8
TRIM
 62
     2
100
AcDbLine
 10
10.66418891242604
 20
0.7957609724770874
 30
0.0
 11
9.462094455480064
 21
0.7957609724770878
 31
0.0
  0
LINE
  5
23D
330
1C9
100
AcDbEntity
  8
TRIM
100
AcDbLine
 10
9.432094455480024
 20
1.444315403424987
 30
0.0
 11
9.432094455480063
 21
0.6043154034249878
 31
0.0
  0
LINE
  5
23E
330
1C9
100
AcDbEntity
  8
TRIM
 62
     2
100
AcDbLine
 10
8.986598446570452
 20
0.7957609724770878
 30
0.0
 11
8.98659844657045
 21
0.6043154034249878
 31
0.0
  0
LINE
  5
23F
330
1C9
100
AcDbEntity
  8
TRIM
 62
     2
100
AcDbLine
 10
8.986598446570452
 20
1.114315403424987
 30
0.0
 11
8.986598446570452
 21
0.9343154034249874
 31
0.0
  0
LINE
  5
240
330
1C9
100
AcDbEntity
  8
TRIM
100
AcDbLine
 10
3.592499998534113
 20
0.9184716413094671
 30
0.0
 11
4.343749998534113
 21
0.9184716413094662
 31
0.0
  0
ATTDEF
  5
241
330
1C9
100
AcDbEntity
  8
DIM
100
AcDbText
 10
1.748750001101063
 20
0.9930549840549819
 30
0.0
 40
0.13
  1

  7
SIMPLEX
100
AcDbAttributeDefinition
  3
PART_#
  2
PART_#
 70
     0
  0
ATTDEF
  5
242
330
1C9
100
AcDbEntity
  8
DIM
100
AcDbText
 10
1.754683743625886
 20
0.6688693887053426
 30
0.0
 40
0.13
  1

  7
SIMPLEX
100
AcDbAttributeDefinition
  3
PART_DESCRIPTION
  2
PART_DESCRIPTION
 70
     0
  0
ATTDEF
  5
243
330
1C9
100
AcDbEntity
  8
DIM
100
AcDbText
 10
1.75
 20
0.3555424452224223
 30
0.0
 40
0.13
  1

  7
SIMPLEX
100
AcDbAttributeDefinition
  3
EXTRA_DESCRIPTION
  2
EXTRA_DESCRIPTION
 70
     0
  0
ATTDEF
  5
244
330
1C9
100
AcDbEntity
  8
DIM
100
AcDbText
 10
3.96875
 20
1.0
 30
0.0
 40
0.1
  1

  7
SIMPLEX
 72
     4
 11
3.96875
 21
1.0
 31
0.0
100
AcDbAttributeDefinition
  3
SHEET
  2
SHEET
 70
     0
  0
ENDBLK
  5
246
330
1C9
100
AcDbEntity
  8
0
100
AcDbBlockEnd
  0
BLOCK
  5
249
330
247
100
AcDbEntity
  8
0
100
AcDbBlockBegin
  2
A$C56887695
 70
     2
 10
0.0
 20
0.0
 30
0.0
  3
A$C56887695
  1

  0
ATTDEF
  5
248
330
247
100
AcDbEntity
  8
DIM
100
AcDbText
 10
0.0000000016510064
 20
0.0076190448079387
 30
0.0
 40
0.08
  1

  7
SIMPLEX
100
AcDbAttributeDefinition
  3
FILE_NAME
  2
FILE_NAME
 70
     0
  0
ENDBLK
  5
24A
330
247
100
AcDbEntity
  8
0
100
AcDbBlockEnd
  0
BLOCK
  5
24D
330
24B
100
AcDbEntity
  8
0
100
AcDbBlockBegin
  2
A$C406F4052
 70
     2
 10
0.0
 20
0.0
 30
0.0
  3
A$C406F4052
  1

  0
ATTDEF
  5
24C
330
24B
100
AcDbEntity
  8
DIM
100
AcDbText
 10
0.0000000097657775
 20
0.0000000059644165
 30
0.0
 40
0.08
  1

  7
SIMPLEX
100
AcDbAttributeDefinition
  3
DRAWING_SCALE
  2
SCALE
 70
     0
  0
ENDBLK
  5
24E
330
24B
100
AcDbEntity
  8
0
100
AcDbBlockEnd
  0
BLOCK
  5
251
330
24F
100
AcDbEntity
  8
0
100
AcDbBlockBegin
  2
A$C217D2A32
 70
     2
 10
0.0
 20
0.0
 30
0.0
  3
A$C217D2A32
  1

  0
ATTDEF
  5
250
330
24F
100
AcDbEntity
  8
DIM
100
AcDbText
 10
0.1409523881144832
 20
0.0400000152139821
 30
0.0
 40
0.08
  1

  7
SIMPLEX
 72
     4
 11
0.1409523881144832
 21
0.0400000152139821
 31
0.0
100
AcDbAttributeDefinition
  3
DATE_DRAWN
  2
DATE
 70
     0
  0
ENDBLK
  5
252
330
24F
100
AcDbEntity
  8
0
100
AcDbBlockEnd
  0
BLOCK
  5
255
330
253
100
AcDbEntity
  8
0
100
AcDbBlockBegin
  2
A$C26835032
 70
     2
 10
0.0
 20
0.0
 30
0.0
  3
A$C26835032
  1

  0
ATTDEF
  5
254
330
253
100
AcDbEntity
  8
DIM
100
AcDbText
 10
0.1504761941594115
 20
0.0400000152139821
 30
0.0
 40
0.08
  1

  7
SIMPLEX
 72
     4
 11
0.1504761941594115
 21
0.0400000152139821
 31
0.0
100
AcDbAttributeDefinition
  3
DRAWN_BY?
  2
WHO?
 70
     0
  0
ENDBLK
  5
256
330
253
100
AcDbEntity
  8
0
100
AcDbBlockEnd
  0
BLOCK
  5
259
330
257
100
AcDbEntity
  8
0
100
AcDbBlockBegin
  2
A$C11730435
 70
     2
 10
0.0
 20
0.0
 30
0.0
  3
A$C11730435
  1

  0
ATTDEF
  5
258
330
257
100
AcDbEntity
  8
DIM
100
AcDbText
 10
0.1542857245995872
 20
0.0399999866443972
 30
0.0
 40
0.08
  1

  7
SCRIPT
 72
     4
 11
0.1542857245995872
 21
0.0399999866443972
 31
0.0
100
AcDbAttributeDefinition
  3
DATE_APPROVED
  2
DATE
 70
     0
  0
ENDBLK
  5
25A
330
257
100
AcDbEntity
  8
0
100
AcDbBlockEnd
  0
BLOCK
  5
25D
330
25B
100
AcDbEntity
  8
0
100
AcDbBlockBegin
  2
A$C740A492C
 70
     2
 10
0.0
 20
0.0
 30
0.0
  3
A$C740A492C
  1

  0
ATTDEF
  5
25C
330
25B
100
AcDbEntity
  8
DIM
100
AcDbText
 10
0.1676190447818424
 20
0.0399999866443968
 30
0.0
 40
0.08
  1

  7
SCRIPT
 72
     4
 11
0.1676190447818424
 21
0.0399999866443968
 31
0.0
100
AcDbAttributeDefinition
  3
APPROVED_BY?
  2
WHO?
 70
     0
  0
ENDBLK
  5
25E
330
25B
100
AcDbEntity
  8
0
100
AcDbBlockEnd
  0
BLOCK
  5
261
330
25F
100
AcDbEntity
  8
0
100
AcDbBlockBegin
  2
A$C251463E3
 70
     2
 10
0.0
 20
0.0
 30
0.0
  3
A$C251463E3
  1

  0
ATTDEF
  5
260
330
25F
100
AcDbEntity
  8
DIM
100
AcDbText
 10
-0.0076190422628919
 20
-0.0000000133556033
 30
0.0
 40
0.08
  1

  7
SCRIPT
 11
-0.0076190422628919
 21
0.0399999866443968
 31
0.0
100
AcDbAttributeDefinition
  3
ENGINEER_IN_CHARGE
  2
WHO?
 70
     0
 74
     2
  0
ENDBLK
  5
262
330
25F
100
AcDbEntity
  8
0
100
AcDbBlockEnd
  0
BLOCK
  5
265
330
263
100
AcDbEntity
  8
0
100
AcDbBlockBegin
  2
A$C46507260
 70
     0
 10
0.0
 20
0.0
 30
0.0
  3
A$C46507260
  1

  0
TEXT
  5
264
330
263
100
AcDbEntity
  8
DIM
100
AcDbText
 10
0.0000000011396958
 20
0.0000000091671084
 30
0.0
 40
0.04
  1
F04-0001-01 REV. 00
 72
     2
 11
0.6933333344730297
 21
0.0000000091671084
 31
0.0
100
AcDbText
  0
ENDBLK
  5
266
330
263
100
AcDbEntity
  8
0
100
AcDbBlockEnd
  0
BLOCK
  5
2F6
330
272
100
AcDbEntity
  8
0
100
AcDbBlockBegin
  2
TFT_APRLIST
 70
     2
 10
0.0
 20
0.0
 30
0.0
  3
TFT_APRLIST
  1

  0
INSERT
  5
273
330
272
100
AcDbEntity
  8
DIM
100
AcDbBlockReference
 66
     1
  2
A$C4FB65283
 10
0.9375
 20
-0.9375
 30
0.0
  0
ATTRIB
  5
274
330
273
100
AcDbEntity
  8
DIM
100
AcDbText
 10
0.937500002566999
 20
-0.8941666572544825
 30
0.0
 40
0.13
  1

  7
SIMPLEX
100
AcDbAttribute
  2
PART_#
 70
     0
  0
SEQEND
  5
275
330
273
100
AcDbEntity
  8
DIM
  0
LINE
  5
276
330
272
100
AcDbEntity
  8
TRIM
100
AcDbLine
 10
10.42
 20
3.919999999999998
 30
0.0
 11
0.0299999999999994
 21
3.919999999999998
 31
0.0
  0
LINE
  5
277
330
272
100
AcDbEntity
  8
TRIM
100
AcDbLine
 10
0.0000000000000004
 20
3.949999999999999
 30
0.0
 11
10.45
 21
3.949999999999999
 31
0.0
  0
LINE
  5
278
330
272
100
AcDbEntity
  8
TRIM
100
AcDbLine
 10
0.0299999999999994
 20
3.919999999999998
 30
0.0
 11
0.0300000000000001
 21
-2.962292535445997
 31
0.0
  0
LINE
  5
279
330
272
100
AcDbEntity
  8
TRIM
100
AcDbLine
 10
0.0
 20
3.949999999999999
 30
0.0
 11
0.0
 21
-3.95
 31
0.0
  0
LINE
  5
27A
330
272
100
AcDbEntity
  8
TRIM
100
AcDbLine
 10
10.42
 20
-1.5175
 30
0.0
 11
10.42
 21
3.919999999999996
 31
0.0
  0
LINE
  5
27B
330
272
100
AcDbEntity
  8
TRIM
100
AcDbLine
 10
10.45
 20
-3.950000000000002
 30
0.0
 11
10.45
 21
3.949999999999997
 31
0.0
  0
SOLID
  5
27C
330
272
100
AcDbEntity
  8
SOLID
 62
     1
100
AcDbTrace
 10
8.850645716126262
 20
-2.583175278293517
 30
0.0
 11
8.953204584543676
 21
-2.390290100204915
 31
0.0
 12
8.844321505542426
 22
-2.575224655934988
 32
0.0
 13
8.947606643984826
 23
-2.380973562589405
 33
0.0
  0
SOLID
  5
27D
330
272
100
AcDbEntity
  8
SOLID
 62
     1
100
AcDbTrace
 10
8.74363316304192
 20
-2.589343763358917
 30
0.0
 11
8.928899859358651
 21
-2.368551512435391
 31
0.0
 12
8.835889224763977
 22
-2.564623826123615
 32
0.0
 13
8.940142723239695
 23
-2.368551512435391
 33
0.0
  0
SOLID
  5
27E
330
272
100
AcDbEntity
  8
SOLID
 62
     1
100
AcDbTrace
 10
8.775982482150034
 20
-2.368551512435392
 30
0.0
 11
9.123139627170399
 21
-2.27553103578049
 31
0.0
 12
9.073679762395343
 22
-2.368551512435391
 32
0.0
 13
9.073679762395343
 23
-2.368551512435391
 33
0.0
  0
SOLID
  5
27F
330
272
100
AcDbEntity
  8
SOLID
 62
     1
100
AcDbTrace
 10
8.816585181828658
 20
-2.344811799209671
 30
0.0
 11
9.147519866606604
 21
-2.256138117675972
 31
0.0
 12
8.834870361405812
 22
-2.330267110631282
 32
0.0
 13
9.165805046183757
 23
-2.241593429097584
 33
0.0
  0
LINE
  5
280
330
272
100
AcDbEntity
  8
TRIM
100
AcDbLine
 10
10.42
 20
-1.5475
 30
0.0
 11
8.026999999999999
 21
-1.547499999999999
 31
0.0
  0
TEXT
  5
281
330
272
100
AcDbEntity
  8
TRIM
100
AcDbText
 10
8.09375
 20
-1.717123664042923
 30
0.0
 40
0.1
  1
TASK FORCE TIPS, INC.
 51
10.0
  7
ROMAND
100
AcDbText
  0
TEXT
  5
282
330
272
100
AcDbEntity
  8
TRIM
100
AcDbText
 10
8.128853320039944
 20
-2.15479946193006
 30
0.0
 40
0.09
  1
219-462-6161
  7
SIMPLEX
100
AcDbText
  0
TEXT
  5
283
330
272
100
AcDbEntity
  8
TRIM
 62
     2
100
AcDbText
 10
8.128853320039944
 20
-2.004135382055867
 30
0.0
 40
0.09
  1
VALPARAISO, IN 46383
  7
SIMPLEX
100
AcDbText
  0
TEXT
  5
284
330
272
100
AcDbEntity
  8
TRIM
 62
     2
100
AcDbText
 10
8.128853320039944
 20
-1.859417196791166
 30
0.0
 40
0.09
  1
2800 E. EVANS AVE.
  7
SIMPLEX
100
AcDbText
  0
LINE
  5
285
330
272
100
AcDbEntity
  8
TRIM
100
AcDbLine
 10
10.42
 20
-1.5175
 30
0.0
 11
7.997000000000003
 21
-1.5175
 31
0.0
  0
LINE
  5
286
330
272
100
AcDbEntity
  8
TRIM
100
AcDbLine
 10
8.026999999999997
 20
-2.695684594848474
 30
0.0
 11
8.026999999999999
 21
-1.547499999999999
 31
0.0
  0
LINE
  5
287
330
272
100
AcDbEntity
  8
TRIM
100
AcDbLine
 10
7.996999999999999
 20
-3.281528356963998
 30
0.0
 11
7.997000000000003
 21
-1.5175
 31
0.0
  0
SOLID
  5
288
330
272
100
AcDbEntity
  8
SOLID
 62
     1
100
AcDbTrace
 10
8.043289410762174
 20
-2.390290100204915
 30
0.0
 11
8.307257976534964
 21
-2.390290100204915
 31
0.0
 12
8.114055539671543
 22
-2.380973562589405
 32
0.0
 13
8.327237355926614
 23
-2.380973562589405
 33
0.0
  0
SOLID
  5
289
330
272
100
AcDbEntity
  8
SOLID
 62
     1
100
AcDbTrace
 10
8.043289410762174
 20
-2.390290100204915
 30
0.0
 11
8.598232942251094
 21
-2.241593429097584
 31
0.0
 12
8.114055539671543
 22
-2.380973562589405
 32
0.0
 13
8.579947762673942
 23
-2.256138117675972
 33
0.0
  0
SOLID
  5
28A
330
272
100
AcDbEntity
  8
SOLID
 62
     1
100
AcDbTrace
 10
8.168609832132082
 20
-2.589343763358917
 30
0.0
 11
8.353876528448813
 21
-2.368551512435391
 31
0.0
 12
8.260865893854139
 22
-2.564623826123616
 32
0.0
 13
8.365119392329857
 23
-2.368551512435391
 33
0.0
  0
SOLID
  5
28B
330
272
100
AcDbEntity
  8
SOLID
 62
     1
100
AcDbTrace
 10
8.107639478387344
 20
-2.628186162520601
 30
0.0
 11
8.307257976534964
 21
-2.390290100204915
 31
0.0
 12
8.133769629992231
 22
-2.611539420022737
 32
0.0
 13
8.327237355926614
 23
-2.380973562589405
 33
0.0
  0
SOLID
  5
28C
330
272
100
AcDbEntity
  8
SOLID
 62
     1
100
AcDbTrace
 10
8.269298174632588
 20
-2.575224655934988
 30
0.0
 11
8.372583313074988
 21
-2.380973562589405
 31
0.0
 12
8.275622385216424
 22
-2.583175278293517
 32
0.0
 13
8.378181253633838
 23
-2.390290100204915
 33
0.0
  0
SOLID
  5
28D
330
272
100
AcDbEntity
  8
SOLID
 62
     1
100
AcDbTrace
 10
8.519123824336961
 20
-2.473989674493337
 30
0.0
 11
8.389737608104452
 21
-2.628186162520601
 31
0.0
 12
8.534207787034425
 22
-2.470507267310368
 32
0.0
 13
8.415867759709337
 23
-2.611539420022737
 33
0.0
  0
SOLID
  5
28E
330
272
100
AcDbEntity
  8
SOLID
 62
     1
100
AcDbTrace
 10
8.55772051493353
 20
-2.583175278293517
 30
0.0
 11
8.597274695487143
 21
-2.508784684111249
 31
0.0
 12
8.551396304349694
 22
-2.575224655934988
 32
0.0
 13
8.59312736164485
 23
-2.496739952053105
 33
0.0
  0
SOLID
  5
28F
330
272
100
AcDbEntity
  8
SOLID
 62
     1
100
AcDbTrace
 10
8.902260686836452
 20
-2.380973562589405
 30
0.0
 11
8.708792960902071
 21
-2.611539420022736
 31
0.0
 12
8.882281307444802
 22
-2.390290100204915
 32
0.0
 13
8.682662809297184
 23
-2.628186162520601
 33
0.0
  0
SOLID
  5
290
330
272
100
AcDbEntity
  8
SOLID
 62
     1
100
AcDbTrace
 10
8.450707961849186
 20
-2.589343763358917
 30
0.0
 11
8.554319737297708
 21
-2.465864057733076
 31
0.0
 12
8.542964023571245
 22
-2.564623826123616
 32
0.0
 13
8.587597583188456
 23
-2.480680309308914
 33
0.0
  0
SOLID
  5
291
330
272
100
AcDbEntity
  8
SOLID
 62
     1
100
AcDbTrace
 10
8.389737608104452
 20
-2.628186162520601
 30
0.0
 11
8.55772051493353
 21
-2.583175278293517
 31
0.0
 12
8.415867759709337
 22
-2.611539420022737
 32
0.0
 13
8.551396304349694
 23
-2.575224655934988
 33
0.0
  0
SOLID
  5
292
330
272
100
AcDbEntity
  8
SOLID
 62
     1
100
AcDbTrace
 10
8.107639478387344
 20
-2.628186162520601
 30
0.0
 11
8.275622385216424
 21
-2.583175278293517
 31
0.0
 12
8.133769629992231
 22
-2.611539420022737
 32
0.0
 13
8.269298174632588
 23
-2.575224655934988
 33
0.0
  0
SOLID
  5
293
330
272
100
AcDbEntity
  8
SOLID
 62
     1
100
AcDbTrace
 10
8.682662809297184
 20
-2.628186162520601
 30
0.0
 11
8.850645716126262
 21
-2.583175278293517
 31
0.0
 12
8.708792960902071
 22
-2.611539420022736
 32
0.0
 13
8.844321505542426
 23
-2.575224655934988
 33
0.0
  0
SOLID
  5
294
330
272
100
AcDbEntity
  8
SOLID
 62
     1
100
AcDbTrace
 10
8.20841037821737
 20
-2.368551512435391
 30
0.0
 11
8.555567523237739
 21
-2.27553103578049
 31
0.0
 12
8.50610765846268
 22
-2.368551512435391
 32
0.0
 13
8.50610765846268
 23
-2.368551512435391
 33
0.0
  0
SOLID
  5
295
330
272
100
AcDbEntity
  8
SOLID
 62
     1
100
AcDbTrace
 10
8.372583313074988
 20
-2.380973562589405
 30
0.0
 11
8.609335485643718
 21
-2.380973562589405
 31
0.0
 12
8.378181253633838
 22
-2.390290100204915
 32
0.0
 13
8.58935610625207
 23
-2.390290100204915
 33
0.0
  0
SOLID
  5
296
330
272
100
AcDbEntity
  8
SOLID
 62
     1
100
AcDbTrace
 10
8.572168428944468
 20
-2.410773576384599
 30
0.0
 11
8.457090831512811
 21
-2.446370806652486
 31
0.0
 12
8.577542132047717
 22
-2.418863405958059
 32
0.0
 13
8.483530453625318
 23
-2.44794426478169
 33
0.0
  0
SOLID
  5
297
330
272
100
AcDbEntity
  8
SOLID
 62
     1
100
AcDbTrace
 10
8.457090831512811
 20
-2.446370806652486
 30
0.0
 11
8.519123824336961
 21
-2.473989674493337
 31
0.0
 12
8.483530453625318
 22
-2.44794426478169
 32
0.0
 13
8.534207787034425
 23
-2.470507267310368
 33
0.0
  0
SOLID
  5
298
330
272
100
AcDbEntity
  8
SOLID
 62
     1
100
AcDbTrace
 10
8.492196430183701
 20
-2.368551512435392
 30
0.0
 11
8.839353575204068
 21
-2.27553103578049
 31
0.0
 12
8.78989371042901
 22
-2.368551512435391
 32
0.0
 13
8.78989371042901
 23
-2.368551512435391
 33
0.0
  0
SOLID
  5
299
330
272
100
AcDbEntity
  8
SOLID
 62
     1
100
AcDbTrace
 10
8.710751963821957
 20
-2.380973562589405
 30
0.0
 11
8.902260686836452
 21
-2.380973562589405
 31
0.0
 12
8.716349904380805
 22
-2.390290100204915
 32
0.0
 13
8.882281307444802
 23
-2.390290100204915
 33
0.0
  0
SOLID
  5
29A
330
272
100
AcDbEntity
  8
SOLID
 62
     1
100
AcDbTrace
 10
8.551084309439481
 20
-2.330267110631282
 30
0.0
 11
8.882018994217425
 21
-2.241593429097584
 31
0.0
 12
8.532799129862327
 22
-2.34481179920967
 32
0.0
 13
8.863733814640273
 23
-2.256138117675972
 33
0.0
  0
SOLID
  5
29B
330
272
100
AcDbEntity
  8
SOLID
 62
     1
100
AcDbTrace
 10
8.532799129862327
 20
-2.34481179920967
 30
0.0
 11
8.579947762673942
 21
-2.256138117675972
 31
0.0
 12
8.551084309439481
 22
-2.330267110631282
 32
0.0
 13
8.598232942251094
 23
-2.241593429097584
 33
0.0
  0
SOLID
  5
29C
330
272
100
AcDbEntity
  8
SOLID
 62
     1
100
AcDbTrace
 10
8.59312736164485
 20
-2.496739952053105
 30
0.0
 11
8.638464999731693
 21
-2.516925569053505
 31
0.0
 12
8.597274695487143
 22
-2.508784684111249
 32
0.0
 13
8.642612333573987
 23
-2.528970301111649
 33
0.0
  0
SOLID
  5
29D
330
272
100
AcDbEntity
  8
SOLID
 62
     1
100
AcDbTrace
 10
8.518783283108664
 20
-2.450042208953961
 30
0.0
 11
8.687749359579143
 21
-2.397775525726124
 31
0.0
 12
8.6329352212753
 22
-2.500865926309313
 32
0.0
 13
8.6329352212753
 23
-2.500865926309313
 33
0.0
  0
SOLID
  5
29E
330
272
100
AcDbEntity
  8
SOLID
 62
     1
100
AcDbTrace
 10
8.584707069518715
 20
-2.429649845389338
 30
0.0
 11
8.635974658165919
 21
-2.368551512435391
 31
0.0
 12
8.620641232051864
 22
-2.41853424437989
 32
0.0
 13
8.647217522046963
 23
-2.368551512435391
 33
0.0
  0
SOLID
  5
29F
330
272
100
AcDbEntity
  8
SOLID
 62
     1
100
AcDbTrace
 10
8.58935610625207
 20
-2.390290100204915
 30
0.0
 11
8.572168428944468
 21
-2.410773576384599
 31
0.0
 12
8.609335485643718
 22
-2.380973562589405
 32
0.0
 13
8.577542132047717
 23
-2.418863405958059
 33
0.0
  0
SOLID
  5
2A0
330
272
100
AcDbEntity
  8
SOLID
 62
     1
100
AcDbTrace
 10
8.638464999731693
 20
-2.516925569053505
 30
0.0
 11
8.710751963821957
 21
-2.380973562589405
 31
0.0
 12
8.642612333573987
 22
-2.528970301111649
 32
0.0
 13
8.716349904380805
 23
-2.390290100204915
 33
0.0
  0
SOLID
  5
2A1
330
272
100
AcDbEntity
  8
SOLID
 62
     1
100
AcDbTrace
 10
8.645754239211189
 20
-2.397763190625549
 30
0.0
 11
8.700031216426285
 21
-2.380973562589405
 31
0.0
 12
8.654681442792094
 22
-2.380973562589405
 32
0.0
 13
8.654681442792094
 23
-2.380973562589405
 33
0.0
  0
SOLID
  5
2A2
330
272
100
AcDbEntity
  8
SOLID
 62
     1
100
AcDbTrace
 10
8.816585181828658
 20
-2.344811799209671
 30
0.0
 11
8.863733814640273
 21
-2.256138117675972
 31
0.0
 12
8.834870361405812
 22
-2.330267110631282
 32
0.0
 13
8.882018994217425
 23
-2.241593429097584
 33
0.0
  0
LINE
  5
2A3
330
272
100
AcDbEntity
  8
TRIM
100
AcDbLine
 10
10.42
 20
-2.169660401921237
 30
0.0
 11
10.42
 21
-1.5475
 31
0.0
  0
LINE
  5
2A4
330
272
100
AcDbEntity
  8
TRIM
100
AcDbLine
 10
9.212094456945933
 20
-2.199660401921237
 30
0.0
 11
9.212094456945999
 21
-3.595684594848474
 31
0.0
  0
LINE
  5
2A5
330
272
100
AcDbEntity
  8
TRIM
100
AcDbLine
 10
10.42
 20
-3.595684594848474
 30
0.0
 11
10.42
 21
-2.199660401921237
 31
0.0
  0
LINE
  5
2A6
330
272
100
AcDbEntity
  8
TRIM
100
AcDbLine
 10
9.212094456945933
 20
-2.199660401921237
 30
0.0
 11
10.42
 21
-2.199660401921237
 31
0.0
  0
LINE
  5
2A7
330
272
100
AcDbEntity
  8
TRIM
100
AcDbLine
 10
9.182094456945932
 20
-2.169660401921237
 30
0.0
 11
10.42
 21
-2.169660401921237
 31
0.0
  0
TEXT
  5
2A8
330
272
100
AcDbEntity
  8
DIM
100
AcDbText
 10
9.571579665705828
 20
-2.334434594848473
 30
0.0
 40
0.09
  1
DATE
 41
0.9
 72
     1
 11
9.714293951420113
 21
-2.334434594848473
 31
0.0
100
AcDbText
  0
LINE
  5
2A9
330
272
100
AcDbEntity
  8
TRIM
100
AcDbLine
 10
9.994468265884984
 20
-2.365684594848473
 30
0.0
 11
9.434119636955241
 21
-2.365684594848473
 31
0.0
  0
LINE
  5
2AA
330
272
100
AcDbEntity
  8
TRIM
100
AcDbLine
 10
10.42
 20
-2.545684594848474
 30
0.0
 11
9.212094456945946
 21
-2.545684594848474
 31
0.0
  0
LINE
  5
2AB
330
272
100
AcDbEntity
  8
TRIM
100
AcDbLine
 10
9.434119636955241
 20
-2.199660401921237
 30
0.0
 11
9.434119636955237
 21
-3.265684594848474
 31
0.0
  0
LINE
  5
2AC
330
272
100
AcDbEntity
  8
TRIM
100
AcDbLine
 10
9.182094456945932
 20
-2.169660401921237
 30
0.0
 11
9.182094456945957
 21
-2.695684594848474
 31
0.0
  0
TEXT
  5
2AD
330
272
100
AcDbEntity
  8
DIM
100
AcDbText
 10
9.227107046950591
 20
-2.334434594848473
 30
0.0
 40
0.09
  1
REV
 41
0.8
 72
     1
 11
9.323107046950591
 21
-2.334434594848473
 31
0.0
100
AcDbText
  0
LINE
  5
2AE
330
272
100
AcDbEntity
  8
TRIM
100
AcDbLine
 10
9.434119636955241
 20
-2.365684594848473
 30
0.0
 11
9.212094456945941
 21
-2.365684594848473
 31
0.0
  0
SOLID
  5
2AF
330
272
100
AcDbEntity
  8
SOLID
 62
     1
100
AcDbTrace
 10
9.086741623699323
 20
-2.390290100204915
 30
0.0
 11
9.165805046183757
 21
-2.241593429097584
 31
0.0
 12
9.081143683140474
 22
-2.380973562589405
 32
0.0
 13
9.147519866606604
 23
-2.256138117675972
 33
0.0
  0
SOLID
  5
2B0
330
272
100
AcDbEntity
  8
SOLID
 62
     1
100
AcDbTrace
 10
8.953204584543676
 20
-2.390290100204915
 30
0.0
 11
9.086741623699323
 21
-2.390290100204915
 31
0.0
 12
8.947606643984826
 22
-2.380973562589405
 32
0.0
 13
9.081143683140474
 23
-2.380973562589405
 33
0.0
  0
LINE
  5
2B1
330
272
100
AcDbEntity
  8
TRIM
100
AcDbLine
 10
9.994468265884982
 20
-2.199660401921237
 30
0.0
 11
9.994468265884982
 21
-3.265684594848475
 31
0.0
  0
TEXT
  5
2B2
330
272
100
AcDbEntity
  8
DIM
100
AcDbText
 10
10.01058171753503
 20
-2.334434594848473
 30
0.0
 40
0.09
  1
INITIALS
 41
0.8
 72
     1
 11
10.21115314610646
 21
-2.334434594848473
 31
0.0
100
AcDbText
  0
LINE
  5
2B3
330
272
100
AcDbEntity
  8
TRIM
100
AcDbLine
 10
10.42
 20
-2.365684594848473
 30
0.0
 11
9.994468265884984
 21
-2.365684594848473
 31
0.0
  0
LINE
  5
2B4
330
272
100
AcDbEntity
  8
TRIM
100
AcDbLine
 10
0.0300000000000482
 20
-3.600764178481992
 30
0.0
 11
7.996999999999999
 21
-3.600764178481998
 31
0.0
  0
LINE
  5
2B5
330
272
100
AcDbEntity
  8
TRIM
100
AcDbLine
 10
0.0299999999999994
 20
-3.311528356963992
 30
0.0
 11
7.996999999999999
 21
-3.311528356963998
 31
0.0
  0
LINE
  5
2B6
330
272
100
AcDbEntity
  8
TRIM
100
AcDbLine
 10
0.0
 20
-3.95
 30
0.0
 11
10.45
 21
-3.949999999999999
 31
0.0
  0
LINE
  5
2B7
330
272
100
AcDbEntity
  8
TRIM
100
AcDbLine
 10
0.0299999999999994
 20
-3.630764178481992
 30
0.0
 11
7.996999999999999
 21
-3.630764178481999
 31
0.0
  0
LINE
  5
2B8
330
272
100
AcDbEntity
  8
TRIM
100
AcDbLine
 10
0.0300000000000482
 20
-3.919999999999992
 30
0.0
 11
7.996999999999999
 21
-3.919999999999999
 31
0.0
  0
LINE
  5
2B9
330
272
100
AcDbEntity
  8
TRIM
100
AcDbLine
 10
0.0300000000000001
 20
-2.962292535445997
 30
0.0
 11
4.123749999999997
 21
-2.962292535445998
 31
0.0
  0
LINE
  5
2BA
330
272
100
AcDbEntity
  8
TRIM
100
AcDbLine
 10
0.0300000000000491
 20
-2.992292535445997
 30
0.0
 11
3.3125
 21
-2.992292535445997
 31
0.0
  0
LINE
  5
2BB
330
272
100
AcDbEntity
  8
TRIM
100
AcDbLine
 10
0.0299999999999994
 20
-3.281528356963997
 30
0.0
 11
3.312500000000048
 21
-3.281528356963997
 31
0.0
  0
TEXT
  5
2BC
330
272
100
AcDbEntity
  8
TRIM
100
AcDbText
 10
0.1075473557651141
 20
-3.529971212324582
 30
0.0
 40
0.14
  1
DESCRIPTION:
 41
0.9
  7
SIMPLEX
100
AcDbText
  0
TEXT
  5
2BD
330
272
100
AcDbEntity
  8
TRIM
100
AcDbText
 10
0.1075473557651141
 20
-3.842471212324582
 30
0.0
 40
0.14
  1
EXTRA DESC:
 41
0.9
  7
SIMPLEX
100
AcDbText
  0
TEXT
  5
2BE
330
272
100
AcDbEntity
  8
TRIM
100
AcDbText
 10
0.1101805231206985
 20
-3.206860587244686
 30
0.0
 40
0.14
  1
PART NUMBER:
 41
0.8
  7
SIMPLEX
100
AcDbText
  0
LINE
  5
2BF
330
272
100
AcDbEntity
  8
TRIM
100
AcDbLine
 10
0.0299999999999994
 20
-3.311528356963992
 30
0.0
 11
0.0300000000000482
 21
-3.600764178481992
 31
0.0
  0
LINE
  5
2C0
330
272
100
AcDbEntity
  8
TRIM
100
AcDbLine
 10
0.0299999999999994
 20
-3.630764178481992
 30
0.0
 11
0.0300000000000482
 21
-3.919999999999992
 31
0.0
  0
LINE
  5
2C1
330
272
100
AcDbEntity
  8
TRIM
100
AcDbLine
 10
0.0300000000000003
 20
-2.992292535445996
 30
0.0
 11
0.0299999999999994
 21
-3.281528356963997
 31
0.0
  0
LINE
  5
2C2
330
272
100
AcDbEntity
  8
TRIM
100
AcDbLine
 10
3.342500000000001
 20
-2.992292535445997
 30
0.0
 11
4.09375
 21
-2.992292535445997
 31
0.0
  0
TEXT
  5
2C3
330
272
100
AcDbEntity
  8
DIM
 62
     1
100
AcDbText
 10
3.53970238095238
 20
-3.096249999999999
 30
0.0
 40
0.08
  1
SHEET
 72
     1
 11
3.71875
 21
-3.096249999999999
 31
0.0
100
AcDbText
  0
LINE
  5
2C4
330
272
100
AcDbEntity
  8
TRIM
100
AcDbLine
 10
3.342500000000001
 20
-2.992292535445997
 30
0.0
 11
3.342500000000048
 21
-3.281528356963995
 31
0.0
  0
LINE
  5
2C5
330
272
100
AcDbEntity
  8
TRIM
100
AcDbLine
 10
3.3125
 20
-2.992292535445997
 30
0.0
 11
3.312500000000048
 21
-3.281528356963997
 31
0.0
  0
LINE
  5
2C6
330
272
100
AcDbEntity
  8
TRIM
100
AcDbLine
 10
4.123749999999997
 20
-2.962292535445998
 30
0.0
 11
4.123750000000049
 21
-3.281528356963995
 31
0.0
  0
LINE
  5
2C7
330
272
100
AcDbEntity
  8
TRIM
100
AcDbLine
 10
4.09375
 20
-2.992292535445997
 30
0.0
 11
4.093750000000048
 21
-3.281528356963997
 31
0.0
  0
LINE
  5
2C8
330
272
100
AcDbEntity
  8
TRIM
100
AcDbLine
 10
4.123750000000049
 20
-3.281528356963995
 30
0.0
 11
7.996999999999999
 21
-3.281528356963999
 31
0.0
  0
LINE
  5
2C9
330
272
100
AcDbEntity
  8
TRIM
100
AcDbLine
 10
9.182094456945959
 20
-2.695684594848474
 30
0.0
 11
8.026999999999997
 21
-2.695684594848474
 31
0.0
  0
TEXT
  5
2CA
330
272
100
AcDbEntity
  8
DIM
100
AcDbText
 10
8.043249999999998
 20
-3.684660772043169
 30
0.0
 40
0.056
  1
DIMENSIONS IN 'INCHES' UNLESS SPECIFIED OTHERWISE
100
AcDbText
  0
LINE
  5
2CB
330
272
100
AcDbEntity
  8
TRIM
100
AcDbLine
 10
9.182094456945939
 20
-2.905684594848473
 30
0.0
 11
8.026999999999986
 21
-2.905684594848474
 31
0.0
  0
LINE
  5
2CC
330
272
100
AcDbEntity
  8
TRIM
100
AcDbLine
 10
9.182094456945959
 20
-2.725684594848474
 30
0.0
 11
8.027000000000001
 21
-2.725684594848474
 31
0.0
  0
LINE
  5
2CD
330
272
100
AcDbEntity
  8
TRIM
100
AcDbLine
 10
8.026999999999999
 20
-3.874999999999999
 30
0.0
 11
10.42
 21
-3.875
 31
0.0
  0
LINE
  5
2CE
330
272
100
AcDbEntity
  8
TRIM
100
AcDbLine
 10
8.026999999999999
 20
-3.724999999999999
 30
0.0
 11
10.42
 21
-3.724999999999999
 31
0.0
  0
TEXT
  5
2CF
330
272
100
AcDbEntity
  8
TRIM
100
AcDbText
 10
8.07456365306904
 20
-3.368985470670738
 30
0.0
 40
0.07
  1
PRINT APPROVED
 41
1.058889550608496
  7
SIMPLEX
 72
     5
 11
9.024034616781325
 21
-3.368985470670738
 31
0.0
100
AcDbText
  0
LINE
  5
2D0
330
272
100
AcDbEntity
  8
TRIM
100
AcDbLine
 10
9.182094456945998
 20
-3.595684594848474
 30
0.0
 11
8.026999999999999
 21
-3.595684594848474
 31
0.0
  0
LINE
  5
2D1
330
272
100
AcDbEntity
  8
TRIM
 62
     2
100
AcDbLine
 10
9.182094456945947
 20
-3.085684594848474
 30
0.0
 11
8.026999999999999
 21
-3.085684594848474
 31
0.0
  0
LINE
  5
2D2
330
272
100
AcDbEntity
  8
TRIM
100
AcDbLine
 10
9.182094456945952
 20
-3.265684594848474
 30
0.0
 11
8.026999999999999
 21
-3.265684594848475
 31
0.0
  0
LINE
  5
2D3
330
272
100
AcDbEntity
  8
TRIM
 62
     2
100
AcDbLine
 10
9.182094456945959
 20
-3.404239025796374
 30
0.0
 11
8.026999999999999
 21
-3.404239025796374
 31
0.0
  0
LINE
  5
2D4
330
272
100
AcDbEntity
  8
TRIM
100
AcDbLine
 10
9.182094456945966
 20
-3.595684594848474
 30
0.0
 11
8.026999999999999
 21
-3.595684594848474
 31
0.0
  0
LINE
  5
2D5
330
272
100
AcDbEntity
  8
TRIM
100
AcDbLine
 10
7.996999999999999
 20
-3.600764178482002
 30
0.0
 11
7.996999999999999
 21
-3.311528356964002
 31
0.0
  0
LINE
  5
2D6
330
272
100
AcDbEntity
  8
TRIM
100
AcDbLine
 10
8.026999999999999
 20
-3.595684594848474
 30
0.0
 11
8.026999999999999
 21
-3.085684594848474
 31
0.0
  0
TEXT
  5
2D7
330
272
100
AcDbEntity
  8
TRIM
100
AcDbText
 10
8.0625
 20
-3.839999999999999
 30
0.0
 40
0.08
  1
FILE:
  7
SIMPLEX
100
AcDbText
  0
LINE
  5
2D8
330
272
100
AcDbEntity
  8
TRIM
100
AcDbLine
 10
8.026999999999999
 20
-3.874999999999996
 30
0.0
 11
8.099999999999999
 21
-3.874999999999997
 31
0.0
  0
LINE
  5
2D9
330
272
100
AcDbEntity
  8
TRIM
100
AcDbLine
 10
8.026999999999999
 20
-3.875
 30
0.0
 11
8.026999999999999
 21
-3.724999999999999
 31
0.0
  0
LINE
  5
2DA
330
272
100
AcDbEntity
  8
TRIM
100
AcDbLine
 10
7.996999999999999
 20
-3.920000000000002
 30
0.0
 11
7.996999999999999
 21
-3.630764178482002
 31
0.0
  0
TEXT
  5
2DB
330
272
100
AcDbEntity
  8
TRIM
100
AcDbText
 10
8.074563653069027
 20
-3.050431039722838
 30
0.0
 40
0.07
  1
PRINT DRAWN
 41
1.047995828933662
  7
SIMPLEX
 72
     5
 11
8.81165405275237
 21
-3.050431039722838
 31
0.0
100
AcDbText
  0
TEXT
  5
2DC
330
272
100
AcDbEntity
  8
TRIM
100
AcDbText
 10
8.074583589391938
 20
-2.867078253753203
 30
0.0
 40
0.09
  1
SCALE:
  7
SIMPLEX
100
AcDbText
  0
LINE
  5
2DD
330
272
100
AcDbEntity
  8
TRIM
100
AcDbLine
 10
8.026999999999999
 20
-3.085684594848474
 30
0.0
 11
8.026999999999999
 21
-2.725684594848474
 31
0.0
  0
LINE
  5
2DE
330
272
100
AcDbEntity
  8
TRIM
100
AcDbLine
 10
10.42
 20
-3.595684594848474
 30
0.0
 11
9.212094456945999
 21
-3.595684594848474
 31
0.0
  0
LINE
  5
2DF
330
272
100
AcDbEntity
  8
TRIM
100
AcDbLine
 10
10.42
 20
-3.875
 30
0.0
 11
10.42
 21
-3.724999999999999
 31
0.0
  0
LINE
  5
2E0
330
272
100
AcDbEntity
  8
TRIM
100
AcDbLine
 10
10.42
 20
-3.265684594848475
 30
0.0
 11
9.212094456945974
 21
-3.265684594848474
 31
0.0
  0
LINE
  5
2E1
330
272
100
AcDbEntity
  8
TRIM
100
AcDbLine
 10
10.42
 20
-3.085684594848474
 30
0.0
 11
9.212094456945967
 21
-3.085684594848474
 31
0.0
  0
LINE
  5
2E2
330
272
100
AcDbEntity
  8
TRIM
100
AcDbLine
 10
10.42
 20
-2.905684594848474
 30
0.0
 11
9.21209445694596
 21
-2.905684594848473
 31
0.0
  0
LINE
  5
2E3
330
272
100
AcDbEntity
  8
TRIM
100
AcDbLine
 10
10.42
 20
-2.725684594848474
 30
0.0
 11
9.212094456945953
 21
-2.725684594848474
 31
0.0
  0
TEXT
  5
2E4
330
272
100
AcDbEntity
  8
TRIM
100
AcDbText
 10
9.277645855643239
 20
-3.368985470670738
 30
0.0
 40
0.07
  1
DESIGN ENGINEER
  7
SIMPLEX
100
AcDbText
  0
LINE
  5
2E5
330
272
100
AcDbEntity
  8
TRIM
 62
     2
100
AcDbLine
 10
10.41418891389197
 20
-3.404239025796374
 30
0.0
 11
9.212094456945999
 21
-3.404239025796374
 31
0.0
  0
LINE
  5
2E6
330
272
100
AcDbEntity
  8
TRIM
100
AcDbLine
 10
9.182094456945959
 20
-2.725684594848474
 30
0.0
 11
9.182094456945998
 21
-3.595684594848474
 31
0.0
  0
LINE
  5
2E7
330
272
100
AcDbEntity
  8
TRIM
 62
     2
100
AcDbLine
 10
8.736598448036387
 20
-3.404239025796374
 30
0.0
 11
8.736598448036385
 21
-3.595684594848474
 31
0.0
  0
LINE
  5
2E8
330
272
100
AcDbEntity
  8
TRIM
 62
     2
100
AcDbLine
 10
8.736598448036387
 20
-3.085684594848474
 30
0.0
 11
8.736598448036387
 21
-3.265684594848474
 31
0.0
  0
LINE
  5
2E9
330
272
100
AcDbEntity
  8
TRIM
100
AcDbLine
 10
3.342500000000048
 20
-3.281528356963995
 30
0.0
 11
4.093750000000047
 21
-3.281528356963995
 31
0.0
  0
ATTDEF
  5
2EA
330
272
100
AcDbEntity
  8
DIM
100
AcDbText
 10
1.498750002566998
 20
-3.20694501421848
 30
0.0
 40
0.13
  1

  7
SIMPLEX
100
AcDbAttributeDefinition
  3
PART_#
  2
PART_#
 70
     0
  0
ATTDEF
  5
2EB
330
272
100
AcDbEntity
  8
DIM
100
AcDbText
 10
1.504683745091821
 20
-3.531130609568119
 30
0.0
 40
0.13
  1

  7
SIMPLEX
100
AcDbAttributeDefinition
  3
PART_DESCRIPTION
  2
PART_DESCRIPTION
 70
     0
  0
ATTDEF
  5
2EC
330
272
100
AcDbEntity
  8
DIM
100
AcDbText
 10
1.500000001465934
 20
-3.844457553051039
 30
0.0
 40
0.13
  1

  7
SIMPLEX
100
AcDbAttributeDefinition
  3
EXTRA_DESCRIPTION
  2
EXTRA_DESCRIPTION
 70
     0
  0
ATTDEF
  5
2ED
330
272
100
AcDbEntity
  8
DIM
100
AcDbText
 10
3.718750001465934
 20
-3.199999998273462
 30
0.0
 40
0.1
  1

  7
SIMPLEX
 72
     4
 11
3.718750001465934
 21
-3.199999998273462
 31
0.0
100
AcDbAttributeDefinition
  3
SHEET
  2
SHEET
 70
     0
  0
ATTDEF
  5
2EE
330
272
100
AcDbEntity
  8
DIM
100
AcDbText
 10
8.370750001651005
 20
-3.841069024870303
 30
0.0
 40
0.08
  1

  7
SIMPLEX
100
AcDbAttributeDefinition
  3
FILE_NAME
  2
FILE_NAME
 70
     0
  0
ATTDEF
  5
2EF
330
272
100
AcDbEntity
  8
DIM
100
AcDbText
 10
8.593750001465934
 20
-2.867243860095429
 30
0.0
 40
0.08
  1

  7
SIMPLEX
100
AcDbAttributeDefinition
  3
DRAWING_SCALE
  2
SCALE
 70
     0
  0
ATTDEF
  5
2F0
330
272
100
AcDbEntity
  8
DIM
100
AcDbText
 10
8.381799224018193
 20
-3.175684594848474
 30
0.0
 40
0.08
  1

  7
SIMPLEX
 72
     4
 11
8.381799224018193
 21
-3.175684594848474
 31
0.0
100
AcDbAttributeDefinition
  3
DATE_DRAWN
  2
DATE
 70
     0
  0
ATTDEF
  5
2F1
330
272
100
AcDbEntity
  8
DIM
100
AcDbText
 10
8.959346452491169
 20
-3.175684594848474
 30
0.0
 40
0.08
  1

  7
SIMPLEX
 72
     4
 11
8.959346452491169
 21
-3.175684594848474
 31
0.0
100
AcDbAttributeDefinition
  3
DRAWN_BY?
  2
WHO?
 70
     0
  0
ATTDEF
  5
2F2
330
272
100
AcDbEntity
  8
DIM
100
AcDbText
 10
8.381799224018193
 20
-3.499961810322424
 30
0.0
 40
0.08
  1

  7
SCRIPT
 72
     4
 11
8.381799224018193
 21
-3.499961810322424
 31
0.0
100
AcDbAttributeDefinition
  3
DATE_APPROVED
  2
DATE
 70
     0
  0
ATTDEF
  5
2F3
330
272
100
AcDbEntity
  8
DIM
100
AcDbText
 10
8.959346452491192
 20
-3.499961810322424
 30
0.0
 40
0.08
  1

  7
SCRIPT
 72
     4
 11
8.959346452491192
 21
-3.499961810322424
 31
0.0
100
AcDbAttributeDefinition
  3
APPROVED_BY?
  2
WHO?
 70
     0
  0
ATTDEF
  5
2F4
330
272
100
AcDbEntity
  8
DIM
100
AcDbText
 10
9.277645855643239
 20
-3.539961810322424
 30
0.0
 40
0.08
  1

  7
SCRIPT
 11
9.277645855643239
 21
-3.499961810322424
 31
0.0
100
AcDbAttributeDefinition
  3
ENGINEER_IN_CHARGE
  2
WHO?
 70
     0
 74
     2
  0
TEXT
  5
2F5
330
272
100
AcDbEntity
  8
DIM
100
AcDbText
 10
9.716766296807861
 20
-3.931972942467266
 30
0.0
 40
0.04
  1
F04-0052-01 REV. 00
 72
     2
 11
10.41771867776024
 21
-3.931972942467266
 31
0.0
100
AcDbText
  0
ENDBLK
  5
2F7
330
272
100
AcDbEntity
  8
0
100
AcDbBlockEnd
  0
BLOCK
  5
31D
330
319
100
AcDbEntity
  8
0
100
AcDbBlockBegin
  2
rvsn_blk
 70
     2
 10
0.0
 20
0.0
 30
0.0
  3
rvsn_blk
  1

  0
ATTDEF
  5
31A
330
319
100
AcDbEntity
  8
DIM
100
AcDbText
 10
-0.1443252782292399
 20
0.0442732402878181
 30
1.0
 40
0.07
  1

  7
SIMPLEX
100
AcDbAttributeDefinition
  3
REV_#
  2
X
 70
     0
  0
ATTDEF
  5
31B
330
319
100
AcDbEntity
  8
DIM
100
AcDbText
 10
0.269150253848311
 20
0.0469563354417511
 30
1.0
 40
0.07
  1

  7
SIMPLEX
 72
     1
 11
0.269150253848311
 21
0.0469563354417511
 31
1.0
100
AcDbAttributeDefinition
  3
DATE
  2
DATE
 70
     0
  0
ATTDEF
  5
31C
330
319
100
AcDbEntity
  8
DIM
100
AcDbText
 10
0.7631729674994113
 20
0.0469563354417511
 30
1.0
 40
0.07
  1

  7
SIMPLEX
 72
     1
 11
0.7631729674994113
 21
0.0469563354417511
 31
1.0
100
AcDbAttributeDefinition
  3
INITIALS
  2
XXX
 70
     0
  0
ENDBLK
  5
31E
330
319
100
AcDbEntity
  8
0
100
AcDbBlockEnd
  0
ENDSEC
  0
SECTION
  2
ENTITIES
  0
ARC
  5
29
330
2
100
AcDbEntity
  8
HEAD
100
AcDbCircle
 10
2.50565208399725
 20
3.36129310344828
 30
0.0
 40
2.33629310344828
100
AcDbArc
 50
270.0
 51
284.3110830697718
  0
ARC
  5
2B
330
2
100
AcDbEntity
  8
HEAD
100
AcDbCircle
 10
2.50565208399725
 20
-3.36129310344828
 30
0.0
 40
2.33629310344828
100
AcDbArc
 50
75.6889169302282
 51
90.00000000000001
  0
LINE
  5
2C
330
2
100
AcDbEntity
  8
HEAD
100
AcDbLine
 10
1.39065208399725
 20
-1.025000000000002
 30
0.0
 11
1.39065208399725
 21
1.025000000000002
 31
0.0
  0
LINE
  5
2D
330
2
100
AcDbEntity
  8
HEAD
100
AcDbLine
 10
1.360652083997253
 20
-1.09375
 30
0.0
 11
1.360652083997253
 21
1.09375
 31
0.0
  0
LINE
  5
2E
330
2
100
AcDbEntity
  8
HEAD
100
AcDbLine
 10
1.14065208399725
 20
-1.033749999999999
 30
0.0
 11
1.14065208399725
 21
1.033749999999999
 31
0.0
  0
LINE
  5
2F
330
2
100
AcDbEntity
  8
HEAD
100
AcDbLine
 10
1.200652083997249
 20
1.09375
 30
0.0
 11
1.200652083997249
 21
-1.09375
 31
0.0
  0
LINE
  5
30
330
2
100
AcDbEntity
  8
HEAD
100
AcDbLine
 10
2.50565208399725
 20
-1.025
 30
0.0
 11
2.50565208399725
 21
1.025000000000002
 31
0.0
  0
TEXT
  5
31
330
2
100
AcDbEntity
  8
HEAD
100
AcDbText
 10
1.459783342535303
 20
0.2612827817813196
 30
0.0
 40
0.1
  1
DUAL GALL
 50
270.0
 41
1.102801816242052
  7
TXT
 72
     5
 11
1.459783342535303
 21
-0.6472158573133237
 31
0.0
100
AcDbText
  0
LINE
  5
33
330
2
100
AcDbEntity
  8
HEAD
100
AcDbLine
 10
1.774978819928613
 20
-0.4128023330376908
 30
0.0
 11
1.751035444853602
 21
-0.461471182564006
 31
0.0
  0
ARC
  5
34
330
2
100
AcDbEntity
  8
HEAD
100
AcDbCircle
 10
1.786924669104624
 20
-0.4362813658554376
 30
0.0
 40
0.026
100
AcDbArc
 50
272.2042275039719
 51
0.0000000000003422
  0
ARC
  5
35
330
2
100
AcDbEntity
  8
HEAD
100
AcDbCircle
 10
1.777647322456127
 20
-0.4509082088759743
 30
0.0
 40
0.0753787650783102
100
AcDbArc
 50
277.8362706495211
 51
357.0275109197058
  0
ARC
  5
36
330
2
100
AcDbEntity
  8
HEAD
100
AcDbCircle
 10
1.697924669104623
 20
-0.4341746875176788
 30
0.0
 40
0.065
100
AcDbArc
 50
180.0
 51
252.6205994074383
  0
LINE
  5
3C
330
2
100
AcDbEntity
  8
BASE
100
AcDbLine
 10
0.8731367881340403
 20
1.255134132942684
 30
0.0
 11
0.8731367881340403
 21
-1.255134132942684
 31
0.0
  0
LINE
  5
3D
330
2
100
AcDbEntity
  8
BASE
100
AcDbLine
 10
0.2182841970335083
 20
-0.4534067454725825
 30
0.0
 11
0.8731367881340403
 21
-0.6607429763062114
 31
0.0
  0
LINE
  5
3E
330
2
100
AcDbEntity
  8
BASE
100
AcDbLine
 10
0.8731367881340439
 20
-0.3434837597626259
 30
0.0
 11
0.2182841970335083
 21
-0.5594614246968824
 31
0.0
  0
LINE
  5
3F
330
2
100
AcDbEntity
  8
BASE
100
AcDbLine
 10
0.8731367881340403
 20
-0.4534067454725825
 30
0.0
 11
0.2182841970335083
 21
-0.6607429763062114
 31
0.0
  0
LINE
  5
40
330
2
100
AcDbEntity
  8
BASE
100
AcDbLine
 10
0.2182841970335083
 20
-0.3434837597626259
 30
0.0
 11
0.8731367881340403
 21
-0.5594614246968824
 31
0.0
  0
LINE
  5
41
330
2
100
AcDbEntity
  8
BASE
100
AcDbLine
 10
0.2182841970335083
 20
1.255134132942684
 30
0.0
 11
0.2182841970335083
 21
-1.255134132942683
 31
0.0
  0
LINE
  5
42
330
2
100
AcDbEntity
  8
BASE
100
AcDbLine
 10
0.0
 20
1.124163614722578
 30
0.0
 11
0.0
 21
-1.124163614722578
 31
0.0
  0
LINE
  5
43
330
2
100
AcDbEntity
  8
BASE
100
AcDbLine
 10
1.091420985167547
 20
-1.13871588419978
 30
0.0
 11
1.09142098516755
 21
1.124163614722578
 31
0.0
  0
LINE
  5
44
330
2
100
AcDbEntity
  8
BASE
100
AcDbLine
 10
0.9167936275407413
 20
1.211477293535982
 30
0.0
 11
0.9167936275407413
 21
-1.211477293535982
 31
0.0
  0
LINE
  5
45
330
2
100
AcDbEntity
  8
BASE
100
AcDbLine
 10
0.1746273576268091
 20
1.211477293535982
 30
0.0
 11
0.1746273576268091
 21
-1.211477293535982
 31
0.0
  0
LINE
  5
46
330
2
100
AcDbEntity
  8
HEAD
100
AcDbLine
 10
2.01565208399725
 20
1.025086980406518
 30
0.0
 11
2.01565208399725
 21
-1.025086980406519
 31
0.0
  0
LINE
  5
47
330
2
100
AcDbEntity
  8
BASE
100
AcDbLine
 10
0.8731367881340403
 20
-1.255134132942683
 30
0.0
 11
0.2182841970335083
 21
-1.255134132942683
 31
0.0
  0
LINE
  5
48
330
2
100
AcDbEntity
  8
BASE
100
AcDbLine
 10
0.8731367881340403
 20
-0.6607429763062114
 30
0.0
 11
0.2182841970335083
 21
-0.8455783975555847
 31
0.0
  0
LINE
  5
49
330
2
100
AcDbEntity
  8
BASE
100
AcDbLine
 10
0.2182841970335083
 20
-0.8455783975555847
 30
0.0
 11
0.8731367881340403
 21
-1.001618660635708
 31
0.0
  0
LINE
  5
4A
330
2
100
AcDbEntity
  8
BASE
100
AcDbLine
 10
0.8731367881340403
 20
-1.001618660635708
 30
0.0
 11
0.2182841970335083
 21
-1.123550001537054
 31
0.0
  0
LINE
  5
4B
330
2
100
AcDbEntity
  8
BASE
100
AcDbLine
 10
0.2182841970335083
 20
-1.123550001537054
 30
0.0
 11
0.8731367881340403
 21
-1.207220194685754
 31
0.0
  0
LINE
  5
4C
330
2
100
AcDbEntity
  8
BASE
100
AcDbLine
 10
0.8731367881340403
 20
-1.207220194685754
 30
0.0
 11
0.2182841970335083
 21
-1.249779952005464
 31
0.0
  0
LINE
  5
4D
330
2
100
AcDbEntity
  8
BASE
100
AcDbLine
 10
0.2182841970335083
 20
-0.5594614246968824
 30
0.0
 11
0.8731367881340403
 21
-0.7563873018131068
 31
0.0
  0
LINE
  5
4E
330
2
100
AcDbEntity
  8
BASE
100
AcDbLine
 10
0.8731367881340403
 20
-0.7563873018131068
 30
0.0
 11
0.2182841970335083
 21
-0.9275553165526632
 31
0.0
  0
LINE
  5
4F
330
2
100
AcDbEntity
  8
BASE
100
AcDbLine
 10
0.2182841970335083
 20
-0.9275553165526632
 30
0.0
 11
0.8731367881340403
 21
-1.067136547467
 31
0.0
  0
LINE
  5
50
330
2
100
AcDbEntity
  8
BASE
100
AcDbLine
 10
0.8731367881340403
 20
-1.067136547467
 30
0.0
 11
0.2182841970335083
 21
-1.170377723146565
 31
0.0
  0
LINE
  5
51
330
2
100
AcDbEntity
  8
BASE
100
AcDbLine
 10
0.2182841970335083
 20
-1.170377723146565
 30
0.0
 11
0.8731367881340403
 21
-1.233763089177735
 31
0.0
  0
LINE
  5
52
330
2
100
AcDbEntity
  8
BASE
100
AcDbLine
 10
0.8731367881340403
 20
-1.233763089177735
 30
0.0
 11
0.2182841970335083
 21
-1.255134132942683
 31
0.0
  0
LINE
  5
53
330
2
100
AcDbEntity
  8
BASE
100
AcDbLine
 10
0.2182841970335083
 20
-0.6607429763062114
 30
0.0
 11
0.8731367881340403
 21
-0.8455783975555847
 31
0.0
  0
LINE
  5
54
330
2
100
AcDbEntity
  8
BASE
100
AcDbLine
 10
0.8731367881340403
 20
-0.8455783975555847
 30
0.0
 11
0.2182841970335083
 21
-1.001618660635708
 31
0.0
  0
LINE
  5
55
330
2
100
AcDbEntity
  8
BASE
100
AcDbLine
 10
0.2182841970335083
 20
-1.001618660635708
 30
0.0
 11
0.8731367881340403
 21
-1.123550001537054
 31
0.0
  0
LINE
  5
56
330
2
100
AcDbEntity
  8
BASE
100
AcDbLine
 10
0.8731367881340403
 20
-1.123550001537054
 30
0.0
 11
0.2182841970335083
 21
-1.207220194685754
 31
0.0
  0
LINE
  5
57
330
2
100
AcDbEntity
  8
BASE
100
AcDbLine
 10
0.2182841970335083
 20
-1.207220194685754
 30
0.0
 11
0.8731367881340403
 21
-1.249779952005464
 31
0.0
  0
LINE
  5
58
330
2
100
AcDbEntity
  8
BASE
100
AcDbLine
 10
0.8731367881340403
 20
-0.5594614246968824
 30
0.0
 11
0.2182841970335083
 21
-0.7563873018131068
 31
0.0
  0
LINE
  5
59
330
2
100
AcDbEntity
  8
BASE
100
AcDbLine
 10
0.2182841970335083
 20
-0.7563873018131068
 30
0.0
 11
0.8731367881340403
 21
-0.9275553165526632
 31
0.0
  0
LINE
  5
5A
330
2
100
AcDbEntity
  8
BASE
100
AcDbLine
 10
0.8731367881340403
 20
-0.9275553165526632
 30
0.0
 11
0.2182841970335083
 21
-1.067136547467
 31
0.0
  0
LINE
  5
5B
330
2
100
AcDbEntity
  8
BASE
100
AcDbLine
 10
0.2182841970335083
 20
-1.067136547467
 30
0.0
 11
0.8731367881340403
 21
-1.170377723146565
 31
0.0
  0
LINE
  5
5C
330
2
100
AcDbEntity
  8
BASE
100
AcDbLine
 10
0.8731367881340403
 20
-1.170377723146565
 30
0.0
 11
0.2182841970335083
 21
-1.233763089177735
 31
0.0
  0
LINE
  5
5D
330
2
100
AcDbEntity
  8
BASE
100
AcDbLine
 10
0.2182841970335083
 20
-1.233763089177735
 30
0.0
 11
0.8731367881340403
 21
-1.255134132942683
 31
0.0
  0
LINE
  5
5E
330
2
100
AcDbEntity
  8
BASE
100
AcDbLine
 10
0.8731367881340439
 20
-1.207220194685754
 30
0.0
 11
0.2182841970335101
 21
-1.249779952005464
 31
0.0
  0
ARC
  5
5F
330
2
100
AcDbEntity
  8
BASE
100
AcDbCircle
 10
0.0873136788134019
 20
-1.124163614722578
 30
0.0
 40
0.0873136788134041
100
AcDbArc
 50
180.0
 51
270.0
  0
LINE
  5
60
330
2
100
AcDbEntity
  8
BASE
100
AcDbLine
 10
0.1746273576268091
 20
-1.211477293535982
 30
0.0
 11
0.2182841970335083
 21
-1.255134132942684
 31
0.0
  0
LINE
  5
61
330
2
100
AcDbEntity
  8
BASE
100
AcDbLine
 10
0.1746273576268091
 20
-1.211477293535982
 30
0.0
 11
0.0873136788134019
 21
-1.211477293535982
 31
0.0
  0
LINE
  5
62
330
2
100
AcDbEntity
  8
HEAD
100
AcDbLine
 10
1.39065208399725
 20
-1.025000000000002
 30
0.0
 11
2.50565208399725
 21
-1.025000000000002
 31
0.0
  0
LINE
  5
63
330
2
100
AcDbEntity
  8
HEAD
100
AcDbLine
 10
1.632924669104623
 20
-0.552352928339539
 30
0.0
 11
1.812924669104624
 21
-0.6005837829771417
 31
0.0
  0
LINE
  5
64
330
2
100
AcDbEntity
  8
HEAD
100
AcDbLine
 10
1.632924669104624
 20
-0.614469499164144
 30
0.0
 11
1.812924669104624
 21
-0.6627003538017462
 31
0.0
  0
LINE
  5
65
330
2
100
AcDbEntity
  8
HEAD
100
AcDbLine
 10
1.632924669104624
 20
-0.6925592679333486
 30
0.0
 11
1.852924669104624
 21
-0.7515080902681955
 31
0.0
  0
LINE
  5
66
330
2
100
AcDbEntity
  8
HEAD
100
AcDbLine
 10
1.632924669104624
 20
-0.8071451713866593
 30
0.0
 11
1.672924669104624
 21
-0.8178631390839044
 31
0.0
  0
LINE
  5
67
330
2
100
AcDbEntity
  8
HEAD
100
AcDbLine
 10
1.632924669104624
 20
-0.8207301286069924
 30
0.0
 11
1.852924669104624
 21
-0.8796789509418395
 31
0.0
  0
LINE
  5
68
330
2
100
AcDbEntity
  8
HEAD
100
AcDbLine
 10
1.632924669104624
 20
-0.8704039303874573
 30
0.0
 11
1.722924669104624
 21
-0.8945193577062585
 31
0.0
  0
LINE
  5
69
330
2
100
AcDbEntity
  8
HEAD
100
AcDbLine
 10
1.632924669104623
 20
-0.9405095297990438
 30
0.0
 11
1.707524892445813
 21
-0.9228779060864251
 31
0.0
  0
LINE
  5
6A
330
2
100
AcDbEntity
  8
HEAD
100
AcDbLine
 10
1.632924669104623
 20
-0.9758765383683854
 30
0.0
 11
1.727696696525254
 21
-0.9534773463670402
 31
0.0
  0
TEXT
  5
6B
330
2
100
AcDbEntity
  8
HEAD
100
AcDbText
 10
1.459783342535303
 20
-0.832410111827974
 30
0.0
 40
0.1
  1
AGE
 50
270.0
 41
0.5317358966473372
  7
TXT
 72
     5
 11
1.459783342535303
 21
-0.9742063509339306
 31
0.0
100
AcDbText
  0
LINE
  5
6C
330
2
100
AcDbEntity
  8
HEAD
100
AcDbLine
 10
1.632924669104623
 20
-0.9405095297990438
 30
0.0
 11
1.632924669104623
 21
-0.9758765383683854
 31
0.0
  0
LINE
  5
6D
330
2
100
AcDbEntity
  8
HEAD
100
AcDbLine
 10
1.200652083997249
 20
-1.09375
 30
0.0
 11
1.360652083997253
 21
-1.09375
 31
0.0
  0
LINE
  5
6E
330
2
100
AcDbEntity
  8
BASE
100
AcDbLine
 10
0.9167936275407413
 20
-1.211477293535982
 30
0.0
 11
0.8731367881340403
 21
-1.255134132942684
 31
0.0
  0
ARC
  5
6F
330
2
100
AcDbEntity
  8
BASE
100
AcDbCircle
 10
1.004107306354145
 20
-1.124163614722578
 30
0.0
 40
0.0873136788134041
100
AcDbArc
 50
270.0000000000001
 51
0.0
  0
LINE
  5
70
330
2
100
AcDbEntity
  8
BASE
100
AcDbLine
 10
1.004107306354145
 20
-1.211477293535982
 30
0.0
 11
0.9167936275407413
 21
-1.211477293535982
 31
0.0
  0
ARC
  5
71
330
2
100
AcDbEntity
  8
HEAD
100
AcDbCircle
 10
1.200652083997249
 20
-1.033749999999999
 30
0.0
 40
0.06
100
AcDbArc
 50
180.0
 51
270.0
  0
LINE
  5
72
330
2
100
AcDbEntity
  8
HEAD
100
AcDbLine
 10
1.360652083997253
 20
-1.09375
 30
0.0
 11
1.39065208399725
 21
-1.025
 31
0.0
  0
LINE
  5
73
330
2
100
AcDbEntity
  8
BASE
100
AcDbLine
 10
1.139553384125432
 20
-0.8324999999999995
 30
0.0
 11
1.09142098516755
 21
-0.8324999999999995
 31
0.0
  0
TEXT
  5
74
330
2
100
AcDbEntity
  8
HEAD
100
AcDbText
 10
1.459783342535303
 20
-0.6677966823885201
 30
0.0
 40
0.1
  1
ON
 50
270.0
 41
0.7879641883651211
  7
TXT
 72
     5
 11
1.459783342535303
 21
-0.8028762575368265
 31
0.0
100
AcDbText
  0
LINE
  5
75
330
2
100
AcDbEntity
  8
HEAD
100
AcDbLine
 10
1.632924669104624
 20
-0.6925592679333486
 30
0.0
 11
1.632924669104624
 21
-0.8071451713866593
 31
0.0
  0
LINE
  5
76
330
2
100
AcDbEntity
  8
HEAD
100
AcDbLine
 10
1.632924669104624
 20
-0.8207301286069924
 30
0.0
 11
1.632924669104624
 21
-0.8704039303874573
 31
0.0
  0
LINE
  5
77
330
2
100
AcDbEntity
  8
HEAD
100
AcDbLine
 10
1.632924669104624
 20
-0.552352928339539
 30
0.0
 11
1.632924669104624
 21
-0.614469499164144
 31
0.0
  0
ARC
  5
78
330
2
100
AcDbEntity
  8
HEAD
100
AcDbCircle
 10
1.787924669104624
 20
-0.9290316653788309
 30
0.0
 40
0.0649999999999999
100
AcDbArc
 50
202.0915367369638
 51
0.0000634253838263
  0
LINE
  5
79
330
2
100
AcDbEntity
  8
HEAD
100
AcDbLine
 10
1.852924669104624
 20
-0.5508324180456805
 30
0.0
 11
1.852924669104624
 21
-0.7338876541276971
 31
0.0
  0
LINE
  5
7A
330
2
100
AcDbEntity
  8
HEAD
100
AcDbLine
 10
1.812924669104624
 20
-0.6627003538017462
 30
0.0
 11
1.812924669104624
 21
-0.723169686430452
 31
0.0
  0
LINE
  5
7B
330
2
100
AcDbEntity
  8
HEAD
100
AcDbLine
 10
1.812924669104624
 20
-0.723169686430452
 30
0.0
 11
1.852924669104624
 21
-0.7338876541276971
 31
0.0
  0
LINE
  5
7C
330
2
100
AcDbEntity
  8
HEAD
100
AcDbLine
 10
1.812924669104624
 20
-0.8029066933955553
 30
0.0
 11
1.812924669104624
 21
-0.8553760260242611
 31
0.0
  0
LINE
  5
7D
330
2
100
AcDbEntity
  8
HEAD
100
AcDbLine
 10
1.722924669104624
 20
-0.8312605987054602
 30
0.0
 11
1.762924669104624
 21
-0.8419785664027056
 31
0.0
  0
LINE
  5
7E
330
2
100
AcDbEntity
  8
HEAD
100
AcDbLine
 10
1.672924669104624
 20
-0.7653938064551978
 30
0.0
 11
1.722924669104625
 21
-0.7787912660767545
 31
0.0
  0
LINE
  5
7F
330
2
100
AcDbEntity
  8
HEAD
100
AcDbLine
 10
1.852924669104624
 20
-0.7515080902681955
 30
0.0
 11
1.852924669104624
 21
-0.8660939937215065
 31
0.0
  0
LINE
  5
80
330
2
100
AcDbEntity
  8
HEAD
100
AcDbLine
 10
1.672924669104624
 20
-0.7653938064551978
 30
0.0
 11
1.672924669104624
 21
-0.8178631390839044
 31
0.0
  0
LINE
  5
81
330
2
100
AcDbEntity
  8
HEAD
100
AcDbLine
 10
1.762924669104624
 20
-0.7895092337739991
 30
0.0
 11
1.762924669104624
 21
-0.8419785664027056
 31
0.0
  0
LINE
  5
82
330
2
100
AcDbEntity
  8
HEAD
100
AcDbLine
 10
1.722924669104625
 20
-0.7787912660767545
 30
0.0
 11
1.722924669104624
 21
-0.8312605987054602
 31
0.0
  0
LINE
  5
83
330
2
100
AcDbEntity
  8
HEAD
100
AcDbLine
 10
1.762924669104624
 20
-0.7895092337739991
 30
0.0
 11
1.812924669104624
 21
-0.8029066933955553
 31
0.0
  0
LINE
  5
84
330
2
100
AcDbEntity
  8
HEAD
100
AcDbLine
 10
1.812924669104624
 20
-0.8553760260242611
 30
0.0
 11
1.852924669104624
 21
-0.8660939937215065
 31
0.0
  0
LINE
  5
85
330
2
100
AcDbEntity
  8
HEAD
100
AcDbLine
 10
1.852924669104624
 20
-0.8796789509418395
 30
0.0
 11
1.852924669104625
 21
-0.9290316387138766
 31
0.0
  0
LINE
  5
86
330
2
100
AcDbEntity
  8
HEAD
100
AcDbLine
 10
1.722924669104624
 20
-0.8945193577062585
 30
0.0
 11
1.722924669104624
 21
-0.9034141462951819
 31
0.0
  0
LINE
  5
87
330
2
100
AcDbEntity
  8
HEAD
100
AcDbLine
 10
1.762924669104624
 20
-0.9052373254035037
 30
0.0
 11
1.762924669104624
 21
-0.9290316569325
 31
0.0
  0
ARC
  5
88
330
2
100
AcDbEntity
  8
HEAD
100
AcDbCircle
 10
1.787924669104624
 20
-0.9290316653788309
 30
0.0
 40
0.0249999999999999
100
AcDbArc
 50
179.9999617361379
 51
0.0000634253838263
  0
LINE
  5
89
330
2
100
AcDbEntity
  8
HEAD
100
AcDbLine
 10
1.762924669104624
 20
-0.9052373254035037
 30
0.0
 11
1.812924669104624
 21
-0.91863478502506
 31
0.0
  0
LINE
  5
8A
330
2
100
AcDbEntity
  8
HEAD
100
AcDbLine
 10
1.812924669104609
 20
-0.9290316377042863
 30
0.0
 11
1.812924669104624
 21
-0.91863478502506
 31
0.0
  0
ARC
  5
8B
330
2
100
AcDbEntity
  8
HEAD
100
AcDbCircle
 10
1.702924669104624
 20
-0.9034141462951822
 30
0.0
 40
0.02
100
AcDbArc
 50
283.2977291993282
 51
0.0000000000020215
  0
LINE
  5
8C
330
2
100
AcDbEntity
  8
HEAD
100
AcDbLine
 10
1.787924669104624
 20
-0.4622621279689544
 30
0.0
 11
1.787924669104623
 21
-0.5255830665631325
 31
0.0
  0
LINE
  5
8D
330
2
100
AcDbEntity
  8
HEAD
100
AcDbLine
 10
1.812924669104624
 20
-0.5401144503484359
 30
0.0
 11
1.852924669104624
 21
-0.5508324180456805
 31
0.0
  0
LINE
  5
8E
330
2
100
AcDbEntity
  8
HEAD
100
AcDbLine
 10
1.812924669104624
 20
-0.5401144503484359
 30
0.0
 11
1.812924669104625
 21
-0.6005837829771417
 31
0.0
  0
ARC
  5
8F
330
2
100
AcDbEntity
  8
HEAD
100
AcDbCircle
 10
1.692711435031564
 20
-0.4327778056578477
 30
0.0
 40
0.065
100
AcDbArc
 50
257.3794005925553
 51
333.8044242138898
  0
LINE
  5
90
330
2
100
AcDbEntity
  8
BASE
100
AcDbLine
 10
0.8731367881340403
 20
-0.1158091673530153
 30
0.0
 11
0.2182841970335083
 21
0.115809167353014
 31
0.0
  0
LINE
  5
91
330
2
100
AcDbEntity
  8
BASE
100
AcDbLine
 10
0.2182841970335083
 20
-0.1158091673530153
 30
0.0
 11
0.8731367881340403
 21
0.115809167353014
 31
0.0
  0
LINE
  5
92
330
2
100
AcDbEntity
  8
BASE
100
AcDbLine
 10
0.8731367881340439
 20
1.207220194685754
 30
0.0
 11
0.2182841970335101
 21
1.249779952005465
 31
0.0
  0
LINE
  5
93
330
2
100
AcDbEntity
  8
BASE
100
AcDbLine
 10
0.2182841970335083
 20
1.233763089177735
 30
0.0
 11
0.8731367881340403
 21
1.255134132942684
 31
0.0
  0
LINE
  5
94
330
2
100
AcDbEntity
  8
BASE
100
AcDbLine
 10
0.8731367881340403
 20
1.170377723146567
 30
0.0
 11
0.2182841970335083
 21
1.233763089177735
 31
0.0
  0
LINE
  5
95
330
2
100
AcDbEntity
  8
BASE
100
AcDbLine
 10
0.2182841970335083
 20
1.067136547467001
 30
0.0
 11
0.8731367881340403
 21
1.170377723146567
 31
0.0
  0
LINE
  5
96
330
2
100
AcDbEntity
  8
BASE
100
AcDbLine
 10
0.8731367881340403
 20
0.9275553165526631
 30
0.0
 11
0.2182841970335083
 21
1.067136547467001
 31
0.0
  0
LINE
  5
97
330
2
100
AcDbEntity
  8
BASE
100
AcDbLine
 10
0.2182841970335083
 20
0.7563873018131067
 30
0.0
 11
0.8731367881340403
 21
0.9275553165526631
 31
0.0
  0
LINE
  5
98
330
2
100
AcDbEntity
  8
BASE
100
AcDbLine
 10
0.8731367881340403
 20
0.5594614246968838
 30
0.0
 11
0.2182841970335083
 21
0.7563873018131067
 31
0.0
  0
LINE
  5
99
330
2
100
AcDbEntity
  8
BASE
100
AcDbLine
 10
0.2182841970335083
 20
0.3434837597626271
 30
0.0
 11
0.8731367881340403
 21
0.5594614246968838
 31
0.0
  0
LINE
  5
9A
330
2
100
AcDbEntity
  8
BASE
100
AcDbLine
 10
0.8731367881340403
 20
0.115809167353014
 30
0.0
 11
0.2182841970335083
 21
0.3434837597626271
 31
0.0
  0
LINE
  5
9B
330
2
100
AcDbEntity
  8
BASE
100
AcDbLine
 10
0.2182841970335083
 20
1.207220194685754
 30
0.0
 11
0.8731367881340403
 21
1.249779952005465
 31
0.0
  0
LINE
  5
9C
330
2
100
AcDbEntity
  8
BASE
100
AcDbLine
 10
0.8731367881340403
 20
1.123550001537055
 30
0.0
 11
0.2182841970335083
 21
1.207220194685754
 31
0.0
  0
LINE
  5
9D
330
2
100
AcDbEntity
  8
BASE
100
AcDbLine
 10
0.2182841970335083
 20
1.001618660635706
 30
0.0
 11
0.8731367881340403
 21
1.123550001537055
 31
0.0
  0
LINE
  5
9E
330
2
100
AcDbEntity
  8
BASE
100
AcDbLine
 10
0.8731367881340403
 20
0.8455783975555847
 30
0.0
 11
0.2182841970335083
 21
1.001618660635706
 31
0.0
  0
LINE
  5
9F
330
2
100
AcDbEntity
  8
BASE
100
AcDbLine
 10
0.2182841970335083
 20
0.6607429763062114
 30
0.0
 11
0.8731367881340403
 21
0.8455783975555847
 31
0.0
  0
LINE
  5
A0
330
2
100
AcDbEntity
  8
BASE
100
AcDbLine
 10
0.8731367881340403
 20
0.4534067454725837
 30
0.0
 11
0.2182841970335083
 21
0.6607429763062114
 31
0.0
  0
LINE
  5
A1
330
2
100
AcDbEntity
  8
BASE
100
AcDbLine
 10
0.2182841970335083
 20
0.2306302917233363
 30
0.0
 11
0.8731367881340403
 21
0.4534067454725837
 31
0.0
  0
LINE
  5
A2
330
2
100
AcDbEntity
  8
BASE
100
AcDbLine
 10
0.8731367881340403
 20
-0.0000000000000007
 30
0.0
 11
0.2182841970335083
 21
0.2306302917233363
 31
0.0
  0
LINE
  5
A3
330
2
100
AcDbEntity
  8
BASE
100
AcDbLine
 10
0.8731367881340403
 20
1.233763089177735
 30
0.0
 11
0.2182841970335083
 21
1.255134132942684
 31
0.0
  0
LINE
  5
A4
330
2
100
AcDbEntity
  8
BASE
100
AcDbLine
 10
0.2182841970335083
 20
1.170377723146567
 30
0.0
 11
0.8731367881340403
 21
1.233763089177735
 31
0.0
  0
LINE
  5
A5
330
2
100
AcDbEntity
  8
BASE
100
AcDbLine
 10
0.8731367881340403
 20
1.067136547467001
 30
0.0
 11
0.2182841970335083
 21
1.170377723146567
 31
0.0
  0
LINE
  5
A6
330
2
100
AcDbEntity
  8
BASE
100
AcDbLine
 10
0.2182841970335083
 20
0.9275553165526631
 30
0.0
 11
0.8731367881340403
 21
1.067136547467001
 31
0.0
  0
LINE
  5
A7
330
2
100
AcDbEntity
  8
BASE
100
AcDbLine
 10
0.8731367881340403
 20
0.7563873018131067
 30
0.0
 11
0.2182841970335083
 21
0.9275553165526631
 31
0.0
  0
LINE
  5
A8
330
2
100
AcDbEntity
  8
BASE
100
AcDbLine
 10
0.2182841970335083
 20
0.5594614246968838
 30
0.0
 11
0.8731367881340403
 21
0.7563873018131067
 31
0.0
  0
LINE
  5
A9
330
2
100
AcDbEntity
  8
BASE
100
AcDbLine
 10
0.8731367881340439
 20
0.3434837597626271
 30
0.0
 11
0.2182841970335083
 21
0.5594614246968838
 31
0.0
  0
LINE
  5
AA
330
2
100
AcDbEntity
  8
BASE
100
AcDbLine
 10
0.2182841970335083
 20
0.115809167353014
 30
0.0
 11
0.8731367881340439
 21
0.3434837597626271
 31
0.0
  0
LINE
  5
AB
330
2
100
AcDbEntity
  8
BASE
100
AcDbLine
 10
0.8731367881340403
 20
1.207220194685754
 30
0.0
 11
0.2182841970335083
 21
1.249779952005465
 31
0.0
  0
LINE
  5
AC
330
2
100
AcDbEntity
  8
BASE
100
AcDbLine
 10
0.2182841970335083
 20
1.123550001537055
 30
0.0
 11
0.8731367881340403
 21
1.207220194685754
 31
0.0
  0
LINE
  5
AD
330
2
100
AcDbEntity
  8
BASE
100
AcDbLine
 10
0.8731367881340403
 20
1.001618660635706
 30
0.0
 11
0.2182841970335083
 21
1.123550001537055
 31
0.0
  0
LINE
  5
AE
330
2
100
AcDbEntity
  8
BASE
100
AcDbLine
 10
0.2182841970335083
 20
0.8455783975555847
 30
0.0
 11
0.8731367881340403
 21
1.001618660635706
 31
0.0
  0
LINE
  5
AF
330
2
100
AcDbEntity
  8
BASE
100
AcDbLine
 10
0.8731367881340403
 20
0.6607429763062114
 30
0.0
 11
0.2182841970335083
 21
0.8455783975555847
 31
0.0
  0
LINE
  5
B0
330
2
100
AcDbEntity
  8
BASE
100
AcDbLine
 10
0.2182841970335083
 20
0.4534067454725837
 30
0.0
 11
0.8731367881340403
 21
0.6607429763062114
 31
0.0
  0
LINE
  5
B1
330
2
100
AcDbEntity
  8
BASE
100
AcDbLine
 10
0.8731367881340403
 20
0.2306302917233363
 30
0.0
 11
0.2182841970335083
 21
0.4534067454725837
 31
0.0
  0
LINE
  5
B2
330
2
100
AcDbEntity
  8
BASE
100
AcDbLine
 10
0.2182841970335083
 20
-0.0000000000000007
 30
0.0
 11
0.8731367881340403
 21
0.2306302917233363
 31
0.0
  0
LINE
  5
B3
330
2
100
AcDbEntity
  8
BASE
100
AcDbLine
 10
0.8731367881340403
 20
1.255134132942684
 30
0.0
 11
0.2182841970335083
 21
1.255134132942684
 31
0.0
  0
LINE
  5
B4
330
2
100
AcDbEntity
  8
BASE
100
AcDbLine
 10
0.2182841970335083
 20
-0.0000000000000007
 30
0.0
 11
0.8731367881340403
 21
-0.2306302917233376
 31
0.0
  0
LINE
  5
B5
330
2
100
AcDbEntity
  8
BASE
100
AcDbLine
 10
0.8731367881340403
 20
-0.2306302917233376
 30
0.0
 11
0.2182841970335083
 21
-0.4534067454725825
 31
0.0
  0
LINE
  5
B6
330
2
100
AcDbEntity
  8
BASE
100
AcDbLine
 10
0.2182841970335083
 20
-0.1158091673530153
 30
0.0
 11
0.8731367881340439
 21
-0.3434837597626259
 31
0.0
  0
LINE
  5
B7
330
2
100
AcDbEntity
  8
BASE
100
AcDbLine
 10
0.8731367881340403
 20
-0.0000000000000007
 30
0.0
 11
0.2182841970335083
 21
-0.2306302917233376
 31
0.0
  0
LINE
  5
B8
330
2
100
AcDbEntity
  8
BASE
100
AcDbLine
 10
0.2182841970335083
 20
-0.2306302917233376
 30
0.0
 11
0.8731367881340403
 21
-0.4534067454725825
 31
0.0
  0
LINE
  5
B9
330
2
100
AcDbEntity
  8
BASE
100
AcDbLine
 10
0.8731367881340403
 20
-0.1158091673530153
 30
0.0
 11
0.2182841970335083
 21
-0.3434837597626259
 31
0.0
  0
LINE
  5
BA
330
2
100
AcDbEntity
  8
BASE
100
AcDbLine
 10
0.2182841970335083
 20
0.1158091673530166
 30
0.0
 11
0.8731367881340403
 21
-0.1158091673530153
 31
0.0
  0
LINE
  5
BB
330
2
100
AcDbEntity
  8
BASE
100
AcDbLine
 10
0.8731367881340403
 20
0.1158091673530166
 30
0.0
 11
0.2182841970335083
 21
-0.1158091673530153
 31
0.0
  0
ARC
  5
BC
330
2
100
AcDbEntity
  8
BASE
100
AcDbCircle
 10
0.0873136788134019
 20
1.124163614722578
 30
0.0
 40
0.0873136788134041
100
AcDbArc
 50
90.0
 51
180.0
  0
LINE
  5
BD
330
2
100
AcDbEntity
  8
BASE
100
AcDbLine
 10
0.1746273576268091
 20
1.211477293535982
 30
0.0
 11
0.0873136788134019
 21
1.211477293535982
 31
0.0
  0
LINE
  5
BE
330
2
100
AcDbEntity
  8
BASE
100
AcDbLine
 10
0.1746273576268091
 20
1.211477293535982
 30
0.0
 11
0.2182841970335083
 21
1.255134132942684
 31
0.0
  0
TEXT
  5
BF
330
2
100
AcDbEntity
  8
2095
100
AcDbText
 10
1.633342201998832
 20
0.5816703157949798
 30
0.0
 40
0.25
  1
5
 50
270.0
 41
0.7844698002537039
  7
COMPLEX
 72
     5
 11
1.633342201998832
 21
0.4509253490860292
 31
0.0
100
AcDbText
  0
LINE
  5
C1
330
2
100
AcDbEntity
  8
HEAD
100
AcDbLine
 10
1.632924669104623
 20
0.2635216589596037
 30
0.0
 11
1.872924669104623
 21
0.1992138527761345
 31
0.0
  0
LINE
  5
C2
330
2
100
AcDbEntity
  8
HEAD
100
AcDbLine
 10
1.632924669104623
 20
0.1755231836247467
 30
0.0
 11
1.872924669104623
 21
0.111215377441277
 31
0.0
  0
LINE
  5
C3
330
2
100
AcDbEntity
  8
HEAD
100
AcDbLine
 10
1.632924669104623
 20
-0.1932079090837572
 30
0.0
 11
1.852924669104624
 21
-0.2521567314186046
 31
0.0
  0
LINE
  5
C4
330
2
100
AcDbEntity
  8
HEAD
100
AcDbLine
 10
1.632924669104624
 20
-0.2553244799083622
 30
0.0
 11
1.852924669104624
 21
-0.3142733022432091
 31
0.0
  0
ARC
  5
C5
330
2
100
AcDbEntity
  8
HEAD
100
AcDbCircle
 10
1.714811483702353
 20
-0.3745542372864845
 30
0.0
 40
0.0819016366383692
100
AcDbArc
 50
101.8988234605281
 51
178.9099362692127
  0
LINE
  5
C6
330
2
100
AcDbEntity
  8
HEAD
100
AcDbLine
 10
1.852924669104624
 20
0.0615467739911791
 30
0.0
 11
1.632924669104624
 21
0.0606512936754307
 31
0.0
  0
LINE
  5
C7
330
2
100
AcDbEntity
  8
HEAD
100
AcDbLine
 10
1.787924669104623
 20
-0.072316866702351
 30
0.0
 11
1.632924669104624
 21
-0.0200561419381863
 31
0.0
  0
LINE
  5
C8
330
2
100
AcDbEntity
  8
HEAD
100
AcDbLine
 10
1.852924669104625
 20
-0.233816299365098
 30
0.0
 11
1.632924669104624
 21
-0.1465683944448312
 31
0.0
  0
LINE
  5
C9
330
2
100
AcDbEntity
  8
HEAD
100
AcDbLine
 10
1.787924669104623
 20
-0.072316866702351
 30
0.0
 11
1.632924669104624
 21
-0.0648261654069442
 31
0.0
  0
LINE
  5
CA
330
2
100
AcDbEntity
  8
HEAD
100
AcDbLine
 10
1.632924669104624
 20
0.0606512936754307
 30
0.0
 11
1.632924669104624
 21
-0.0200561419381863
 31
0.0
  0
LINE
  5
CB
330
2
100
AcDbEntity
  8
HEAD
100
AcDbLine
 10
1.632924669104624
 20
-0.1932079090837572
 30
0.0
 11
1.632924669104624
 21
-0.2553244799083622
 31
0.0
  0
LINE
  5
CC
330
2
100
AcDbEntity
  8
HEAD
100
AcDbLine
 10
1.632924669104624
 20
-0.372996136172512
 30
0.0
 11
1.632924669104623
 21
-0.4341746875176788
 31
0.0
  0
LINE
  5
CD
330
2
100
AcDbEntity
  8
HEAD
100
AcDbLine
 10
1.632924669104624
 20
-0.0648261654069442
 30
0.0
 11
1.632924669104624
 21
-0.1465683944448312
 31
0.0
  0
LINE
  5
CE
330
2
100
AcDbEntity
  8
HEAD
100
AcDbLine
 10
1.632924669104623
 20
0.2635216589596037
 30
0.0
 11
1.632924669104623
 21
0.1755231836247467
 31
0.0
  0
LINE
  5
CF
330
2
100
AcDbEntity
  8
HEAD
100
AcDbLine
 10
1.932924669104623
 20
0.2685471861140987
 30
0.0
 11
1.932924669104623
 21
0.0097281410115775
 31
0.0
  0
LINE
  5
D0
330
2
100
AcDbEntity
  8
HEAD
100
AcDbLine
 10
1.872924669104623
 20
0.111215377441277
 30
0.0
 11
1.872924669104623
 21
0.025805092557445
 31
0.0
  0
LINE
  5
D1
330
2
100
AcDbEntity
  8
HEAD
100
AcDbLine
 10
1.852924669104624
 20
0.0615467739911791
 30
0.0
 11
1.852924669104623
 21
0.0115463597960993
 31
0.0
  0
LINE
  5
D2
330
2
100
AcDbEntity
  8
HEAD
100
AcDbLine
 10
1.852924669104624
 20
-0.1800278992280182
 30
0.0
 11
1.852924669104625
 21
-0.233816299365098
 31
0.0
  0
LINE
  5
D3
330
2
100
AcDbEntity
  8
HEAD
100
AcDbLine
 10
1.697924669104623
 20
-0.294412403162318
 30
0.0
 11
1.697924669104623
 21
-0.3577333417564965
 31
0.0
  0
LINE
  5
D4
330
2
100
AcDbEntity
  8
HEAD
100
AcDbLine
 10
1.852924669104624
 20
-0.2521567314186046
 30
0.0
 11
1.852924669104624
 21
-0.3142733022432091
 31
0.0
  0
LINE
  5
D5
330
2
100
AcDbEntity
  8
HEAD
100
AcDbLine
 10
1.852924669104624
 20
-0.3858207822077748
 30
0.0
 11
1.852924669104624
 21
-0.4548170841993677
 31
0.0
  0
LINE
  5
D6
330
2
100
AcDbEntity
  8
HEAD
100
AcDbLine
 10
1.812924669104624
 20
-0.4216310643934315
 30
0.0
 11
1.812924669104624
 21
-0.4362813658554367
 31
0.0
  0
LINE
  5
D7
330
2
100
AcDbEntity
  8
HEAD
100
AcDbLine
 10
1.672924669104624
 20
-0.3837141038700169
 30
0.0
 11
1.672924669104623
 21
-0.3983644053320185
 31
0.0
  0
LINE
  5
D8
330
2
100
AcDbEntity
  8
HEAD
100
AcDbLine
 10
1.734813893355645
 20
-0.3585242871614466
 30
0.0
 11
1.710870518280635
 21
-0.4071931366877601
 31
0.0
  0
ARC
  5
D9
330
2
100
AcDbEntity
  8
HEAD
100
AcDbCircle
 10
1.792924669104624
 20
-0.4216310643934315
 30
0.0
 40
0.02
100
AcDbArc
 50
0.0
 51
153.8044242138898
  0
ARC
  5
DA
330
2
100
AcDbEntity
  8
HEAD
100
AcDbCircle
 10
1.692924669104623
 20
-0.3983644053320185
 30
0.0
 40
0.02
100
AcDbArc
 50
179.9999999999996
 51
333.8044242138898
  0
ARC
  5
DB
330
2
100
AcDbEntity
  8
HEAD
100
AcDbCircle
 10
1.698924669104624
 20
-0.3837141038700178
 30
0.0
 40
0.026
100
AcDbArc
 50
92.2042275039738
 51
179.9999999999994
  0
ARC
  5
DC
330
2
100
AcDbEntity
  8
HEAD
100
AcDbCircle
 10
1.793137903177683
 20
-0.387217664067605
 30
0.0
 40
0.065
100
AcDbArc
 50
77.37940059255929
 51
153.8044242138896
  0
ARC
  5
DD
330
2
100
AcDbEntity
  8
HEAD
100
AcDbCircle
 10
1.787924669104624
 20
-0.3858207822077748
 30
0.0
 40
0.065
100
AcDbArc
 50
359.9999999999996
 51
72.62059940744331
  0
LINE
  5
DE
330
2
100
AcDbEntity
  8
HEAD
100
AcDbLine
 10
1.872924669104623
 20
0.025805092557445
 30
0.0
 11
1.932924669104623
 21
0.0097281410115775
 31
0.0
  0
LINE
  5
DF
330
2
100
AcDbEntity
  8
HEAD
100
AcDbLine
 10
1.852924669104624
 20
-0.1800278992280182
 30
0.0
 11
1.696397039694715
 21
-0.1179519550091523
 31
0.0
  0
LINE
  5
E0
330
2
100
AcDbEntity
  8
HEAD
100
AcDbLine
 10
1.852924669104624
 20
-0.1255164822116543
 30
0.0
 11
1.696397039694715
 21
-0.1179519550091523
 31
0.0
  0
LINE
  5
E1
330
2
100
AcDbEntity
  8
HEAD
100
AcDbLine
 10
1.852924669104624
 20
-0.0414671144076388
 30
0.0
 11
1.697567606147651
 21
0.0109139998334156
 31
0.0
  0
LINE
  5
E2
330
2
100
AcDbEntity
  8
HEAD
100
AcDbLine
 10
1.852924669104623
 20
0.0115463597960993
 30
0.0
 11
1.697567606147651
 21
0.0109139998334156
 31
0.0
  0
LINE
  5
E3
330
2
100
AcDbEntity
  8
HEAD
100
AcDbLine
 10
1.852924669104624
 20
-0.0414671144076388
 30
0.0
 11
1.852924669104624
 21
-0.1255164822116543
 31
0.0
  0
LINE
  5
E4
330
2
100
AcDbEntity
  8
HEAD
100
AcDbLine
 10
1.872924669104623
 20
0.2846241376599661
 30
0.0
 11
1.932924669104623
 21
0.2685471861140987
 31
0.0
  0
LINE
  5
E5
330
2
100
AcDbEntity
  8
HEAD
100
AcDbLine
 10
1.872924669104623
 20
0.2846241376599661
 30
0.0
 11
1.872924669104623
 21
0.1992138527761345
 31
0.0
  0
TEXT
  5
E6
330
2
100
AcDbEntity
  8
2095
100
AcDbText
 10
1.633342201998832
 20
0.8288427930552083
 30
0.0
 40
0.25
  1
0
 50
270.0
 41
0.5462658650931395
  7
COMPLEX
 72
     5
 11
1.633342201998832
 21
0.7377984822063519
 31
0.0
100
AcDbText
  0
TEXT
  5
E7
330
2
100
AcDbEntity
  8
2095
100
AcDbText
 10
1.633342201998832
 20
0.7142130674957249
 30
0.0
 40
0.25
  1
9
 50
270.0
 41
0.6853424684096196
  7
COMPLEX
 72
     5
 11
1.633342201998832
 21
0.6081481616704267
 31
0.0
100
AcDbText
  0
TEXT
  5
E8
330
2
100
AcDbEntity
  8
2095
100
AcDbText
 10
1.633342201998832
 20
0.9851218609768441
 30
0.0
 40
0.25
  1
F
 50
270.0
 41
0.398887340507267
  7
COMPLEX
 72
     5
 11
1.633342201998832
 21
0.923389296374529
 31
0.0
100
AcDbText
  0
TEXT
  5
E9
330
2
100
AcDbEntity
  8
2095
100
AcDbText
 10
1.633342201998832
 20
0.9071342316189399
 30
0.0
 40
0.25
  1
2
 50
270.0
 41
0.3605235357964354
  7
COMPLEX
 72
     5
 11
1.633342201998832
 21
0.8470469756528673
 31
0.0
100
AcDbText
  0
LINE
  5
EA
330
2
100
AcDbEntity
  8
HEAD
100
AcDbLine
 10
1.39065208399725
 20
1.025000000000002
 30
0.0
 11
2.50565208399725
 21
1.025000000000002
 31
0.0
  0
LINE
  5
EB
330
2
100
AcDbEntity
  8
HEAD
100
AcDbLine
 10
1.360652083997253
 20
1.09375
 30
0.0
 11
1.39065208399725
 21
1.025
 31
0.0
  0
ARC
  5
EC
330
2
100
AcDbEntity
  8
HEAD
100
AcDbCircle
 10
1.200652083997249
 20
1.033749999999999
 30
0.0
 40
0.06
100
AcDbArc
 50
90.0
 51
180.0
  0
LINE
  5
ED
330
2
100
AcDbEntity
  8
BASE
100
AcDbLine
 10
1.135158584638158
 20
0.8325000000000001
 30
0.0
 11
1.09142098516755
 21
0.8325000000000001
 31
0.0
  0
TEXT
  5
EE
330
2
100
AcDbEntity
  8
2095
100
AcDbText
 10
1.471310592496773
 20
0.8286574241978
 30
0.0
 40
0.08
  1
95
 50
270.0
 41
0.5282987934638715
  7
SIMPLEX
 72
     5
 11
1.471310592496773
 21
0.7602301519015273
 31
0.0
100
AcDbText
  0
TEXT
  5
F0
330
2
100
AcDbEntity
  8
2095
100
AcDbText
 10
1.471310592496773
 20
0.7211288534465141
 30
0.0
 40
0.08
  1
GPM
 50
269.9999999999998
 41
0.661753114394827
  7
SIMPLEX
 72
     5
 11
1.471310592496773
 21
0.5749129272183237
 31
0.0
100
AcDbText
  0
TEXT
  5
F1
330
2
100
AcDbEntity
  8
2095
100
AcDbText
 10
1.483272922276073
 20
0.8724272265297637
 30
0.0
 40
0.0587780732262404
  1
/
 50
279.196655891629
  7
SIMPLEX
100
AcDbText
  0
TEXT
  5
F2
330
2
100
AcDbEntity
  8
2095
100
AcDbText
 10
1.471310592496773
 20
0.9206065713459169
 30
0.0
 40
0.08
  1
20
 50
270.0
 41
0.330186745914921
  7
SIMPLEX
 72
     5
 11
1.471310592496773
 21
0.8778395261607462
 31
0.0
100
AcDbText
  0
LINE
  5
F3
330
2
100
AcDbEntity
  8
HEAD
100
AcDbLine
 10
1.200652083997249
 20
1.09375
 30
0.0
 11
1.360652083997253
 21
1.09375
 31
0.0
  0
LINE
  5
F4
330
2
100
AcDbEntity
  8
BASE
100
AcDbLine
 10
1.004107306354145
 20
1.21147729353598
 30
0.0
 11
0.9167936275407413
 21
1.21147729353598
 31
0.0
  0
LINE
  5
F5
330
2
100
AcDbEntity
  8
BASE
100
AcDbLine
 10
0.9167936275407413
 20
1.211477293535982
 30
0.0
 11
0.8731367881340403
 21
1.255134132942684
 31
0.0
  0
ARC
  5
F6
330
2
100
AcDbEntity
  8
BASE
100
AcDbCircle
 10
1.004107306354145
 20
1.124163614722578
 30
0.0
 40
0.0873136788134041
100
AcDbArc
 50
0.0
 51
89.99999999999998
  0
LINE
  5
F7
330
2
100
AcDbEntity
  8
BUMPER
100
AcDbLine
 10
4.990143907303581
 20
-1.384999999999998
 30
0.0
 11
4.990143907303581
 21
1.385
 31
0.0
  0
LINE
  5
F9
330
2
100
AcDbEntity
  8
BUMPER
100
AcDbLine
 10
4.705143907303581
 20
-1.384999999999997
 30
0.0
 11
4.705143907303581
 21
1.385
 31
0.0
  0
ARC
  5
FA
330
2
100
AcDbEntity
  8
BUMPER
100
AcDbCircle
 10
4.474770036846216
 20
-0.4298987252641009
 30
0.0
 40
0.0902586336251138
100
AcDbArc
 50
284.1798538204297
 51
74.30676075234294
  0
ARC
  5
FB
330
2
100
AcDbEntity
  8
BUMPER
100
AcDbCircle
 10
3.481321995314943
 20
-0.4228443195143759
 30
0.0
 40
0.0875
100
AcDbArc
 50
90.00000000000001
 51
270.0
  0
LINE
  5
FC
330
2
100
AcDbEntity
  8
HEAD
100
AcDbLine
 10
3.083152083997251
 20
1.097499999999999
 30
0.0
 11
3.083152083997251
 21
-1.0975
 31
0.0
  0
LINE
  5
FD
330
2
100
AcDbEntity
  8
BUMPER
100
AcDbLine
 10
3.319929886451481
 20
-1.146257811545087
 30
0.0
 11
3.319929886451481
 21
1.146283620638846
 31
0.0
  0
LINE
  5
102
330
2
100
AcDbEntity
  8
BUMPER
100
AcDbLine
 10
3.4290750732365
 20
-1.140513389660078
 30
0.0
 11
4.515143907303581
 21
-1.17284470707217
 31
0.0
  0
LINE
  5
103
330
2
100
AcDbEntity
  8
BUMPER
100
AcDbLine
 10
3.490846401144966
 20
-1.242460431025527
 30
0.0
 11
4.566970526061956
 21
-1.276415883013726
 31
0.0
  0
LINE
  5
104
330
2
100
AcDbEntity
  8
BUMPER
100
AcDbLine
 10
3.431586111484001
 20
-0.988476550533325
 30
0.0
 11
4.515307834883936
 21
-1.021529883849541
 31
0.0
  0
LINE
  5
105
330
2
100
AcDbEntity
  8
BUMPER
100
AcDbLine
 10
3.481321995314943
 20
-1.087518589108317
 30
0.0
 11
4.566970526061956
 21
-1.119261216842358
 31
0.0
  0
LINE
  5
106
330
2
100
AcDbEntity
  8
BUMPER
100
AcDbLine
 10
3.481321995314943
 20
-0.8631593300210361
 30
0.0
 11
4.519092648030563
 21
-0.8902342546773738
 31
0.0
  0
LINE
  5
107
330
2
100
AcDbEntity
  8
BUMPER
100
AcDbLine
 10
3.481321995314943
 20
-0.5103443195143758
 30
0.0
 11
4.496880378158017
 21
-0.5174073177047758
 31
0.0
  0
LINE
  5
108
330
2
100
AcDbEntity
  8
BUMPER
100
AcDbLine
 10
3.481321995314943
 20
-0.7078421947597247
 30
0.0
 11
4.515143907303581
 21
-0.7349171194160622
 31
0.0
  0
ARC
  5
109
330
2
100
AcDbEntity
  8
BUMPER
100
AcDbCircle
 10
3.493821995314943
 20
-1.14250471163271
 30
0.0
 40
0.1
100
AcDbArc
 50
195.7170325643666
 51
268.2948584353896
  0
ARC
  5
10A
330
2
100
AcDbEntity
  8
BUMPER
100
AcDbCircle
 10
3.466570286817794
 20
-0.7843570821032149
 30
0.0
 40
0.0779239429750049
100
AcDbArc
 50
79.08753543938907
 51
187.4349570611508
  0
ARC
  5
10B
330
2
100
AcDbEntity
  8
BUMPER
100
AcDbCircle
 10
3.484297589484919
 20
-0.763203610628219
 30
0.0
 40
0.1
100
AcDbArc
 50
198.2020416901729
 51
268.2948584353896
  0
ARC
  5
10C
330
2
100
AcDbEntity
  8
BUMPER
100
AcDbCircle
 10
3.484297589484919
 20
-0.9875628697155004
 30
0.0
 40
0.1
100
AcDbArc
 50
203.0518886581975
 51
268.2948584353896
  0
ARC
  5
10D
330
2
100
AcDbEntity
  8
HEAD
100
AcDbCircle
 10
3.660652083997249
 20
1.166293103448274
 30
0.0
 40
2.336293103448274
100
AcDbArc
 50
255.6889169302282
 51
261.5080862789356
  0
ARC
  5
10E
330
2
100
AcDbEntity
  8
BUMPER
100
AcDbCircle
 10
3.329929886451481
 20
-1.146257811545087
 30
0.0
 40
0.01
100
AcDbArc
 50
180.0
 51
265.3827039306355
  0
ARC
  5
10F
330
2
100
AcDbEntity
  8
BUMPER
100
AcDbCircle
 10
3.421870517833271
 20
-1.164321842676103
 30
0.0
 40
0.0248746468030096
100
AcDbArc
 50
73.16392583028108
 51
192.2351181549603
  0
LINE
  5
110
330
2
100
AcDbEntity
  8
BUMPER
100
AcDbLine
 10
3.329124888234907
 20
-1.156225357776297
 30
0.0
 11
3.397132552058299
 21
-1.161717787590145
 31
0.0
  0
ARC
  5
111
330
2
100
AcDbEntity
  8
BUMPER
100
AcDbCircle
 10
3.425477320360355
 20
-1.022372727424397
 30
0.0
 40
0.0334781603662238
100
AcDbArc
 50
78.12617577815095
 51
187.4599984064925
  0
LINE
  5
112
330
2
100
AcDbEntity
  8
BUMPER
100
AcDbLine
 10
4.515143907303581
 20
-1.021524884085454
 30
0.0
 11
4.515143907303581
 21
-0.8901312339787338
 31
0.0
  0
LINE
  5
113
330
2
100
AcDbEntity
  8
BUMPER
100
AcDbLine
 10
4.705143907303581
 20
-1.384999999999997
 30
0.0
 11
4.990143907303581
 21
-1.384999999999998
 31
0.0
  0
ARC
  5
114
330
2
100
AcDbEntity
  8
BUMPER
100
AcDbCircle
 10
4.654698372088793
 20
-1.16159411190594
 30
0.0
 40
0.1400072302885865
100
AcDbArc
 50
184.6091004205986
 51
231.1145090851901
  0
ARC
  5
115
330
2
100
AcDbEntity
  8
BUMPER
100
AcDbCircle
 10
4.705143907303581
 20
-1.194999999999998
 30
0.0
 40
0.19
100
AcDbArc
 50
205.0151310802963
 51
270.0
  0
LINE
  5
116
330
2
100
AcDbEntity
  8
BUMPER
100
AcDbLine
 10
4.515143907303581
 20
-1.17284470707217
 30
0.0
 11
4.515143907303581
 21
-1.118274031660611
 31
0.0
  0
ARC
  5
117
330
2
100
AcDbEntity
  8
BUMPER
100
AcDbCircle
 10
4.654862299669147
 20
-1.010279288683311
 30
0.0
 40
0.1400072302885865
100
AcDbArc
 50
184.6091004205986
 51
231.1145090851901
  0
LINE
  5
118
330
2
100
AcDbEntity
  8
BUMPER
100
AcDbLine
 10
4.515143907303581
 20
-0.7349171194160609
 30
0.0
 11
4.515143907303581
 21
-0.5106240095817452
 31
0.0
  0
ARC
  5
119
330
2
100
AcDbEntity
  8
BUMPER
100
AcDbCircle
 10
4.479233097767563
 20
-0.8131098819337658
 30
0.0
 40
0.0868156242750327
100
AcDbArc
 50
297.3309025091432
 51
348.7226092607421
  0
ARC
  5
11A
330
2
100
AcDbEntity
  8
BUMPER
100
AcDbCircle
 10
4.833187580904356
 20
-0.6355981540688416
 30
0.0
 40
0.3331906889382101
100
AcDbArc
 50
197.342587395097
 51
215.6276651342796
  0
LINE
  5
11B
330
2
100
AcDbEntity
  8
BUMPER
100
AcDbLine
 10
3.490846401144966
 20
1.242460431025529
 30
0.0
 11
4.566970526061956
 21
1.276415883013728
 31
0.0
  0
LINE
  5
11C
330
2
100
AcDbEntity
  8
BUMPER
100
AcDbLine
 10
3.481321995314943
 20
0.0874999999999999
 30
0.0
 11
4.47927617903349
 21
0.0874999999999999
 31
0.0
  0
LINE
  5
11D
330
2
100
AcDbEntity
  8
BUMPER
100
AcDbLine
 10
3.481321995314943
 20
-0.0875000000000002
 30
0.0
 11
4.47927617903349
 21
-0.0874999999999999
 31
0.0
  0
LINE
  5
11E
330
2
100
AcDbEntity
  8
BUMPER
100
AcDbLine
 10
3.481321995314943
 20
0.3353443195143757
 30
0.0
 11
4.496880378158017
 21
0.3424073177047762
 31
0.0
  0
LINE
  5
11F
330
2
100
AcDbEntity
  8
BUMPER
100
AcDbLine
 10
3.481321995314943
 20
0.7078421947597247
 30
0.0
 11
4.515143907303581
 21
0.7349171194160621
 31
0.0
  0
LINE
  5
120
330
2
100
AcDbEntity
  8
BUMPER
100
AcDbLine
 10
3.481321995314943
 20
0.5103443195143758
 30
0.0
 11
4.496880378158017
 21
0.517407317704776
 31
0.0
  0
LINE
  5
121
330
2
100
AcDbEntity
  8
BUMPER
100
AcDbLine
 10
3.481321995314943
 20
0.8631593300210361
 30
0.0
 11
4.519092648030563
 21
0.8902342546773738
 31
0.0
  0
LINE
  5
122
330
2
100
AcDbEntity
  8
BUMPER
100
AcDbLine
 10
3.481321995314943
 20
1.087518589108317
 30
0.0
 11
4.566970526061956
 21
1.119261216842358
 31
0.0
  0
LINE
  5
123
330
2
100
AcDbEntity
  8
BUMPER
100
AcDbLine
 10
3.431586111484001
 20
0.9884765505333252
 30
0.0
 11
4.515307834883936
 21
1.021529883849541
 31
0.0
  0
LINE
  5
124
330
2
100
AcDbEntity
  8
BUMPER
100
AcDbLine
 10
3.4290750732365
 20
1.14051338966008
 30
0.0
 11
4.515143907303581
 21
1.172844707072172
 31
0.0
  0
LINE
  5
125
330
2
100
AcDbEntity
  8
BUMPER
100
AcDbLine
 10
3.481321995314943
 20
-0.3353443195143759
 30
0.0
 11
4.496880378158017
 21
-0.3424073177047759
 31
0.0
  0
ARC
  5
126
330
2
100
AcDbEntity
  8
BUMPER
100
AcDbCircle
 10
3.481321995314943
 20
0.0
 30
0.0
 40
0.0875
100
AcDbArc
 50
90.00000000000005
 51
270.0
  0
ARC
  5
127
330
2
100
AcDbEntity
  8
BUMPER
100
AcDbCircle
 10
3.481321995314943
 20
0.4228443195143759
 30
0.0
 40
0.0875
100
AcDbArc
 50
90.00000000000005
 51
270.0
  0
ARC
  5
128
330
2
100
AcDbEntity
  8
BUMPER
100
AcDbCircle
 10
3.493821995314943
 20
1.142504711632712
 30
0.0
 40
0.1
100
AcDbArc
 50
91.70514156461043
 51
164.2829674356334
  0
ARC
  5
129
330
2
100
AcDbEntity
  8
BUMPER
100
AcDbCircle
 10
3.484297589484919
 20
0.9875628697155006
 30
0.0
 40
0.1
100
AcDbArc
 50
91.70514156461043
 51
156.9481113418025
  0
ARC
  5
12A
330
2
100
AcDbEntity
  8
BUMPER
100
AcDbCircle
 10
3.484297589484919
 20
0.7632036106282192
 30
0.0
 40
0.1
100
AcDbArc
 50
91.70514156461043
 51
161.7979583098271
  0
ARC
  5
12B
330
2
100
AcDbEntity
  8
BUMPER
100
AcDbCircle
 10
3.466570286817794
 20
0.7843570821032147
 30
0.0
 40
0.0779239429750049
100
AcDbArc
 50
172.5650429388492
 51
280.9124645606109
  0
LINE
  5
12C
330
2
100
AcDbEntity
  8
HEAD
100
AcDbLine
 10
3.08315208399725
 20
0.9484781804003652
 30
0.0
 11
3.083152083997251
 21
1.0975
 31
0.0
  0
ARC
  5
12D
330
2
100
AcDbEntity
  8
BUMPER
100
AcDbCircle
 10
3.425477320360355
 20
1.022372727424398
 30
0.0
 40
0.0334781603662238
100
AcDbArc
 50
172.5400015935075
 51
281.8738242218491
  0
ARC
  5
12E
330
2
100
AcDbEntity
  8
HEAD
100
AcDbCircle
 10
3.660652083997249
 20
-1.166293103448274
 30
0.0
 40
2.336293103448274
100
AcDbArc
 50
98.49191372106444
 51
104.3110830697718
  0
ARC
  5
12F
330
2
100
AcDbEntity
  8
BUMPER
100
AcDbCircle
 10
3.329929886451481
 20
1.146283620638846
 30
0.0
 40
0.01
100
AcDbArc
 50
98.72795348780023
 51
180.0
  0
LINE
  5
130
330
2
100
AcDbEntity
  8
BUMPER
100
AcDbLine
 10
3.328412455761296
 20
1.156167820358626
 30
0.0
 11
3.397132552058299
 21
1.161717787590147
 31
0.0
  0
ARC
  5
131
330
2
100
AcDbEntity
  8
BUMPER
100
AcDbCircle
 10
3.421870517833271
 20
1.164321842676105
 30
0.0
 40
0.0248746468030096
100
AcDbArc
 50
167.7648818450397
 51
286.8360741697189
  0
LINE
  5
132
330
2
100
AcDbEntity
  8
BUMPER
100
AcDbLine
 10
4.515143907303581
 20
0.7349171194160609
 30
0.0
 11
4.515143907303581
 21
0.5106240095817452
 31
0.0
  0
ARC
  5
133
330
2
100
AcDbEntity
  8
BUMPER
100
AcDbCircle
 10
4.47927617903349
 20
0.0
 30
0.0
 40
0.0875
100
AcDbArc
 50
270.0
 51
90.00000000000005
  0
LINE
  5
134
330
2
100
AcDbEntity
  8
BUMPER
100
AcDbLine
 10
4.515143907303581
 20
-0.3491734409464566
 30
0.0
 11
4.515143907303581
 21
-0.0798107515861282
 31
0.0
  0
LINE
  5
135
330
2
100
AcDbEntity
  8
BUMPER
100
AcDbLine
 10
4.515143907303581
 20
0.3491734409464569
 30
0.0
 11
4.515143907303581
 21
0.0798107515861282
 31
0.0
  0
ARC
  5
136
330
2
100
AcDbEntity
  8
BUMPER
100
AcDbCircle
 10
4.474770036846216
 20
0.4298987252641009
 30
0.0
 40
0.0902586336251138
100
AcDbArc
 50
285.6932392476571
 51
75.82014617957032
  0
ARC
  5
137
330
2
100
AcDbEntity
  8
BUMPER
100
AcDbCircle
 10
4.654862299669147
 20
1.010279288683311
 30
0.0
 40
0.1400072302885865
100
AcDbArc
 50
128.8854909148099
 51
175.3908995794014
  0
ARC
  5
138
330
2
100
AcDbEntity
  8
BUMPER
100
AcDbCircle
 10
4.833187580904356
 20
0.6355981540688416
 30
0.0
 40
0.3331906889382101
100
AcDbArc
 50
144.3723348657204
 51
162.657412604903
  0
ARC
  5
139
330
2
100
AcDbEntity
  8
BUMPER
100
AcDbCircle
 10
4.479233097767563
 20
0.8131098819337658
 30
0.0
 40
0.0868156242750327
100
AcDbArc
 50
11.27739073925792
 51
62.66909749085682
  0
LINE
  5
13A
330
2
100
AcDbEntity
  8
BUMPER
100
AcDbLine
 10
4.515143907303581
 20
1.021524884085454
 30
0.0
 11
4.515143907303581
 21
0.890131233978734
 31
0.0
  0
LINE
  5
13B
330
2
100
AcDbEntity
  8
BUMPER
100
AcDbLine
 10
4.705143907303581
 20
1.385
 30
0.0
 11
4.990143907303581
 21
1.385
 31
0.0
  0
ARC
  5
13C
330
2
100
AcDbEntity
  8
BUMPER
100
AcDbCircle
 10
4.705143907303581
 20
1.195
 30
0.0
 40
0.19
100
AcDbArc
 50
90.0
 51
154.9848689197036
  0
LINE
  5
13D
330
2
100
AcDbEntity
  8
BUMPER
100
AcDbLine
 10
4.515143907303581
 20
1.172844707072172
 30
0.0
 11
4.515143907303581
 21
1.118274031660613
 31
0.0
  0
ARC
  5
13E
330
2
100
AcDbEntity
  8
BUMPER
100
AcDbCircle
 10
4.654698372088793
 20
1.161594111905942
 30
0.0
 40
0.1400072302885865
100
AcDbArc
 50
128.8854909148099
 51
175.3908995794014
  0
LINE
  5
13F
330
2
100
AcDbEntity
  8
BUMPER
100
AcDbLine
 10
4.566806598481601
 20
1.270576040064989
 30
0.0
 11
4.566970526061956
 21
1.276415883013728
 31
0.0
  0
INSERT
  5
2FB
330
2
100
AcDbEntity
  8
2095
100
AcDbBlockReference
 66
     1
  2
TFT_APRLIST
 10
-2.59375
 20
-0.0625
 30
0.0
  0
ATTRIB
  5
2FC
330
2FB
100
AcDbEntity
  8
DIM
100
AcDbText
 10
-1.094999997433001
 20
-3.26944501421848
 30
0.0
 40
0.13
  1
F2095
  7
SIMPLEX
100
AcDbAttribute
  2
PART_#
 70
     0
  0
ATTRIB
  5
2FD
330
2FB
100
AcDbEntity
  8
DIM
100
AcDbText
 10
-1.089066254908178
 20
-3.593630609568119
 30
0.0
 40
0.13
  1
TWISTER TIP 1.5" NH
  7
SIMPLEX
100
AcDbAttribute
  2
PART_DESCRIPTION
 70
     0
  0
ATTRIB
  5
2FE
330
2FB
100
AcDbEntity
  8
DIM
100
AcDbText
 10
-1.093749998534065
 20
-3.906957553051039
 30
0.0
 40
0.13
  1
20 & 95 GPM TWIST TYPE NOZZLE
  7
SIMPLEX
100
AcDbAttribute
  2
EXTRA_DESCRIPTION
 70
     0
  0
ATTRIB
  5
2FF
330
2FB
100
AcDbEntity
  8
DIM
100
AcDbText
 10
0.8892857157516491
 20
-3.312499998273461
 30
0.0
 40
0.1
  1
1 OF 1
  7
SIMPLEX
 72
     4
 11
1.125000001465934
 21
-3.262499998273462
 31
0.0
100
AcDbAttribute
  2
SHEET
 70
     0
  0
ATTRIB
  5
300
330
2FB
100
AcDbEntity
  8
DIM
100
AcDbText
 10
5.777000001651005
 20
-3.903569024870303
 30
0.0
 40
0.08
  1
F\FIN & SUB\F2095
  7
SIMPLEX
100
AcDbAttribute
  2
FILE_NAME
 70
     0
  0
ATTRIB
  5
301
330
2FB
100
AcDbEntity
  8
DIM
100
AcDbText
 10
6.000000001465934
 20
-2.929743860095429
 30
0.0
 40
0.08
  1
FULL
  7
SIMPLEX
100
AcDbAttribute
  2
SCALE
 70
     0
  0
ATTRIB
  5
302
330
2FB
100
AcDbEntity
  8
DIM
100
AcDbText
 10
5.563287319256288
 20
-3.272470309134189
 30
0.0
 40
0.08
  1
6/3/92
  7
SIMPLEX
 72
     4
 11
5.788049224018193
 21
-3.238184594848474
 31
0.0
100
AcDbAttribute
  2
DATE
 70
     0
  0
ATTRIB
  5
303
330
2FB
100
AcDbEntity
  8
DIM
100
AcDbText
 10
6.247501214395931
 20
-3.278184594848474
 30
0.0
 40
0.08
  1
MWR
  7
SIMPLEX
 72
     4
 11
6.365596452491169
 21
-3.238184594848474
 31
0.0
100
AcDbAttribute
  2
WHO?
 70
     0
  0
ATTRIB
  5
304
330
2FB
100
AcDbEntity
  8
DIM
100
AcDbText
 10
5.47566827163724
 20
-3.596747524608138
 30
0.0
 40
0.08
  1
11/29/99
  7
SCRIPT
 72
     4
 11
5.788049224018193
 21
-3.562461810322424
 31
0.0
100
AcDbAttribute
  2
DATE
 70
     0
  0
ATTRIB
  5
305
330
2FB
100
AcDbEntity
  8
DIM
100
AcDbText
 10
6.226548833443573
 20
-3.602461810322424
 30
0.0
 40
0.08
  1
RWS
  7
SCRIPT
 72
     4
 11
6.365596452491192
 21
-3.562461810322424
 31
0.0
100
AcDbAttribute
  2
WHO?
 70
     0
  0
ATTRIB
  5
306
330
2FB
100
AcDbEntity
  8
DIM
100
AcDbText
 10
6.683895855643239
 20
-3.602461810322424
 30
0.0
 40
0.08
  1
Laura A. Walker
  7
SCRIPT
 11
6.683895855643239
 21
-3.562461810322424
 31
0.0
100
AcDbAttribute
  2
WHO?
 70
     0
 74
     2
  0
SEQEND
  5
307
330
2FB
100
AcDbEntity
  8
2095
  0
INSERT
  5
31F
330
2
100
AcDbEntity
  8
2095
100
AcDbBlockReference
 66
     1
  2
rvsn_blk
 10
6.84036963695524
 20
-2.608184594848474
 30
0.0
  0
ATTRIB
  5
320
330
31F
100
AcDbEntity
  8
DIM
100
AcDbText
 10
6.696044358726
 20
-2.563911354560655
 30
1.0
 40
0.07
  1
1
  7
SIMPLEX
100
AcDbAttribute
  2
X
 70
     0
  0
ATTRIB
  5
321
330
31F
100
AcDbEntity
  8
DIM
100
AcDbText
 10
6.894519890803551
 20
-2.561228259406723
 30
1.0
 40
0.07
  1
11/9/99
  7
SIMPLEX
 72
     1
 11
7.109519890803551
 21
-2.561228259406723
 31
1.0
100
AcDbAttribute
  2
DATE
 70
     0
  0
ATTRIB
  5
322
330
31F
100
AcDbEntity
  8
DIM
100
AcDbText
 10
7.505209271121318
 20
-2.561228259406723
 30
1.0
 40
0.07
  1
BMH
  7
SIMPLEX
 72
     1
 11
7.603542604454651
 21
-2.561228259406723
 31
1.0
100
AcDbAttribute
  2
XXX
 70
     0
  0
SEQEND
  5
323
330
31F
100
AcDbEntity
  8
2095
  0
ENDSEC
  0
SECTION
  2
OBJECTS
  0
DICTIONARY
  5
1A
330
0
100
AcDbDictionary
281
     1
  3
ACAD_COLOR
350
358
  3
ACAD_GROUP
350
18
  3
ACAD_LAYOUT
350
30D
  3
ACAD_MATERIAL
350
357
  3
ACAD_MLINESTYLE
350
19
  3
ACAD_PLOTSETTINGS
350
30C
  3
ACAD_PLOTSTYLENAME
350
30A
  3
ACAD_TABLESTYLE
350
359
  3
AcDbVariableDictionary
350
360
  0
DICTIONARY
  5
358
102
{ACAD_REACTORS
330
1A
102
}
330
1A
100
AcDbDictionary
281
     1
  0
DICTIONARY
  5
18
102
{ACAD_REACTORS
330
1A
102
}
330
1A
100
AcDbDictionary
281
     1
  0
DICTIONARY
  5
30D
102
{ACAD_REACTORS
330
1A
102
}
330
1A
100
AcDbDictionary
281
     1
  3
Layout1
350
30F
  3
Model
350
30E
  0
DICTIONARY
  5
357
102
{ACAD_REACTORS
330
1A
102
}
330
1A
100
AcDbDictionary
281
     1
  0
DICTIONARY
  5
19
102
{ACAD_REACTORS
330
1A
102
}
330
1A
100
AcDbDictionary
281
     1
  3
STANDARD
350
1C
  0
DICTIONARY
  5
30C
102
{ACAD_REACTORS
330
1A
102
}
330
1A
100
AcDbDictionary
281
     1
  0
ACDBDICTIONARYWDFLT
  5
30A
102
{ACAD_REACTORS
330
1A
102
}
330
1A
100
AcDbDictionary
281
     1
  3
Normal
350
30B
100
AcDbDictionaryWithDefault
340
30B
  0
DICTIONARY
  5
359
102
{ACAD_REACTORS
330
1A
102
}
330
1A
100
AcDbDictionary
281
     1
  3
Standard
350
35A
  0
DICTIONARY
  5
360
102
{ACAD_REACTORS
330
1A
102
}
330
1A
100
AcDbDictionary
281
     1
  3
CTABLESTYLE
350
361
  0
LAYOUT
  5
30F
102
{ACAD_REACTORS
330
30D
102
}
330
30D
100
AcDbPlotSettings
  1

  2

  4

  6

 40
0.0
 41
0.0
 42
0.0
 43
0.0
 44
0.0
 45
0.0
 46
0.0
 47
0.0
 48
0.0
 49
0.0
140
0.0
141
0.0
142
1.0
143
1.0
 70
   688
 72
     0
 73
     0
 74
     5
  7
monochrome.ctb
 75
    16
147
1.0
 76
     0
 77
     2
 78
   300
148
0.0
149
0.0
100
AcDbLayout
  1
Layout1
 70
     0
 71
     1
 10
0.0
 20
0.0
 11
12.0
 21
9.0
 12
0.0
 22
0.0
 32
0.0
 14
1.000000000000000E+20
 24
1.000000000000000E+20
 34
1.000000000000000E+20
 15
-1.000000000000000E+20
 25
-1.000000000000000E+20
 35
-1.000000000000000E+20
146
0.0
 13
0.0
 23
0.0
 33
0.0
 16
1.0
 26
0.0
 36
0.0
 17
0.0
 27
1.0
 37
0.0
 76
     0
330
7
  0
LAYOUT
  5
30E
102
{ACAD_REACTORS
330
30D
102
}
330
30D
100
AcDbPlotSettings
  1

  2
hpgl.pc3
  4
ANSI_A_(11.00_x_8.50_Inches)
  6

 40
11.5657377243042
 41
9.699920654296875
 42
11.59060668945312
 43
9.737228393554687
 44
279.3999938964844
 45
215.8999938964844
 46
0.0
 47
1.27
 48
-2.59375
 49
-4.012500000000002
140
7.856249999999999
141
3.887499999999999
142
1.0
143
1.035850061204705
 70
 11956
 72
     0
 73
     0
 74
     4
  7
monochrome.ctb
 75
     0
147
0.9653906848612704
 76
     0
 77
     2
 78
   300
148
65.88124999999999
149
101.9175
100
AcDbLayout
  1
Model
 70
     1
 71
     0
 10
0.0
 20
0.0
 11
12.0
 21
9.0
 12
0.0
 22
0.0
 32
0.0
 14
0.0
 24
0.0
 34
0.0
 15
0.0
 25
0.0
 35
0.0
146
0.0
 13
0.0
 23
0.0
 33
0.0
 16
1.0
 26
0.0
 36
0.0
 17
0.0
 27
1.0
 37
0.0
 76
     0
330
2
  0
MLINESTYLE
  5
1C
102
{ACAD_REACTORS
330
19
102
}
330
19
100
AcDbMlineStyle
  2
STANDARD
 70
     0
  3

 62
   256
 51
90.0
 52
90.0
 71
     2
 49
0.5
 62
   256
  6
BYLAYER
 49
-0.5
 62
   256
  6
BYLAYER
  0
ACDBPLACEHOLDER
  5
30B
102
{ACAD_REACTORS
330
30A
102
}
330
30A
  0
TABLESTYLE
  5
35A
102
{ACAD_REACTORS
330
359
102
}
330
359
100
AcDbTableStyle
  3
Standard
 70
     0
 71
     0
 40
0.06
 41
0.06
280
     0
281
     0
  7
STANDARD
140
0.18
170
     2
 62
     0
 63
     7
283
     0
274
    -2
284
     1
 64
     0
275
    -2
285
     1
 65
     0
276
    -2
286
     1
 66
     0
277
    -2
287
     1
 67
     0
278
    -2
288
     1
 68
     0
279
    -2
289
     1
 69
     0
  7
STANDARD
140
0.25
170
     5
 62
     0
 63
     7
283
     0
274
    -2
284
     1
 64
     0
275
    -2
285
     1
 65
     0
276
    -2
286
     1
 66
     0
277
    -2
287
     1
 67
     0
278
    -2
288
     1
 68
     0
279
    -2
289
     1
 69
     0
  7
STANDARD
140
0.18
170
     5
 62
     0
 63
     7
283
     0
274
    -2
284
     1
 64
     0
275
    -2
285
     1
 65
     0
276
    -2
286
     1
 66
     0
277
    -2
287
     1
 67
     0
278
    -2
288
     1
 68
     0
279
    -2
289
     1
 69
     0
  0
DICTIONARYVAR
  5
361
102
{ACAD_REACTORS
330
360
102
}
330
360
100
DictionaryVariables
280
     0
  1
STANDARD
  0
ENDSEC
  0
EOF
