  0
SECTION
  2
HEADER
  9
$ACADVER
  1
AC1018
  9
$ACADMAINTVER
 70
    39
  9
$DWGCODEPAGE
  3
ANSI_1252
  9
$INSBASE
 10
0.0
 20
0.0
 30
0.0
  9
$EXTMIN
 10
-2.59375
 20
-4.012500000000002
 30
0.0
  9
$EXTMAX
 10
18.67513366914655
 20
3.8875
 30
1.0
  9
$LIMMIN
 10
-9.0
 20
-6.0
  9
$LIMMAX
 10
9.0
 20
6.0
  9
$ORTHOMODE
 70
     0
  9
$REGENMODE
 70
     1
  9
$FILLMODE
 70
     1
  9
$QTEXTMODE
 70
     0
  9
$MIRRTEXT
 70
     0
  9
$LTSCALE
 40
1.0
  9
$ATTMODE
 70
     1
  9
$TEXTSIZE
 40
0.1
  9
$TRACEWID
 40
0.05
  9
$TEXTSTYLE
  7
STANDARD
  9
$CLAYER
  8
2060
  9
$CELTYPE
  6
BYLAYER
  9
$CECOLOR
 62
   256
  9
$CELTSCALE
 40
1.0
  9
$DISPSILH
 70
     0
  9
$DIMSCALE
 40
1.0
  9
$DIMASZ
 40
0.1
  9
$DIMEXO
 40
0.0625
  9
$DIMDLI
 40
0.375
  9
$DIMRND
 40
0.0
  9
$DIMDLE
 40
0.0
  9
$DIMEXE
 40
0.0625
  9
$DIMTP
 40
0.0
  9
$DIMTM
 40
0.0
  9
$DIMTXT
 40
0.1
  9
$DIMCEN
 40
0.05
  9
$DIMTSZ
 40
0.0
  9
$DIMTOL
 70
     0
  9
$DIMLIM
 70
     0
  9
$DIMTIH
 70
     0
  9
$DIMTOH
 70
     0
  9
$DIMSE1
 70
     0
  9
$DIMSE2
 70
     0
  9
$DIMTAD
 70
     0
  9
$DIMZIN
 70
     4
  9
$DIMBLK
  1

  9
$DIMASO
 70
     0
  9
$DIMSHO
 70
     1
  9
$DIMPOST
  1

  9
$DIMAPOST
  1

  9
$DIMALT
 70
     0
  9
$DIMALTD
 70
     2
  9
$DIMALTF
 40
25.4
  9
$DIMLFAC
 40
1.0
  9
$DIMTOFL
 70
     0
  9
$DIMTVP
 40
0.0
  9
$DIMTIX
 70
     1
  9
$DIMSOXD
 70
     0
  9
$DIMSAH
 70
     0
  9
$DIMBLK1
  1

  9
$DIMBLK2
  1

  9
$DIMSTYLE
  2
STANDARD
  9
$DIMCLRD
 70
     0
  9
$DIMCLRE
 70
     0
  9
$DIMCLRT
 70
     0
  9
$DIMTFAC
 40
1.0
  9
$DIMGAP
 40
0.09
  9
$DIMJUST
 70
     0
  9
$DIMSD1
 70
     0
  9
$DIMSD2
 70
     0
  9
$DIMTOLJ
 70
     1
  9
$DIMTZIN
 70
     4
  9
$DIMALTZ
 70
     4
  9
$DIMALTTZ
 70
     4
  9
$DIMUPT
 70
     0
  9
$DIMDEC
 70
     3
  9
$DIMTDEC
 70
     3
  9
$DIMALTU
 70
     2
  9
$DIMALTTD
 70
     2
  9
$DIMTXSTY
  7
STANDARD
  9
$DIMAUNIT
 70
     0
  9
$DIMADEC
 70
     0
  9
$DIMALTRND
 40
0.0
  9
$DIMAZIN
 70
     0
  9
$DIMDSEP
 70
    46
  9
$DIMATFIT
 70
     3
  9
$DIMFRAC
 70
     0
  9
$DIMLDRBLK
  1

  9
$DIMLUNIT
 70
     2
  9
$DIMLWD
 70
    -2
  9
$DIMLWE
 70
    -2
  9
$DIMTMOVE
 70
     2
  9
$LUNITS
 70
     2
  9
$LUPREC
 70
     3
  9
$SKETCHINC
 40
0.1
  9
$FILLETRAD
 40
0.01
  9
$AUNITS
 70
     0
  9
$AUPREC
 70
     0
  9
$MENU
  1
acad
  9
$ELEVATION
 40
0.0
  9
$PELEVATION
 40
0.0
  9
$THICKNESS
 40
0.0
  9
$LIMCHECK
 70
     0
  9
$CHAMFERA
 40
0.0
  9
$CHAMFERB
 40
0.0
  9
$CHAMFERC
 40
0.0
  9
$CHAMFERD
 40
0.0
  9
$SKPOLY
 70
     0
  9
$TDCREATE
 40
2447439.468648380
  9
$TDUCREATE
 40
2447439.676981713
  9
$TDUPDATE
 40
2453299.469514838
  9
$TDUUPDATE
 40
2453299.677848171
  9
$TDINDWG
 40
0.3563593981
  9
$TDUSRTIMER
 40
0.3563593981
  9
$USRTIMER
 70
     1
  9
$ANGBASE
 50
0.0
  9
$ANGDIR
 70
     0
  9
$PDMODE
 70
     0
  9
$PDSIZE
 40
0.0
  9
$PLINEWID
 40
0.015
  9
$SPLFRAME
 70
     0
  9
$SPLINETYPE
 70
     6
  9
$SPLINESEGS
 70
     8
  9
$HANDSEED
  5
56D
  9
$SURFTAB1
 70
     6
  9
$SURFTAB2
 70
     6
  9
$SURFTYPE
 70
     6
  9
$SURFU
 70
     6
  9
$SURFV
 70
     6
  9
$UCSBASE
  2

  9
$UCSNAME
  2

  9
$UCSORG
 10
0.0
 20
0.0
 30
0.0
  9
$UCSXDIR
 10
1.0
 20
0.0
 30
0.0
  9
$UCSYDIR
 10
0.0
 20
1.0
 30
0.0
  9
$UCSORTHOREF
  2

  9
$UCSORTHOVIEW
 70
     0
  9
$UCSORGTOP
 10
0.0
 20
0.0
 30
0.0
  9
$UCSORGBOTTOM
 10
0.0
 20
0.0
 30
0.0
  9
$UCSORGLEFT
 10
0.0
 20
0.0
 30
0.0
  9
$UCSORGRIGHT
 10
0.0
 20
0.0
 30
0.0
  9
$UCSORGFRONT
 10
0.0
 20
0.0
 30
0.0
  9
$UCSORGBACK
 10
0.0
 20
0.0
 30
0.0
  9
$PUCSBASE
  2

  9
$PUCSNAME
  2

  9
$PUCSORG
 10
0.0
 20
0.0
 30
0.0
  9
$PUCSXDIR
 10
1.0
 20
0.0
 30
0.0
  9
$PUCSYDIR
 10
0.0
 20
1.0
 30
0.0
  9
$PUCSORTHOREF
  2

  9
$PUCSORTHOVIEW
 70
     0
  9
$PUCSORGTOP
 10
0.0
 20
0.0
 30
0.0
  9
$PUCSORGBOTTOM
 10
0.0
 20
0.0
 30
0.0
  9
$PUCSORGLEFT
 10
0.0
 20
0.0
 30
0.0
  9
$PUCSORGRIGHT
 10
0.0
 20
0.0
 30
0.0
  9
$PUCSORGFRONT
 10
0.0
 20
0.0
 30
0.0
  9
$PUCSORGBACK
 10
0.0
 20
0.0
 30
0.0
  9
$USERI1
 70
     0
  9
$USERI2
 70
     0
  9
$USERI3
 70
     0
  9
$USERI4
 70
     0
  9
$USERI5
 70
     0
  9
$USERR1
 40
0.0
  9
$USERR2
 40
0.0
  9
$USERR3
 40
0.0
  9
$USERR4
 40
0.0
  9
$USERR5
 40
0.0
  9
$WORLDVIEW
 70
     1
  9
$SHADEDGE
 70
     3
  9
$SHADEDIF
 70
    70
  9
$TILEMODE
 70
     1
  9
$MAXACTVP
 70
    16
  9
$PINSBASE
 10
0.0
 20
0.0
 30
0.0
  9
$PLIMCHECK
 70
     0
  9
$PEXTMIN
 10
1.000000000000000E+20
 20
1.000000000000000E+20
 30
1.000000000000000E+20
  9
$PEXTMAX
 10
-1.000000000000000E+20
 20
-1.000000000000000E+20
 30
-1.000000000000000E+20
  9
$PLIMMIN
 10
0.0
 20
0.0
  9
$PLIMMAX
 10
12.0
 20
9.0
  9
$UNITMODE
 70
     0
  9
$VISRETAIN
 70
     0
  9
$PLINEGEN
 70
     1
  9
$PSLTSCALE
 70
     0
  9
$TREEDEPTH
 70
  3020
  9
$CMLSTYLE
  2
STANDARD
  9
$CMLJUST
 70
     0
  9
$CMLSCALE
 40
1.0
  9
$PROXYGRAPHICS
 70
     0
  9
$MEASUREMENT
 70
     0
  9
$CELWEIGHT
370
    -1
  9
$ENDCAPS
280
     0
  9
$JOINSTYLE
280
     0
  9
$LWDISPLAY
290
     0
  9
$INSUNITS
 70
     0
  9
$HYPERLINKBASE
  1

  9
$STYLESHEET
  1
monochrome.ctb
  9
$XEDIT
290
     1
  9
$CEPSNTYPE
380
     0
  9
$PSTYLEMODE
290
     1
  9
$FINGERPRINTGUID
  2
{23ACC45C-4E77-11D3-9C30-006008208A1C}
  9
$VERSIONGUID
  2
{3CF0344F-A8BE-484D-8C7D-3774D2DEA37B}
  9
$EXTNAMES
290
     1
  9
$PSVPSCALE
 40
0.0
  9
$OLESTARTUP
290
     0
  9
$SORTENTS
280
   127
  9
$INDEXCTL
280
     0
  9
$HIDETEXT
280
     0
  9
$XCLIPFRAME
290
     0
  9
$HALOGAP
280
     0
  9
$OBSCOLOR
 70
   257
  9
$OBSLTYPE
280
     0
  9
$INTERSECTIONDISPLAY
280
     0
  9
$INTERSECTIONCOLOR
 70
   257
  9
$DIMASSOC
280
     0
  9
$PROJECTNAME
  1

  0
ENDSEC
  0
SECTION
  2
CLASSES
  0
CLASS
  1
DICTIONARYVAR
  2
AcDbDictionaryVar
  3
ObjectDBX Classes
 90
        0
 91
        3
280
     0
281
     0
  0
CLASS
  1
ACDBDICTIONARYWDFLT
  2
AcDbDictionaryWithDefault
  3
ObjectDBX Classes
 90
        0
 91
        1
280
     0
281
     0
  0
CLASS
  1
TABLESTYLE
  2
AcDbTableStyle
  3
ObjectDBX Classes
 90
     2047
 91
        1
280
     0
281
     0
  0
ENDSEC
  0
SECTION
  2
TABLES
  0
TABLE
  2
VPORT
  5
1DE
330
0
100
AcDbSymbolTable
 70
     2
  0
VPORT
  5
56C
330
1DE
100
AcDbSymbolTableRecord
100
AcDbViewportTableRecord
  2
*Active
 70
     0
 10
0.0
 20
0.0
 11
1.0
 21
1.0
 12
8.040618947754401
 22
0.2829816461266699
 13
0.0
 23
0.0
 14
0.03125
 24
0.03125
 15
0.0
 25
0.0
 16
0.0
 26
0.0
 36
1.0
 17
0.0
 27
0.0
 37
0.0
 40
13.80799760188599
 41
1.551499348109517
 42
50.0
 43
0.0
 44
0.0
 50
0.0
 51
0.0
 71
     0
 72
  7500
 73
     1
 74
     0
 75
     0
 76
     0
 77
     0
 78
     0
281
     0
 65
     1
110
0.0
120
0.0
130
0.0
111
1.0
121
0.0
131
0.0
112
0.0
122
1.0
132
0.0
 79
     0
146
0.0
  0
ENDTAB
  0
TABLE
  2
LTYPE
  5
1DB
330
0
100
AcDbSymbolTable
 70
     4
  0
LTYPE
  5
1E7
330
1DB
100
AcDbSymbolTableRecord
100
AcDbLinetypeTableRecord
  2
BYBLOCK
 70
     0
  3

 72
    65
 73
     0
 40
0.0
  0
LTYPE
  5
1E8
330
1DB
100
AcDbSymbolTableRecord
100
AcDbLinetypeTableRecord
  2
BYLAYER
 70
     0
  3

 72
    65
 73
     0
 40
0.0
  0
LTYPE
  5
1E9
330
1DB
100
AcDbSymbolTableRecord
100
AcDbLinetypeTableRecord
  2
CONTINUOUS
 70
     0
  3
Solid line
 72
    65
 73
     0
 40
0.0
  0
LTYPE
  5
331
330
1DB
100
AcDbSymbolTableRecord
100
AcDbLinetypeTableRecord
  2
CENTER
 70
     0
  3
Center ____ _ ____ _ ____ _ ____ _ ____ _ ____
 72
    65
 73
     4
 40
2.0
 49
1.25
 74
     0
 49
-0.25
 74
     0
 49
0.25
 74
     0
 49
-0.25
 74
     0
  0
LTYPE
  5
332
330
1DB
100
AcDbSymbolTableRecord
100
AcDbLinetypeTableRecord
  2
HIDDEN
 70
     0
  3
Hidden __ __ __ __ __ __ __ __ __ __ __ __ __ _
 72
    65
 73
     2
 40
0.375
 49
0.25
 74
     0
 49
-0.125
 74
     0
  0
LTYPE
  5
333
330
1DB
100
AcDbSymbolTableRecord
100
AcDbLinetypeTableRecord
  2
PHANTOM
 70
     0
  3
Phantom ______  __  __  ______  __  __  ______
 72
    65
 73
     6
 40
2.5
 49
1.25
 74
     0
 49
-0.25
 74
     0
 49
0.25
 74
     0
 49
-0.25
 74
     0
 49
0.25
 74
     0
 49
-0.25
 74
     0
  0
ENDTAB
  0
TABLE
  2
LAYER
  5
1D8
330
0
100
AcDbSymbolTable
 70
    13
  0
LAYER
  5
1E4
330
1D8
100
AcDbSymbolTableRecord
100
AcDbLayerTableRecord
  2
0
 70
     0
 62
     7
  6
CONTINUOUS
370
    -3
390
3D6
  0
LAYER
  5
1F9
330
1D8
100
AcDbSymbolTableRecord
100
AcDbLayerTableRecord
  2
POLYLINE
 70
     1
 62
     3
  6
CONTINUOUS
370
    -3
390
3D6
  0
LAYER
  5
1FA
330
1D8
100
AcDbSymbolTableRecord
100
AcDbLayerTableRecord
  2
HEAD
 70
     0
 62
     1
  6
CONTINUOUS
370
    -3
390
3D6
  0
LAYER
  5
1FB
330
1D8
100
AcDbSymbolTableRecord
100
AcDbLayerTableRecord
  2
BASE
 70
     0
 62
     1
  6
CONTINUOUS
370
    -3
390
3D6
  0
LAYER
  5
1FC
330
1D8
100
AcDbSymbolTableRecord
100
AcDbLayerTableRecord
  2
BUMPER
 70
     0
 62
     1
  6
CONTINUOUS
370
    -3
390
3D6
  0
LAYER
  5
1FD
330
1D8
100
AcDbSymbolTableRecord
100
AcDbLayerTableRecord
  2
2060
 70
     0
 62
     2
  6
CONTINUOUS
370
    -3
390
3D6
  0
LAYER
  5
1FF
330
1D8
100
AcDbSymbolTableRecord
100
AcDbLayerTableRecord
  2
PART
 70
     0
 62
     1
  6
CONTINUOUS
370
    -3
390
3D6
  0
LAYER
  5
200
330
1D8
100
AcDbSymbolTableRecord
100
AcDbLayerTableRecord
  2
DIM
 70
     0
 62
     2
  6
CONTINUOUS
370
    -3
390
3D6
  0
LAYER
  5
334
330
1D8
100
AcDbSymbolTableRecord
100
AcDbLayerTableRecord
  2
CENTER
 70
     0
 62
     5
  6
CENTER
370
    -3
390
3D6
  0
LAYER
  5
335
330
1D8
100
AcDbSymbolTableRecord
100
AcDbLayerTableRecord
  2
HIDDEN
 70
     0
 62
     3
  6
HIDDEN
370
    -3
390
3D6
  0
LAYER
  5
336
330
1D8
100
AcDbSymbolTableRecord
100
AcDbLayerTableRecord
  2
PHANTOM
 70
     0
 62
     6
  6
PHANTOM
370
    -3
390
3D6
  0
LAYER
  5
337
330
1D8
100
AcDbSymbolTableRecord
100
AcDbLayerTableRecord
  2
TRIM
 70
     0
 62
     1
  6
CONTINUOUS
370
    -3
390
3D6
  0
LAYER
  5
338
330
1D8
100
AcDbSymbolTableRecord
100
AcDbLayerTableRecord
  2
SOLID
 70
     0
 62
     5
  6
CONTINUOUS
370
    -3
390
3D6
  0
ENDTAB
  0
TABLE
  2
STYLE
  5
1D9
330
0
100
AcDbSymbolTable
 70
     7
  0
STYLE
  5
1E5
330
1D9
100
AcDbSymbolTableRecord
100
AcDbTextStyleTableRecord
  2
STANDARD
 70
     0
 40
0.0
 41
1.0
 50
0.0
 71
     0
 42
0.1
  3
C:\ACADWIN\FONTS\SIMPLEX.SHX
  4

  0
STYLE
  5
1F5
330
1D9
100
AcDbSymbolTableRecord
100
AcDbTextStyleTableRecord
  2
SIMPLEX
 70
     0
 40
0.0
 41
1.0
 50
0.0
 71
     0
 42
0.15
  3
SIMPLEX
  4

  0
STYLE
  5
1F6
330
1D9
100
AcDbSymbolTableRecord
100
AcDbTextStyleTableRecord
  2
COMPLEX
 70
     0
 40
0.0
 41
1.0
 50
15.0
 71
     0
 42
0.08
  3
SIMPLEX
  4

  0
STYLE
  5
1F7
330
1D9
100
AcDbSymbolTableRecord
100
AcDbTextStyleTableRecord
  2
TXT
 70
     0
 40
0.0
 41
1.0
 50
0.0
 71
     0
 42
0.15
  3
simplex
  4

  0
STYLE
  5
339
330
1D9
100
AcDbSymbolTableRecord
100
AcDbTextStyleTableRecord
  2

 70
     1
 40
0.0
 41
1.0
 50
0.0
 71
     0
 42
0.2
  3
ltypeshp.shx
  4

  0
STYLE
  5
33A
330
1D9
100
AcDbSymbolTableRecord
100
AcDbTextStyleTableRecord
  2
ROMAND
 70
     0
 40
0.0
 41
1.0
 50
0.0
 71
     0
 42
0.1
  3
romand.shx
  4

  0
STYLE
  5
33B
330
1D9
100
AcDbSymbolTableRecord
100
AcDbTextStyleTableRecord
  2
SCRIPT
 70
     0
 40
0.0
 41
0.95
 50
0.0
 71
     0
 42
0.09
  3
scripts.shx
  4

  0
ENDTAB
  0
TABLE
  2
VIEW
  5
1DC
330
0
100
AcDbSymbolTable
 70
     0
  0
ENDTAB
  0
TABLE
  2
UCS
  5
1DD
330
0
100
AcDbSymbolTable
 70
     0
  0
ENDTAB
  0
TABLE
  2
APPID
  5
1DF
330
0
100
AcDbSymbolTable
 70
     1
  0
APPID
  5
1E6
330
1DF
100
AcDbSymbolTableRecord
100
AcDbRegAppTableRecord
  2
ACAD
 70
     0
  0
ENDTAB
  0
TABLE
  2
DIMSTYLE
  5
1E0
330
0
100
AcDbSymbolTable
 70
     2
100
AcDbDimStyleTable
 71
     1
340
208
  0
DIMSTYLE
105
208
330
1E0
100
AcDbSymbolTableRecord
100
AcDbDimStyleTableRecord
  2
STANDARD
 70
     0
340
1E5
  0
DIMSTYLE
105
3E3
330
1E0
100
AcDbSymbolTableRecord
100
AcDbDimStyleTableRecord
  2
STDANG
 70
     0
 41
0.1
 43
0.375
 44
0.0625
 73
     0
 74
     0
 78
     5
140
0.1
141
0.05
147
0.075
271
     3
272
     2
284
     5
340
1E5
  0
ENDTAB
  0
TABLE
  2
BLOCK_RECORD
  5
1D7
330
0
100
AcDbSymbolTable
 70
    19
  0
BLOCK_RECORD
  5
1ED
330
1D7
100
AcDbSymbolTableRecord
100
AcDbBlockTableRecord
  2
*MODEL_SPACE
340
3D9
  0
BLOCK_RECORD
  5
1EA
330
1D7
100
AcDbSymbolTableRecord
100
AcDbBlockTableRecord
  2
*PAPER_SPACE
340
3DA
  0
BLOCK_RECORD
  5
1F2
330
1D7
100
AcDbSymbolTableRecord
100
AcDbBlockTableRecord
  2
ACAD
340
0
102
{BLKREFS
331
1
102
}
  0
BLOCK_RECORD
  5
1F3
330
1D7
100
AcDbSymbolTableRecord
100
AcDbBlockTableRecord
  2
PLT
340
0
102
{BLKREFS
331
F1
102
}
  0
BLOCK_RECORD
  5
1F4
330
1D7
100
AcDbSymbolTableRecord
100
AcDbBlockTableRecord
  2
TB_A
340
0
  0
BLOCK_RECORD
  5
20C
330
1D7
100
AcDbSymbolTableRecord
100
AcDbBlockTableRecord
  2
A$C435B465C
340
0
  0
BLOCK_RECORD
  5
283
330
1D7
100
AcDbSymbolTableRecord
100
AcDbBlockTableRecord
  2
A$C4FB65283
340
0
102
{BLKREFS
331
294
331
33D
102
}
  0
BLOCK_RECORD
  5
287
330
1D7
100
AcDbSymbolTableRecord
100
AcDbBlockTableRecord
  2
A$C2BBE0097
340
0
  0
BLOCK_RECORD
  5
28B
330
1D7
100
AcDbSymbolTableRecord
100
AcDbBlockTableRecord
  2
A$C10236829
340
0
  0
BLOCK_RECORD
  5
28F
330
1D7
100
AcDbSymbolTableRecord
100
AcDbBlockTableRecord
  2
A$C794932C0
340
0
  0
BLOCK_RECORD
  5
293
330
1D7
100
AcDbSymbolTableRecord
100
AcDbBlockTableRecord
  2
TEST
340
0
  0
BLOCK_RECORD
  5
311
330
1D7
100
AcDbSymbolTableRecord
100
AcDbBlockTableRecord
  2
A$C56887695
340
0
  0
BLOCK_RECORD
  5
315
330
1D7
100
AcDbSymbolTableRecord
100
AcDbBlockTableRecord
  2
A$C406F4052
340
0
  0
BLOCK_RECORD
  5
319
330
1D7
100
AcDbSymbolTableRecord
100
AcDbBlockTableRecord
  2
A$C217D2A32
340
0
  0
BLOCK_RECORD
  5
31D
330
1D7
100
AcDbSymbolTableRecord
100
AcDbBlockTableRecord
  2
A$C26835032
340
0
  0
BLOCK_RECORD
  5
321
330
1D7
100
AcDbSymbolTableRecord
100
AcDbBlockTableRecord
  2
A$C11730435
340
0
  0
BLOCK_RECORD
  5
325
330
1D7
100
AcDbSymbolTableRecord
100
AcDbBlockTableRecord
  2
A$C740A492C
340
0
  0
BLOCK_RECORD
  5
329
330
1D7
100
AcDbSymbolTableRecord
100
AcDbBlockTableRecord
  2
A$C251463E3
340
0
  0
BLOCK_RECORD
  5
32D
330
1D7
100
AcDbSymbolTableRecord
100
AcDbBlockTableRecord
  2
A$C46507260
340
0
  0
BLOCK_RECORD
  5
33C
330
1D7
100
AcDbSymbolTableRecord
100
AcDbBlockTableRecord
  2
TFT_APRLIST
340
0
102
{BLKREFS
331
3C5
331
430
102
}
  0
BLOCK_RECORD
  5
3E4
330
1D7
100
AcDbSymbolTableRecord
100
AcDbBlockTableRecord
  2
rvsn_blk
340
0
102
{BLKREFS
331
3EA
102
}
  0
ENDTAB
  0
ENDSEC
  0
SECTION
  2
BLOCKS
  0
BLOCK
  5
203
330
1ED
100
AcDbEntity
  8
0
100
AcDbBlockBegin
  2
*MODEL_SPACE
 70
     0
 10
0.0
 20
0.0
 30
0.0
  3
*MODEL_SPACE
  1

  0
ENDBLK
  5
204
330
1ED
100
AcDbEntity
  8
0
100
AcDbBlockEnd
  0
BLOCK
  5
201
330
1EA
100
AcDbEntity
 67
     1
  8
0
100
AcDbBlockBegin
  2
*PAPER_SPACE
 70
     0
 10
0.0
 20
0.0
 30
0.0
  3
*PAPER_SPACE
  1

  0
ENDBLK
  5
202
330
1EA
100
AcDbEntity
 67
     1
  8
0
100
AcDbBlockEnd
  0
BLOCK
  5
1C4
330
1F2
100
AcDbEntity
  8
0
100
AcDbBlockBegin
  2
ACAD
 70
     0
 10
0.0
 20
0.0
 30
0.0
  3
ACAD
  1

  0
ENDBLK
  5
1C5
330
1F2
100
AcDbEntity
  8
0
100
AcDbBlockEnd
  0
BLOCK
  5
1C6
330
1F3
100
AcDbEntity
  8
0
100
AcDbBlockBegin
  2
PLT
 70
     0
 10
0.0
 20
0.0
 30
0.0
  3
PLT
  1

  0
LINE
  5
1C7
330
1F3
100
AcDbEntity
  8
0
100
AcDbLine
 10
-5.64082658977341
 20
-6.58091731251415
 30
0.0
 11
-9.449117046102198
 21
-8.996892892654035
 31
0.0
  0
LINE
  5
1C8
330
1F3
100
AcDbEntity
  8
0
100
AcDbLine
 10
10.35917341022659
 20
5.419082687485849
 30
0.0
 11
13.93309226928826
 21
7.60777574822845
 31
0.0
  0
ENDBLK
  5
1C9
330
1F3
100
AcDbEntity
  8
0
100
AcDbBlockEnd
  0
BLOCK
  5
1CA
330
1F4
100
AcDbEntity
  8
0
100
AcDbBlockBegin
  2
TB_A
 70
     0
 10
0.0
 20
0.0
 30
0.0
  3
TB_A
  1

  0
LINE
  5
1CB
330
1F4
100
AcDbEntity
  8
PART
100
AcDbLine
 10
0.0
 20
-3.95
 30
0.0
 11
10.5
 21
-3.95
 31
0.0
  0
LINE
  5
1CC
330
1F4
100
AcDbEntity
  8
PART
100
AcDbLine
 10
10.5
 20
3.95
 30
0.0
 11
0.0
 21
3.95
 31
0.0
  0
LINE
  5
1CD
330
1F4
100
AcDbEntity
  8
PART
100
AcDbLine
 10
0.0
 20
3.95
 30
0.0
 11
0.0
 21
-3.95
 31
0.0
  0
LINE
  5
1CE
330
1F4
100
AcDbEntity
  8
DIM
100
AcDbLine
 10
0.0
 20
-3.95
 30
0.0
 11
-0.075
 21
-3.95
 31
0.0
  0
LINE
  5
1CF
330
1F4
100
AcDbEntity
  8
PART
100
AcDbLine
 10
10.5
 20
-3.95
 30
0.0
 11
10.5
 21
3.95
 31
0.0
  0
ENDBLK
  5
1D0
330
1F4
100
AcDbEntity
  8
0
100
AcDbBlockEnd
  0
BLOCK
  5
281
330
20C
100
AcDbEntity
  8
0
100
AcDbBlockBegin
  2
A$C435B465C
 70
     0
 10
0.0
 20
0.0
 30
0.0
  3
A$C435B465C
  1

  0
LINE
  5
20D
330
20C
100
AcDbEntity
  8
TRIM
100
AcDbLine
 10
10.41999999853406
 20
7.86999999827346
 30
0.0
 11
0.0299999985340644
 21
7.86999999827346
 31
0.0
  0
LINE
  5
20E
330
20C
100
AcDbEntity
  8
TRIM
100
AcDbLine
 10
-0.0000000014659345
 20
7.899999998273461
 30
0.0
 11
10.44999999853406
 21
7.899999998273461
 31
0.0
  0
LINE
  5
20F
330
20C
100
AcDbEntity
  8
TRIM
100
AcDbLine
 10
0.0299999985340644
 20
7.86999999827346
 30
0.0
 11
0.0299999985340652
 21
0.9877074628274646
 31
0.0
  0
LINE
  5
210
330
20C
100
AcDbEntity
  8
TRIM
100
AcDbLine
 10
-0.0000000014659349
 20
7.899999998273461
 30
0.0
 11
-0.0000000014659349
 21
-0.000000001726538
 31
0.0
  0
LINE
  5
211
330
20C
100
AcDbEntity
  8
TRIM
100
AcDbLine
 10
10.41999999853406
 20
2.432499998273461
 30
0.0
 11
10.41999999853406
 21
7.869999998273458
 31
0.0
  0
LINE
  5
212
330
20C
100
AcDbEntity
  8
TRIM
100
AcDbLine
 10
10.44999999853406
 20
-0.0000000017265407
 30
0.0
 11
10.44999999853406
 21
7.899999998273459
 31
0.0
  0
SOLID
  5
213
330
20C
100
AcDbEntity
  8
SOLID
 62
     1
100
AcDbTrace
 10
8.850645714660327
 20
1.336824719979944
 30
0.0
 11
8.953204583077742
 21
1.529709898068546
 31
0.0
 12
8.844321504076491
 22
1.344775342338473
 32
0.0
 13
8.947606642518891
 23
1.539026435684056
 33
0.0
  0
SOLID
  5
214
330
20C
100
AcDbEntity
  8
SOLID
 62
     1
100
AcDbTrace
 10
8.743633161575985
 20
1.330656234914544
 30
0.0
 11
8.928899857892716
 21
1.55144848583807
 31
0.0
 12
8.835889223298043
 22
1.355376172149846
 32
0.0
 13
8.94014272177376
 23
1.55144848583807
 33
0.0
  0
SOLID
  5
215
330
20C
100
AcDbEntity
  8
SOLID
 62
     1
100
AcDbTrace
 10
8.775982480684099
 20
1.551448485838069
 30
0.0
 11
9.123139625704464
 21
1.644468962492971
 31
0.0
 12
9.073679760929408
 22
1.551448485838069
 32
0.0
 13
9.073679760929408
 23
1.551448485838069
 33
0.0
  0
SOLID
  5
216
330
20C
100
AcDbEntity
  8
SOLID
 62
     1
100
AcDbTrace
 10
8.816585180362723
 20
1.57518819906379
 30
0.0
 11
9.147519865140669
 21
1.663861880597488
 31
0.0
 12
8.834870359939877
 22
1.589732887642179
 32
0.0
 13
9.165805044717822
 23
1.678406569175877
 33
0.0
  0
LINE
  5
217
330
20C
100
AcDbEntity
  8
TRIM
100
AcDbLine
 10
10.41999999853406
 20
2.402499998273461
 30
0.0
 11
8.026999998534064
 21
2.402499998273462
 31
0.0
  0
TEXT
  5
218
330
20C
100
AcDbEntity
  8
TRIM
100
AcDbText
 10
8.093749998534065
 20
2.232876334230538
 30
0.0
 40
0.1
  1
TASK FORCE TIPS, INC.
 51
10.0
  7
ROMAND
100
AcDbText
  0
TEXT
  5
219
330
20C
100
AcDbEntity
  8
TRIM
100
AcDbText
 10
8.128853318574009
 20
1.795200536343402
 30
0.0
 40
0.09
  1
219-462-6161
  7
SIMPLEX
100
AcDbText
  0
TEXT
  5
21A
330
20C
100
AcDbEntity
  8
TRIM
 62
     2
100
AcDbText
 10
8.128853318574009
 20
1.945864616217594
 30
0.0
 40
0.09
  1
VALPARAISO, IN 46383
  7
SIMPLEX
100
AcDbText
  0
TEXT
  5
21B
330
20C
100
AcDbEntity
  8
TRIM
 62
     2
100
AcDbText
 10
8.128853318574009
 20
2.090582801482295
 30
0.0
 40
0.09
  1
2800 E. EVANS AVE.
  7
SIMPLEX
100
AcDbText
  0
LINE
  5
21C
330
20C
100
AcDbEntity
  8
TRIM
100
AcDbLine
 10
10.41999999853406
 20
2.432499998273461
 30
0.0
 11
7.996999998534068
 21
2.432499998273462
 31
0.0
  0
LINE
  5
21D
330
20C
100
AcDbEntity
  8
TRIM
100
AcDbLine
 10
8.026999998534062
 20
1.224315403424987
 30
0.0
 11
8.026999998534064
 21
2.402499998273462
 31
0.0
  0
LINE
  5
21E
330
20C
100
AcDbEntity
  8
TRIM
100
AcDbLine
 10
7.996999998534064
 20
0.6684716413094636
 30
0.0
 11
7.996999998534068
 21
2.432499998273462
 31
0.0
  0
SOLID
  5
21F
330
20C
100
AcDbEntity
  8
SOLID
 62
     1
100
AcDbTrace
 10
8.043289409296239
 20
1.529709898068546
 30
0.0
 11
8.307257975069029
 21
1.529709898068546
 31
0.0
 12
8.114055538205608
 22
1.539026435684056
 32
0.0
 13
8.327237354460679
 23
1.539026435684056
 33
0.0
  0
SOLID
  5
220
330
20C
100
AcDbEntity
  8
SOLID
 62
     1
100
AcDbTrace
 10
8.043289409296239
 20
1.529709898068546
 30
0.0
 11
8.598232940785159
 21
1.678406569175877
 31
0.0
 12
8.114055538205608
 22
1.539026435684056
 32
0.0
 13
8.579947761208007
 23
1.663861880597489
 33
0.0
  0
SOLID
  5
221
330
20C
100
AcDbEntity
  8
SOLID
 62
     1
100
AcDbTrace
 10
8.168609830666147
 20
1.330656234914544
 30
0.0
 11
8.353876526982878
 21
1.551448485838069
 31
0.0
 12
8.260865892388205
 22
1.355376172149845
 32
0.0
 13
8.365119390863922
 23
1.551448485838069
 33
0.0
  0
SOLID
  5
222
330
20C
100
AcDbEntity
  8
SOLID
 62
     1
100
AcDbTrace
 10
8.107639476921409
 20
1.29181383575286
 30
0.0
 11
8.307257975069029
 21
1.529709898068546
 31
0.0
 12
8.133769628526296
 22
1.308460578250724
 32
0.0
 13
8.327237354460679
 23
1.539026435684056
 33
0.0
  0
SOLID
  5
223
330
20C
100
AcDbEntity
  8
SOLID
 62
     1
100
AcDbTrace
 10
8.269298173166653
 20
1.344775342338473
 30
0.0
 11
8.372583311609053
 21
1.539026435684056
 31
0.0
 12
8.275622383750489
 22
1.336824719979944
 32
0.0
 13
8.378181252167903
 23
1.529709898068546
 33
0.0
  0
SOLID
  5
224
330
20C
100
AcDbEntity
  8
SOLID
 62
     1
100
AcDbTrace
 10
8.519123822871026
 20
1.446010323780124
 30
0.0
 11
8.389737606638517
 21
1.29181383575286
 31
0.0
 12
8.53420778556849
 22
1.449492730963093
 32
0.0
 13
8.415867758243402
 23
1.308460578250724
 33
0.0
  0
SOLID
  5
225
330
20C
100
AcDbEntity
  8
SOLID
 62
     1
100
AcDbTrace
 10
8.557720513467595
 20
1.336824719979944
 30
0.0
 11
8.597274694021209
 21
1.411215314162212
 31
0.0
 12
8.551396302883759
 22
1.344775342338473
 32
0.0
 13
8.593127360178915
 23
1.423260046220356
 33
0.0
  0
SOLID
  5
226
330
20C
100
AcDbEntity
  8
SOLID
 62
     1
100
AcDbTrace
 10
8.902260685370517
 20
1.539026435684056
 30
0.0
 11
8.708792959436136
 21
1.308460578250725
 31
0.0
 12
8.882281305978867
 22
1.529709898068546
 32
0.0
 13
8.682662807831249
 23
1.29181383575286
 33
0.0
  0
SOLID
  5
227
330
20C
100
AcDbEntity
  8
SOLID
 62
     1
100
AcDbTrace
 10
8.450707960383251
 20
1.330656234914544
 30
0.0
 11
8.554319735831773
 21
1.454135940540385
 31
0.0
 12
8.54296402210531
 22
1.355376172149845
 32
0.0
 13
8.587597581722521
 23
1.439319688964547
 33
0.0
  0
SOLID
  5
228
330
20C
100
AcDbEntity
  8
SOLID
 62
     1
100
AcDbTrace
 10
8.389737606638517
 20
1.29181383575286
 30
0.0
 11
8.557720513467595
 21
1.336824719979944
 31
0.0
 12
8.415867758243402
 22
1.308460578250724
 32
0.0
 13
8.551396302883759
 23
1.344775342338473
 33
0.0
  0
SOLID
  5
229
330
20C
100
AcDbEntity
  8
SOLID
 62
     1
100
AcDbTrace
 10
8.107639476921409
 20
1.29181383575286
 30
0.0
 11
8.275622383750489
 21
1.336824719979944
 31
0.0
 12
8.133769628526296
 22
1.308460578250724
 32
0.0
 13
8.269298173166653
 23
1.344775342338473
 33
0.0
  0
SOLID
  5
22A
330
20C
100
AcDbEntity
  8
SOLID
 62
     1
100
AcDbTrace
 10
8.682662807831249
 20
1.29181383575286
 30
0.0
 11
8.850645714660327
 21
1.336824719979944
 31
0.0
 12
8.708792959436136
 22
1.308460578250725
 32
0.0
 13
8.844321504076491
 23
1.344775342338473
 33
0.0
  0
SOLID
  5
22B
330
20C
100
AcDbEntity
  8
SOLID
 62
     1
100
AcDbTrace
 10
8.208410376751436
 20
1.551448485838069
 30
0.0
 11
8.555567521771804
 21
1.644468962492971
 31
0.0
 12
8.506107656996745
 22
1.551448485838069
 32
0.0
 13
8.506107656996745
 23
1.551448485838069
 33
0.0
  0
SOLID
  5
22C
330
20C
100
AcDbEntity
  8
SOLID
 62
     1
100
AcDbTrace
 10
8.372583311609053
 20
1.539026435684056
 30
0.0
 11
8.609335484177783
 21
1.539026435684056
 31
0.0
 12
8.378181252167903
 22
1.529709898068546
 32
0.0
 13
8.589356104786135
 23
1.529709898068546
 33
0.0
  0
SOLID
  5
22D
330
20C
100
AcDbEntity
  8
SOLID
 62
     1
100
AcDbTrace
 10
8.572168427478533
 20
1.509226421888862
 30
0.0
 11
8.457090830046876
 21
1.473629191620975
 31
0.0
 12
8.577542130581782
 22
1.501136592315402
 32
0.0
 13
8.483530452159383
 23
1.472055733491771
 33
0.0
  0
SOLID
  5
22E
330
20C
100
AcDbEntity
  8
SOLID
 62
     1
100
AcDbTrace
 10
8.457090830046876
 20
1.473629191620975
 30
0.0
 11
8.519123822871026
 21
1.446010323780124
 31
0.0
 12
8.483530452159383
 22
1.472055733491771
 32
0.0
 13
8.53420778556849
 23
1.449492730963093
 33
0.0
  0
SOLID
  5
22F
330
20C
100
AcDbEntity
  8
SOLID
 62
     1
100
AcDbTrace
 10
8.492196428717766
 20
1.551448485838069
 30
0.0
 11
8.839353573738133
 21
1.644468962492971
 31
0.0
 12
8.789893708963075
 22
1.551448485838069
 32
0.0
 13
8.789893708963075
 23
1.551448485838069
 33
0.0
  0
SOLID
  5
230
330
20C
100
AcDbEntity
  8
SOLID
 62
     1
100
AcDbTrace
 10
8.710751962356022
 20
1.539026435684056
 30
0.0
 11
8.902260685370517
 21
1.539026435684056
 31
0.0
 12
8.71634990291487
 22
1.529709898068546
 32
0.0
 13
8.882281305978867
 23
1.529709898068546
 33
0.0
  0
SOLID
  5
231
330
20C
100
AcDbEntity
  8
SOLID
 62
     1
100
AcDbTrace
 10
8.551084307973546
 20
1.589732887642179
 30
0.0
 11
8.88201899275149
 21
1.678406569175877
 31
0.0
 12
8.532799128396392
 22
1.575188199063791
 32
0.0
 13
8.863733813174338
 23
1.663861880597489
 33
0.0
  0
SOLID
  5
232
330
20C
100
AcDbEntity
  8
SOLID
 62
     1
100
AcDbTrace
 10
8.532799128396392
 20
1.575188199063791
 30
0.0
 11
8.579947761208007
 21
1.663861880597489
 31
0.0
 12
8.551084307973546
 22
1.589732887642179
 32
0.0
 13
8.598232940785159
 23
1.678406569175877
 33
0.0
  0
SOLID
  5
233
330
20C
100
AcDbEntity
  8
SOLID
 62
     1
100
AcDbTrace
 10
8.593127360178915
 20
1.423260046220356
 30
0.0
 11
8.638464998265758
 21
1.403074429219956
 31
0.0
 12
8.597274694021209
 22
1.411215314162212
 32
0.0
 13
8.642612332108052
 23
1.391029697161812
 33
0.0
  0
SOLID
  5
234
330
20C
100
AcDbEntity
  8
SOLID
 62
     1
100
AcDbTrace
 10
8.518783281642729
 20
1.4699577893195
 30
0.0
 11
8.687749358113208
 21
1.522224472547337
 31
0.0
 12
8.632935219809365
 22
1.419134071964148
 32
0.0
 13
8.632935219809365
 23
1.419134071964148
 33
0.0
  0
SOLID
  5
235
330
20C
100
AcDbEntity
  8
SOLID
 62
     1
100
AcDbTrace
 10
8.584707068052781
 20
1.490350152884122
 30
0.0
 11
8.635974656699984
 21
1.551448485838069
 31
0.0
 12
8.620641230585929
 22
1.501465753893571
 32
0.0
 13
8.647217520581028
 23
1.551448485838069
 33
0.0
  0
SOLID
  5
236
330
20C
100
AcDbEntity
  8
SOLID
 62
     1
100
AcDbTrace
 10
8.589356104786135
 20
1.529709898068546
 30
0.0
 11
8.572168427478533
 21
1.509226421888862
 31
0.0
 12
8.609335484177783
 22
1.539026435684056
 32
0.0
 13
8.577542130581782
 23
1.501136592315402
 33
0.0
  0
SOLID
  5
237
330
20C
100
AcDbEntity
  8
SOLID
 62
     1
100
AcDbTrace
 10
8.638464998265758
 20
1.403074429219956
 30
0.0
 11
8.710751962356022
 21
1.539026435684056
 31
0.0
 12
8.642612332108052
 22
1.391029697161812
 32
0.0
 13
8.71634990291487
 23
1.529709898068546
 33
0.0
  0
SOLID
  5
238
330
20C
100
AcDbEntity
  8
SOLID
 62
     1
100
AcDbTrace
 10
8.645754237745254
 20
1.522236807647912
 30
0.0
 11
8.70003121496035
 21
1.539026435684056
 31
0.0
 12
8.654681441326159
 22
1.539026435684056
 32
0.0
 13
8.654681441326159
 23
1.539026435684056
 33
0.0
  0
SOLID
  5
239
330
20C
100
AcDbEntity
  8
SOLID
 62
     1
100
AcDbTrace
 10
8.816585180362723
 20
1.57518819906379
 30
0.0
 11
8.863733813174338
 21
1.663861880597489
 31
0.0
 12
8.834870359939877
 22
1.589732887642179
 32
0.0
 13
8.88201899275149
 23
1.678406569175877
 33
0.0
  0
LINE
  5
23A
330
20C
100
AcDbEntity
  8
TRIM
100
AcDbLine
 10
10.41999999853406
 20
1.780339596352224
 30
0.0
 11
10.41999999853406
 21
2.402499998273461
 31
0.0
  0
LINE
  5
23B
330
20C
100
AcDbEntity
  8
TRIM
100
AcDbLine
 10
9.212094455479999
 20
1.750339596352224
 30
0.0
 11
9.212094455480064
 21
0.3543154034249878
 31
0.0
  0
LINE
  5
23C
330
20C
100
AcDbEntity
  8
TRIM
100
AcDbLine
 10
10.41999999853406
 20
0.3543154034249873
 30
0.0
 11
10.41999999853406
 21
1.750339596352224
 31
0.0
  0
LINE
  5
23D
330
20C
100
AcDbEntity
  8
TRIM
100
AcDbLine
 10
9.212094455479999
 20
1.750339596352224
 30
0.0
 11
10.41999999853406
 21
1.750339596352224
 31
0.0
  0
LINE
  5
23E
330
20C
100
AcDbEntity
  8
TRIM
100
AcDbLine
 10
9.182094455479997
 20
1.780339596352224
 30
0.0
 11
10.41999999853406
 21
1.780339596352224
 31
0.0
  0
TEXT
  5
23F
330
20C
100
AcDbEntity
  8
DIM
100
AcDbText
 10
9.571579664239893
 20
1.615565403424988
 30
0.0
 40
0.09
  1
DATE
 41
0.9
 72
     1
 11
9.714293949954178
 21
1.615565403424988
 31
0.0
100
AcDbText
  0
LINE
  5
240
330
20C
100
AcDbEntity
  8
TRIM
100
AcDbLine
 10
9.994468264419049
 20
1.584315403424988
 30
0.0
 11
9.434119635489306
 21
1.584315403424988
 31
0.0
  0
LINE
  5
241
330
20C
100
AcDbEntity
  8
TRIM
100
AcDbLine
 10
10.41999999853406
 20
1.404315403424988
 30
0.0
 11
9.212094455480011
 21
1.404315403424988
 31
0.0
  0
LINE
  5
242
330
20C
100
AcDbEntity
  8
TRIM
100
AcDbLine
 10
9.434119635489306
 20
1.750339596352224
 30
0.0
 11
9.434119635489302
 21
0.6843154034249875
 31
0.0
  0
LINE
  5
243
330
20C
100
AcDbEntity
  8
TRIM
100
AcDbLine
 10
9.182094455479997
 20
1.780339596352224
 30
0.0
 11
9.182094455480022
 21
1.224315403424987
 31
0.0
  0
TEXT
  5
244
330
20C
100
AcDbEntity
  8
DIM
100
AcDbText
 10
9.227107045484656
 20
1.615565403424988
 30
0.0
 40
0.09
  1
REV
 41
0.8
 72
     1
 11
9.323107045484656
 21
1.615565403424988
 31
0.0
100
AcDbText
  0
LINE
  5
245
330
20C
100
AcDbEntity
  8
TRIM
100
AcDbLine
 10
9.434119635489306
 20
1.584315403424988
 30
0.0
 11
9.212094455480006
 21
1.584315403424988
 31
0.0
  0
SOLID
  5
246
330
20C
100
AcDbEntity
  8
SOLID
 62
     1
100
AcDbTrace
 10
9.086741622233388
 20
1.529709898068546
 30
0.0
 11
9.165805044717822
 21
1.678406569175877
 31
0.0
 12
9.081143681674539
 22
1.539026435684056
 32
0.0
 13
9.147519865140669
 23
1.663861880597488
 33
0.0
  0
SOLID
  5
247
330
20C
100
AcDbEntity
  8
SOLID
 62
     1
100
AcDbTrace
 10
8.953204583077742
 20
1.529709898068546
 30
0.0
 11
9.086741622233388
 21
1.529709898068546
 31
0.0
 12
8.947606642518891
 22
1.539026435684056
 32
0.0
 13
9.081143681674539
 23
1.539026435684056
 33
0.0
  0
LINE
  5
248
330
20C
100
AcDbEntity
  8
TRIM
100
AcDbLine
 10
9.994468264419047
 20
1.750339596352224
 30
0.0
 11
9.994468264419047
 21
0.684315403424987
 31
0.0
  0
TEXT
  5
249
330
20C
100
AcDbEntity
  8
DIM
100
AcDbText
 10
10.0105817160691
 20
1.615565403424988
 30
0.0
 40
0.09
  1
INITIALS
 41
0.8
 72
     1
 11
10.21115314464053
 21
1.615565403424988
 31
0.0
100
AcDbText
  0
LINE
  5
24A
330
20C
100
AcDbEntity
  8
TRIM
100
AcDbLine
 10
10.41999999853406
 20
1.584315403424988
 30
0.0
 11
9.994468264419049
 21
1.584315403424988
 31
0.0
  0
LINE
  5
24B
330
20C
100
AcDbEntity
  8
TRIM
100
AcDbLine
 10
0.0299999985341133
 20
0.3492358197914696
 30
0.0
 11
7.996999998534064
 21
0.3492358197914633
 31
0.0
  0
LINE
  5
24C
330
20C
100
AcDbEntity
  8
TRIM
100
AcDbLine
 10
0.0299999985340644
 20
0.6384716413094696
 30
0.0
 11
7.996999998534064
 21
0.6384716413094634
 31
0.0
  0
LINE
  5
24D
330
20C
100
AcDbEntity
  8
TRIM
100
AcDbLine
 10
-0.0000000014659349
 20
-0.000000001726538
 30
0.0
 11
10.44999999853406
 21
-0.0000000017265371
 31
0.0
  0
LINE
  5
24E
330
20C
100
AcDbEntity
  8
TRIM
100
AcDbLine
 10
0.0299999985340644
 20
0.3192358197914693
 30
0.0
 11
7.996999998534064
 21
0.3192358197914626
 31
0.0
  0
LINE
  5
24F
330
20C
100
AcDbEntity
  8
TRIM
100
AcDbLine
 10
0.0299999985341133
 20
0.0299999982734693
 30
0.0
 11
7.996999998534064
 21
0.0299999982734627
 31
0.0
  0
LINE
  5
250
330
20C
100
AcDbEntity
  8
TRIM
100
AcDbLine
 10
0.0299999985340652
 20
0.9877074628274646
 30
0.0
 11
4.123749998534062
 21
0.9877074628274638
 31
0.0
  0
LINE
  5
251
330
20C
100
AcDbEntity
  8
TRIM
100
AcDbLine
 10
0.0299999985341142
 20
0.9577074628274647
 30
0.0
 11
3.312499998534065
 21
0.9577074628274647
 31
0.0
  0
LINE
  5
252
330
20C
100
AcDbEntity
  8
TRIM
100
AcDbLine
 10
0.0299999985340644
 20
0.6684716413094645
 30
0.0
 11
3.312499998534113
 21
0.6684716413094645
 31
0.0
  0
TEXT
  5
253
330
20C
100
AcDbEntity
  8
TRIM
100
AcDbText
 10
0.1075473542991792
 20
0.4200287859488796
 30
0.0
 40
0.14
  1
DESCRIPTION:
 41
0.9
  7
SIMPLEX
100
AcDbText
  0
TEXT
  5
254
330
20C
100
AcDbEntity
  8
TRIM
100
AcDbText
 10
0.1075473542991792
 20
0.1075287859488796
 30
0.0
 40
0.14
  1
EXTRA DESC:
 41
0.9
  7
SIMPLEX
100
AcDbText
  0
TEXT
  5
255
330
20C
100
AcDbEntity
  8
TRIM
100
AcDbText
 10
0.1101805216547635
 20
0.7431394110287762
 30
0.0
 40
0.14
  1
PART NUMBER:
 41
0.8
  7
SIMPLEX
100
AcDbText
  0
LINE
  5
256
330
20C
100
AcDbEntity
  8
TRIM
100
AcDbLine
 10
0.0299999985340644
 20
0.6384716413094696
 30
0.0
 11
0.0299999985341133
 21
0.3492358197914696
 31
0.0
  0
LINE
  5
257
330
20C
100
AcDbEntity
  8
TRIM
100
AcDbLine
 10
0.0299999985340644
 20
0.3192358197914693
 30
0.0
 11
0.0299999985341133
 21
0.0299999982734693
 31
0.0
  0
LINE
  5
258
330
20C
100
AcDbEntity
  8
TRIM
100
AcDbLine
 10
0.0299999985340653
 20
0.9577074628274653
 30
0.0
 11
0.0299999985340644
 21
0.6684716413094645
 31
0.0
  0
LINE
  5
259
330
20C
100
AcDbEntity
  8
TRIM
100
AcDbLine
 10
3.342499998534066
 20
0.9577074628274647
 30
0.0
 11
4.093749998534065
 21
0.9577074628274647
 31
0.0
  0
TEXT
  5
25A
330
20C
100
AcDbEntity
  8
DIM
 62
     1
100
AcDbText
 10
3.539702379486445
 20
0.8537499982734622
 30
0.0
 40
0.08
  1
SHEET
 72
     1
 11
3.718749998534065
 21
0.8537499982734622
 31
0.0
100
AcDbText
  0
LINE
  5
25B
330
20C
100
AcDbEntity
  8
TRIM
100
AcDbLine
 10
3.342499998534066
 20
0.9577074628274647
 30
0.0
 11
3.342499998534113
 21
0.6684716413094672
 31
0.0
  0
LINE
  5
25C
330
20C
100
AcDbEntity
  8
TRIM
100
AcDbLine
 10
3.312499998534065
 20
0.9577074628274644
 30
0.0
 11
3.312499998534113
 21
0.6684716413094645
 31
0.0
  0
LINE
  5
25D
330
20C
100
AcDbEntity
  8
TRIM
100
AcDbLine
 10
4.123749998534062
 20
0.9877074628274638
 30
0.0
 11
4.123749998534114
 21
0.6684716413094672
 31
0.0
  0
LINE
  5
25E
330
20C
100
AcDbEntity
  8
TRIM
100
AcDbLine
 10
4.093749998534065
 20
0.9577074628274647
 30
0.0
 11
4.093749998534113
 21
0.6684716413094645
 31
0.0
  0
LINE
  5
25F
330
20C
100
AcDbEntity
  8
TRIM
100
AcDbLine
 10
4.123749998534114
 20
0.6684716413094663
 30
0.0
 11
7.996999998534064
 21
0.6684716413094632
 31
0.0
  0
LINE
  5
260
330
20C
100
AcDbEntity
  8
TRIM
100
AcDbLine
 10
9.182094455480024
 20
1.224315403424987
 30
0.0
 11
8.026999998534062
 21
1.224315403424987
 31
0.0
  0
TEXT
  5
261
330
20C
100
AcDbEntity
  8
DIM
100
AcDbText
 10
8.043249998534063
 20
0.2653392262302923
 30
0.0
 40
0.056
  1
DIMENSIONS IN 'INCHES' UNLESS SPECIFIED OTHERWISE
100
AcDbText
  0
LINE
  5
262
330
20C
100
AcDbEntity
  8
TRIM
100
AcDbLine
 10
9.182094455480005
 20
1.044315403424988
 30
0.0
 11
8.026999998534051
 21
1.044315403424987
 31
0.0
  0
LINE
  5
263
330
20C
100
AcDbEntity
  8
TRIM
100
AcDbLine
 10
9.182094455480024
 20
1.194315403424987
 30
0.0
 11
8.026999998534066
 21
1.194315403424987
 31
0.0
  0
LINE
  5
264
330
20C
100
AcDbEntity
  8
TRIM
100
AcDbLine
 10
8.026999998534064
 20
0.0749999982734631
 30
0.0
 11
10.41999999853406
 21
0.0749999982734622
 31
0.0
  0
LINE
  5
265
330
20C
100
AcDbEntity
  8
TRIM
100
AcDbLine
 10
8.026999998534064
 20
0.2249999982734629
 30
0.0
 11
10.41999999853406
 21
0.2249999982734625
 31
0.0
  0
TEXT
  5
266
330
20C
100
AcDbEntity
  8
TRIM
100
AcDbText
 10
8.074563651603105
 20
0.5810145276027239
 30
0.0
 40
0.07
  1
PRINT APPROVED
 41
1.058889550608496
  7
SIMPLEX
 72
     5
 11
9.02403461531539
 21
0.5810145276027239
 31
0.0
100
AcDbText
  0
LINE
  5
267
330
20C
100
AcDbEntity
  8
TRIM
100
AcDbLine
 10
9.182094455480063
 20
0.3543154034249878
 30
0.0
 11
8.026999998534064
 21
0.3543154034249878
 31
0.0
  0
LINE
  5
268
330
20C
100
AcDbEntity
  8
TRIM
 62
     2
100
AcDbLine
 10
9.182094455480012
 20
0.8643154034249874
 30
0.0
 11
8.026999998534064
 21
0.8643154034249874
 31
0.0
  0
LINE
  5
269
330
20C
100
AcDbEntity
  8
TRIM
100
AcDbLine
 10
9.182094455480017
 20
0.6843154034249875
 30
0.0
 11
8.026999998534064
 21
0.684315403424987
 31
0.0
  0
LINE
  5
26A
330
20C
100
AcDbEntity
  8
TRIM
 62
     2
100
AcDbLine
 10
9.182094455480024
 20
0.5457609724770878
 30
0.0
 11
8.026999998534064
 21
0.5457609724770878
 31
0.0
  0
LINE
  5
26B
330
20C
100
AcDbEntity
  8
TRIM
100
AcDbLine
 10
9.182094455480031
 20
0.3543154034249873
 30
0.0
 11
8.026999998534064
 21
0.3543154034249873
 31
0.0
  0
LINE
  5
26C
330
20C
100
AcDbEntity
  8
TRIM
100
AcDbLine
 10
7.996999998534064
 20
0.3492358197914598
 30
0.0
 11
7.996999998534064
 21
0.6384716413094598
 31
0.0
  0
LINE
  5
26D
330
20C
100
AcDbEntity
  8
TRIM
100
AcDbLine
 10
8.026999998534064
 20
0.3543154034249878
 30
0.0
 11
8.026999998534064
 21
0.864315403424988
 31
0.0
  0
TEXT
  5
26E
330
20C
100
AcDbEntity
  8
TRIM
100
AcDbText
 10
8.062499998534065
 20
0.1099999982734623
 30
0.0
 40
0.08
  1
FILE:
  7
SIMPLEX
100
AcDbText
  0
LINE
  5
26F
330
20C
100
AcDbEntity
  8
TRIM
100
AcDbLine
 10
8.026999998534064
 20
0.0749999982734653
 30
0.0
 11
8.099999998534064
 21
0.0749999982734648
 31
0.0
  0
LINE
  5
270
330
20C
100
AcDbEntity
  8
TRIM
100
AcDbLine
 10
8.026999998534064
 20
0.0749999982734622
 30
0.0
 11
8.026999998534064
 21
0.2249999982734629
 31
0.0
  0
LINE
  5
271
330
20C
100
AcDbEntity
  8
TRIM
100
AcDbLine
 10
7.996999998534064
 20
0.0299999982734596
 30
0.0
 11
7.996999998534064
 21
0.3192358197914595
 31
0.0
  0
TEXT
  5
272
330
20C
100
AcDbEntity
  8
TRIM
100
AcDbText
 10
8.074563651603092
 20
0.8995689585506237
 30
0.0
 40
0.07
  1
PRINT DRAWN
 41
1.047995828933662
  7
SIMPLEX
 72
     5
 11
8.811654051286435
 21
0.8995689585506237
 31
0.0
100
AcDbText
  0
TEXT
  5
273
330
20C
100
AcDbEntity
  8
TRIM
100
AcDbText
 10
8.074583587926003
 20
1.067921744520258
 30
0.0
 40
0.09
  1
SCALE:
  7
SIMPLEX
100
AcDbText
  0
LINE
  5
274
330
20C
100
AcDbEntity
  8
TRIM
100
AcDbLine
 10
8.026999998534064
 20
0.864315403424988
 30
0.0
 11
8.026999998534064
 21
1.194315403424987
 31
0.0
  0
LINE
  5
275
330
20C
100
AcDbEntity
  8
TRIM
100
AcDbLine
 10
10.41999999853406
 20
0.3543154034249873
 30
0.0
 11
9.212094455480064
 21
0.3543154034249878
 31
0.0
  0
LINE
  5
276
330
20C
100
AcDbEntity
  8
TRIM
100
AcDbLine
 10
10.41999999853406
 20
0.0749999982734622
 30
0.0
 11
10.41999999853406
 21
0.2249999982734625
 31
0.0
  0
LINE
  5
277
330
20C
100
AcDbEntity
  8
TRIM
100
AcDbLine
 10
10.41999999853406
 20
0.684315403424987
 30
0.0
 11
9.212094455480039
 21
0.6843154034249875
 31
0.0
  0
LINE
  5
278
330
20C
100
AcDbEntity
  8
TRIM
100
AcDbLine
 10
10.41999999853406
 20
0.8643154034249874
 30
0.0
 11
9.212094455480032
 21
0.8643154034249874
 31
0.0
  0
LINE
  5
279
330
20C
100
AcDbEntity
  8
TRIM
100
AcDbLine
 10
10.41999999853406
 20
1.044315403424987
 30
0.0
 11
9.212094455480025
 21
1.044315403424988
 31
0.0
  0
LINE
  5
27A
330
20C
100
AcDbEntity
  8
TRIM
100
AcDbLine
 10
10.41999999853406
 20
1.224315403424987
 30
0.0
 11
9.212094455480018
 21
1.224315403424987
 31
0.0
  0
TEXT
  5
27B
330
20C
100
AcDbEntity
  8
TRIM
100
AcDbText
 10
9.277645854177304
 20
0.5810145276027239
 30
0.0
 40
0.07
  1
DESIGN ENGINEER
  7
SIMPLEX
100
AcDbText
  0
LINE
  5
27C
330
20C
100
AcDbEntity
  8
TRIM
 62
     2
100
AcDbLine
 10
10.41418891242604
 20
0.5457609724770874
 30
0.0
 11
9.212094455480064
 21
0.5457609724770878
 31
0.0
  0
LINE
  5
27D
330
20C
100
AcDbEntity
  8
TRIM
100
AcDbLine
 10
9.182094455480024
 20
1.194315403424987
 30
0.0
 11
9.182094455480063
 21
0.3543154034249878
 31
0.0
  0
LINE
  5
27E
330
20C
100
AcDbEntity
  8
TRIM
 62
     2
100
AcDbLine
 10
8.736598446570452
 20
0.5457609724770878
 30
0.0
 11
8.73659844657045
 21
0.3543154034249878
 31
0.0
  0
LINE
  5
27F
330
20C
100
AcDbEntity
  8
TRIM
 62
     2
100
AcDbLine
 10
8.736598446570452
 20
0.8643154034249874
 30
0.0
 11
8.736598446570452
 21
0.6843154034249875
 31
0.0
  0
LINE
  5
280
330
20C
100
AcDbEntity
  8
TRIM
100
AcDbLine
 10
3.342499998534113
 20
0.6684716413094672
 30
0.0
 11
4.093749998534113
 21
0.6684716413094663
 31
0.0
  0
ENDBLK
  5
282
330
20C
100
AcDbEntity
  8
0
100
AcDbBlockEnd
  0
BLOCK
  5
285
330
283
100
AcDbEntity
  8
0
100
AcDbBlockBegin
  2
A$C4FB65283
 70
     2
 10
0.0
 20
0.0
 30
0.0
  3
A$C4FB65283
  1

  0
ATTDEF
  5
284
330
283
100
AcDbEntity
  8
DIM
100
AcDbText
 10
0.0000000025669991
 20
0.0433333427455174
 30
0.0
 40
0.13
  1

  7
SIMPLEX
100
AcDbAttributeDefinition
  3
PART_#
  2
PART_#
 70
     0
  0
ENDBLK
  5
286
330
283
100
AcDbEntity
  8
0
100
AcDbBlockEnd
  0
BLOCK
  5
289
330
287
100
AcDbEntity
  8
0
100
AcDbBlockBegin
  2
A$C2BBE0097
 70
     2
 10
0.0
 20
0.0
 30
0.0
  3
A$C2BBE0097
  1

  0
ATTDEF
  5
288
330
287
100
AcDbEntity
  8
DIM
100
AcDbText
 10
0.0000000025669991
 20
0.0123809372330444
 30
0.0
 40
0.13
  1

  7
SIMPLEX
100
AcDbAttributeDefinition
  3
PART_DESCRIPTION
  2
PART_DESCRIPTION
 70
     0
  0
ENDBLK
  5
28A
330
287
100
AcDbEntity
  8
0
100
AcDbBlockEnd
  0
BLOCK
  5
28D
330
28B
100
AcDbEntity
  8
0
100
AcDbBlockBegin
  2
A$C10236829
 70
     2
 10
0.0
 20
0.0
 30
0.0
  3
A$C10236829
  1

  0
ATTDEF
  5
28C
330
28B
100
AcDbEntity
  8
DIM
100
AcDbText
 10
0.0000000025669991
 20
0.0123809528212267
 30
0.0
 40
0.13
  1

  7
SIMPLEX
100
AcDbAttributeDefinition
  3
EXTRA_DESCRIPTION
  2
EXTRA_DESCRIPTION
 70
     0
  0
ENDBLK
  5
28E
330
28B
100
AcDbEntity
  8
0
100
AcDbBlockEnd
  0
BLOCK
  5
291
330
28F
100
AcDbEntity
  8
0
100
AcDbBlockBegin
  2
A$C794932C0
 70
     2
 10
0.0
 20
0.0
 30
0.0
  3
A$C794932C0
  1

  0
ATTDEF
  5
290
330
28F
100
AcDbEntity
  8
DIM
100
AcDbText
 10
0.2238095347306626
 20
0.0499999881906419
 30
0.0
 40
0.1
  1

  7
SIMPLEX
 72
     4
 11
0.2238095347306626
 21
0.0499999881906419
 31
0.0
100
AcDbAttributeDefinition
  3
SHEET
  2
SHEET
 70
     0
  0
ENDBLK
  5
292
330
28F
100
AcDbEntity
  8
0
100
AcDbBlockEnd
  0
BLOCK
  5
30F
330
293
100
AcDbEntity
  8
0
100
AcDbBlockBegin
  2
TEST
 70
     2
 10
0.0
 20
0.0
 30
0.0
  3
TEST
  1

  0
INSERT
  5
294
330
293
100
AcDbEntity
  8
DIM
100
AcDbBlockReference
 66
     1
  2
A$C4FB65283
 10
0.9375
 20
-0.9375
 30
0.0
  0
ATTRIB
  5
295
330
294
100
AcDbEntity
  8
DIM
100
AcDbText
 10
0.937500002566999
 20
-0.8941666572544825
 30
0.0
 40
0.13
  1

  7
SIMPLEX
100
AcDbAttribute
  2
PART_#
 70
     0
  0
SEQEND
  5
296
330
294
100
AcDbEntity
  8
DIM
  0
LINE
  5
297
330
293
100
AcDbEntity
  8
TRIM
100
AcDbLine
 10
10.66999999853406
 20
8.11999999827346
 30
0.0
 11
0.2799999985340644
 21
8.11999999827346
 31
0.0
  0
LINE
  5
298
330
293
100
AcDbEntity
  8
TRIM
100
AcDbLine
 10
0.2499999985340655
 20
8.149999998273461
 30
0.0
 11
10.69999999853406
 21
8.149999998273461
 31
0.0
  0
LINE
  5
299
330
293
100
AcDbEntity
  8
TRIM
100
AcDbLine
 10
0.2799999985340644
 20
8.11999999827346
 30
0.0
 11
0.2799999985340651
 21
1.237707462827464
 31
0.0
  0
LINE
  5
29A
330
293
100
AcDbEntity
  8
TRIM
100
AcDbLine
 10
0.2499999985340651
 20
8.149999998273461
 30
0.0
 11
0.2499999985340651
 21
0.249999998273462
 31
0.0
  0
LINE
  5
29B
330
293
100
AcDbEntity
  8
TRIM
100
AcDbLine
 10
10.66999999853406
 20
2.682499998273461
 30
0.0
 11
10.66999999853406
 21
8.119999998273458
 31
0.0
  0
LINE
  5
29C
330
293
100
AcDbEntity
  8
TRIM
100
AcDbLine
 10
10.69999999853406
 20
0.2499999982734593
 30
0.0
 11
10.69999999853406
 21
8.149999998273459
 31
0.0
  0
SOLID
  5
29D
330
293
100
AcDbEntity
  8
SOLID
 62
     1
100
AcDbTrace
 10
9.100645714660327
 20
1.586824719979944
 30
0.0
 11
9.203204583077742
 21
1.779709898068546
 31
0.0
 12
9.094321504076491
 22
1.594775342338473
 32
0.0
 13
9.197606642518891
 23
1.789026435684056
 33
0.0
  0
SOLID
  5
29E
330
293
100
AcDbEntity
  8
SOLID
 62
     1
100
AcDbTrace
 10
8.993633161575985
 20
1.580656234914544
 30
0.0
 11
9.178899857892716
 21
1.80144848583807
 31
0.0
 12
9.085889223298043
 22
1.605376172149846
 32
0.0
 13
9.19014272177376
 23
1.80144848583807
 33
0.0
  0
SOLID
  5
29F
330
293
100
AcDbEntity
  8
SOLID
 62
     1
100
AcDbTrace
 10
9.025982480684099
 20
1.801448485838069
 30
0.0
 11
9.373139625704464
 21
1.894468962492971
 31
0.0
 12
9.323679760929408
 22
1.801448485838069
 32
0.0
 13
9.323679760929408
 23
1.801448485838069
 33
0.0
  0
SOLID
  5
2A0
330
293
100
AcDbEntity
  8
SOLID
 62
     1
100
AcDbTrace
 10
9.066585180362723
 20
1.82518819906379
 30
0.0
 11
9.397519865140669
 21
1.913861880597488
 31
0.0
 12
9.084870359939877
 22
1.839732887642179
 32
0.0
 13
9.415805044717822
 23
1.928406569175877
 33
0.0
  0
LINE
  5
2A1
330
293
100
AcDbEntity
  8
TRIM
100
AcDbLine
 10
10.66999999853406
 20
2.652499998273461
 30
0.0
 11
8.276999998534064
 21
2.652499998273462
 31
0.0
  0
TEXT
  5
2A2
330
293
100
AcDbEntity
  8
TRIM
100
AcDbText
 10
8.343749998534065
 20
2.482876334230538
 30
0.0
 40
0.1
  1
TASK FORCE TIPS, INC.
 51
10.0
  7
ROMAND
100
AcDbText
  0
TEXT
  5
2A3
330
293
100
AcDbEntity
  8
TRIM
100
AcDbText
 10
8.378853318574009
 20
2.045200536343402
 30
0.0
 40
0.09
  1
219-462-6161
  7
SIMPLEX
100
AcDbText
  0
TEXT
  5
2A4
330
293
100
AcDbEntity
  8
TRIM
 62
     2
100
AcDbText
 10
8.378853318574009
 20
2.195864616217594
 30
0.0
 40
0.09
  1
VALPARAISO, IN 46383
  7
SIMPLEX
100
AcDbText
  0
TEXT
  5
2A5
330
293
100
AcDbEntity
  8
TRIM
 62
     2
100
AcDbText
 10
8.378853318574009
 20
2.340582801482295
 30
0.0
 40
0.09
  1
2800 E. EVANS AVE.
  7
SIMPLEX
100
AcDbText
  0
LINE
  5
2A6
330
293
100
AcDbEntity
  8
TRIM
100
AcDbLine
 10
10.66999999853406
 20
2.682499998273461
 30
0.0
 11
8.246999998534068
 21
2.682499998273462
 31
0.0
  0
LINE
  5
2A7
330
293
100
AcDbEntity
  8
TRIM
100
AcDbLine
 10
8.276999998534062
 20
1.474315403424987
 30
0.0
 11
8.276999998534064
 21
2.652499998273462
 31
0.0
  0
LINE
  5
2A8
330
293
100
AcDbEntity
  8
TRIM
100
AcDbLine
 10
8.246999998534064
 20
0.9184716413094635
 30
0.0
 11
8.246999998534068
 21
2.682499998273462
 31
0.0
  0
SOLID
  5
2A9
330
293
100
AcDbEntity
  8
SOLID
 62
     1
100
AcDbTrace
 10
8.293289409296239
 20
1.779709898068546
 30
0.0
 11
8.557257975069029
 21
1.779709898068546
 31
0.0
 12
8.364055538205608
 22
1.789026435684056
 32
0.0
 13
8.577237354460679
 23
1.789026435684056
 33
0.0
  0
SOLID
  5
2AA
330
293
100
AcDbEntity
  8
SOLID
 62
     1
100
AcDbTrace
 10
8.293289409296239
 20
1.779709898068546
 30
0.0
 11
8.848232940785159
 21
1.928406569175877
 31
0.0
 12
8.364055538205608
 22
1.789026435684056
 32
0.0
 13
8.829947761208007
 23
1.913861880597489
 33
0.0
  0
SOLID
  5
2AB
330
293
100
AcDbEntity
  8
SOLID
 62
     1
100
AcDbTrace
 10
8.418609830666147
 20
1.580656234914544
 30
0.0
 11
8.603876526982878
 21
1.801448485838069
 31
0.0
 12
8.510865892388205
 22
1.605376172149845
 32
0.0
 13
8.615119390863922
 23
1.801448485838069
 33
0.0
  0
SOLID
  5
2AC
330
293
100
AcDbEntity
  8
SOLID
 62
     1
100
AcDbTrace
 10
8.357639476921409
 20
1.54181383575286
 30
0.0
 11
8.557257975069029
 21
1.779709898068546
 31
0.0
 12
8.383769628526296
 22
1.558460578250724
 32
0.0
 13
8.577237354460679
 23
1.789026435684056
 33
0.0
  0
SOLID
  5
2AD
330
293
100
AcDbEntity
  8
SOLID
 62
     1
100
AcDbTrace
 10
8.519298173166653
 20
1.594775342338473
 30
0.0
 11
8.622583311609053
 21
1.789026435684056
 31
0.0
 12
8.525622383750489
 22
1.586824719979944
 32
0.0
 13
8.628181252167903
 23
1.779709898068546
 33
0.0
  0
SOLID
  5
2AE
330
293
100
AcDbEntity
  8
SOLID
 62
     1
100
AcDbTrace
 10
8.769123822871026
 20
1.696010323780124
 30
0.0
 11
8.639737606638517
 21
1.54181383575286
 31
0.0
 12
8.78420778556849
 22
1.699492730963093
 32
0.0
 13
8.665867758243402
 23
1.558460578250724
 33
0.0
  0
SOLID
  5
2AF
330
293
100
AcDbEntity
  8
SOLID
 62
     1
100
AcDbTrace
 10
8.807720513467595
 20
1.586824719979944
 30
0.0
 11
8.847274694021209
 21
1.661215314162212
 31
0.0
 12
8.801396302883759
 22
1.594775342338473
 32
0.0
 13
8.843127360178915
 23
1.673260046220356
 33
0.0
  0
SOLID
  5
2B0
330
293
100
AcDbEntity
  8
SOLID
 62
     1
100
AcDbTrace
 10
9.152260685370517
 20
1.789026435684056
 30
0.0
 11
8.958792959436136
 21
1.558460578250725
 31
0.0
 12
9.132281305978867
 22
1.779709898068546
 32
0.0
 13
8.932662807831249
 23
1.54181383575286
 33
0.0
  0
SOLID
  5
2B1
330
293
100
AcDbEntity
  8
SOLID
 62
     1
100
AcDbTrace
 10
8.700707960383251
 20
1.580656234914544
 30
0.0
 11
8.804319735831773
 21
1.704135940540385
 31
0.0
 12
8.79296402210531
 22
1.605376172149845
 32
0.0
 13
8.837597581722521
 23
1.689319688964547
 33
0.0
  0
SOLID
  5
2B2
330
293
100
AcDbEntity
  8
SOLID
 62
     1
100
AcDbTrace
 10
8.639737606638517
 20
1.54181383575286
 30
0.0
 11
8.807720513467595
 21
1.586824719979944
 31
0.0
 12
8.665867758243402
 22
1.558460578250724
 32
0.0
 13
8.801396302883759
 23
1.594775342338473
 33
0.0
  0
SOLID
  5
2B3
330
293
100
AcDbEntity
  8
SOLID
 62
     1
100
AcDbTrace
 10
8.357639476921409
 20
1.54181383575286
 30
0.0
 11
8.525622383750489
 21
1.586824719979944
 31
0.0
 12
8.383769628526296
 22
1.558460578250724
 32
0.0
 13
8.519298173166653
 23
1.594775342338473
 33
0.0
  0
SOLID
  5
2B4
330
293
100
AcDbEntity
  8
SOLID
 62
     1
100
AcDbTrace
 10
8.932662807831249
 20
1.54181383575286
 30
0.0
 11
9.100645714660327
 21
1.586824719979944
 31
0.0
 12
8.958792959436136
 22
1.558460578250725
 32
0.0
 13
9.094321504076491
 23
1.594775342338473
 33
0.0
  0
SOLID
  5
2B5
330
293
100
AcDbEntity
  8
SOLID
 62
     1
100
AcDbTrace
 10
8.458410376751436
 20
1.801448485838069
 30
0.0
 11
8.805567521771804
 21
1.894468962492971
 31
0.0
 12
8.756107656996745
 22
1.801448485838069
 32
0.0
 13
8.756107656996745
 23
1.801448485838069
 33
0.0
  0
SOLID
  5
2B6
330
293
100
AcDbEntity
  8
SOLID
 62
     1
100
AcDbTrace
 10
8.622583311609053
 20
1.789026435684056
 30
0.0
 11
8.859335484177783
 21
1.789026435684056
 31
0.0
 12
8.628181252167903
 22
1.779709898068546
 32
0.0
 13
8.839356104786135
 23
1.779709898068546
 33
0.0
  0
SOLID
  5
2B7
330
293
100
AcDbEntity
  8
SOLID
 62
     1
100
AcDbTrace
 10
8.822168427478533
 20
1.759226421888862
 30
0.0
 11
8.707090830046876
 21
1.723629191620975
 31
0.0
 12
8.827542130581782
 22
1.751136592315402
 32
0.0
 13
8.733530452159383
 23
1.722055733491771
 33
0.0
  0
SOLID
  5
2B8
330
293
100
AcDbEntity
  8
SOLID
 62
     1
100
AcDbTrace
 10
8.707090830046876
 20
1.723629191620975
 30
0.0
 11
8.769123822871026
 21
1.696010323780124
 31
0.0
 12
8.733530452159383
 22
1.722055733491771
 32
0.0
 13
8.78420778556849
 23
1.699492730963093
 33
0.0
  0
SOLID
  5
2B9
330
293
100
AcDbEntity
  8
SOLID
 62
     1
100
AcDbTrace
 10
8.742196428717766
 20
1.801448485838069
 30
0.0
 11
9.089353573738133
 21
1.894468962492971
 31
0.0
 12
9.039893708963075
 22
1.801448485838069
 32
0.0
 13
9.039893708963075
 23
1.801448485838069
 33
0.0
  0
SOLID
  5
2BA
330
293
100
AcDbEntity
  8
SOLID
 62
     1
100
AcDbTrace
 10
8.960751962356022
 20
1.789026435684056
 30
0.0
 11
9.152260685370517
 21
1.789026435684056
 31
0.0
 12
8.96634990291487
 22
1.779709898068546
 32
0.0
 13
9.132281305978867
 23
1.779709898068546
 33
0.0
  0
SOLID
  5
2BB
330
293
100
AcDbEntity
  8
SOLID
 62
     1
100
AcDbTrace
 10
8.801084307973546
 20
1.839732887642179
 30
0.0
 11
9.13201899275149
 21
1.928406569175877
 31
0.0
 12
8.782799128396392
 22
1.825188199063791
 32
0.0
 13
9.113733813174338
 23
1.913861880597489
 33
0.0
  0
SOLID
  5
2BC
330
293
100
AcDbEntity
  8
SOLID
 62
     1
100
AcDbTrace
 10
8.782799128396392
 20
1.825188199063791
 30
0.0
 11
8.829947761208007
 21
1.913861880597489
 31
0.0
 12
8.801084307973546
 22
1.839732887642179
 32
0.0
 13
8.848232940785159
 23
1.928406569175877
 33
0.0
  0
SOLID
  5
2BD
330
293
100
AcDbEntity
  8
SOLID
 62
     1
100
AcDbTrace
 10
8.843127360178915
 20
1.673260046220356
 30
0.0
 11
8.888464998265758
 21
1.653074429219956
 31
0.0
 12
8.847274694021209
 22
1.661215314162212
 32
0.0
 13
8.892612332108052
 23
1.641029697161812
 33
0.0
  0
SOLID
  5
2BE
330
293
100
AcDbEntity
  8
SOLID
 62
     1
100
AcDbTrace
 10
8.768783281642729
 20
1.7199577893195
 30
0.0
 11
8.937749358113208
 21
1.772224472547337
 31
0.0
 12
8.882935219809365
 22
1.669134071964148
 32
0.0
 13
8.882935219809365
 23
1.669134071964148
 33
0.0
  0
SOLID
  5
2BF
330
293
100
AcDbEntity
  8
SOLID
 62
     1
100
AcDbTrace
 10
8.834707068052781
 20
1.740350152884122
 30
0.0
 11
8.885974656699984
 21
1.801448485838069
 31
0.0
 12
8.870641230585929
 22
1.751465753893571
 32
0.0
 13
8.897217520581028
 23
1.801448485838069
 33
0.0
  0
SOLID
  5
2C0
330
293
100
AcDbEntity
  8
SOLID
 62
     1
100
AcDbTrace
 10
8.839356104786135
 20
1.779709898068546
 30
0.0
 11
8.822168427478533
 21
1.759226421888862
 31
0.0
 12
8.859335484177783
 22
1.789026435684056
 32
0.0
 13
8.827542130581782
 23
1.751136592315402
 33
0.0
  0
SOLID
  5
2C1
330
293
100
AcDbEntity
  8
SOLID
 62
     1
100
AcDbTrace
 10
8.888464998265758
 20
1.653074429219956
 30
0.0
 11
8.960751962356022
 21
1.789026435684056
 31
0.0
 12
8.892612332108052
 22
1.641029697161812
 32
0.0
 13
8.96634990291487
 23
1.779709898068546
 33
0.0
  0
SOLID
  5
2C2
330
293
100
AcDbEntity
  8
SOLID
 62
     1
100
AcDbTrace
 10
8.895754237745254
 20
1.772236807647912
 30
0.0
 11
8.95003121496035
 21
1.789026435684056
 31
0.0
 12
8.904681441326159
 22
1.789026435684056
 32
0.0
 13
8.904681441326159
 23
1.789026435684056
 33
0.0
  0
SOLID
  5
2C3
330
293
100
AcDbEntity
  8
SOLID
 62
     1
100
AcDbTrace
 10
9.066585180362723
 20
1.82518819906379
 30
0.0
 11
9.113733813174338
 21
1.913861880597489
 31
0.0
 12
9.084870359939877
 22
1.839732887642179
 32
0.0
 13
9.13201899275149
 23
1.928406569175877
 33
0.0
  0
LINE
  5
2C4
330
293
100
AcDbEntity
  8
TRIM
100
AcDbLine
 10
10.66999999853406
 20
2.030339596352224
 30
0.0
 11
10.66999999853406
 21
2.652499998273461
 31
0.0
  0
LINE
  5
2C5
330
293
100
AcDbEntity
  8
TRIM
100
AcDbLine
 10
9.462094455479999
 20
2.000339596352224
 30
0.0
 11
9.462094455480064
 21
0.6043154034249878
 31
0.0
  0
LINE
  5
2C6
330
293
100
AcDbEntity
  8
TRIM
100
AcDbLine
 10
10.66999999853406
 20
0.6043154034249874
 30
0.0
 11
10.66999999853406
 21
2.000339596352224
 31
0.0
  0
LINE
  5
2C7
330
293
100
AcDbEntity
  8
TRIM
100
AcDbLine
 10
9.462094455479999
 20
2.000339596352224
 30
0.0
 11
10.66999999853406
 21
2.000339596352224
 31
0.0
  0
LINE
  5
2C8
330
293
100
AcDbEntity
  8
TRIM
100
AcDbLine
 10
9.432094455479997
 20
2.030339596352224
 30
0.0
 11
10.66999999853406
 21
2.030339596352224
 31
0.0
  0
TEXT
  5
2C9
330
293
100
AcDbEntity
  8
DIM
100
AcDbText
 10
9.821579664239893
 20
1.865565403424988
 30
0.0
 40
0.09
  1
DATE
 41
0.9
 72
     1
 11
9.964293949954178
 21
1.865565403424988
 31
0.0
100
AcDbText
  0
LINE
  5
2CA
330
293
100
AcDbEntity
  8
TRIM
100
AcDbLine
 10
10.24446826441905
 20
1.834315403424988
 30
0.0
 11
9.684119635489306
 21
1.834315403424988
 31
0.0
  0
LINE
  5
2CB
330
293
100
AcDbEntity
  8
TRIM
100
AcDbLine
 10
10.66999999853406
 20
1.654315403424988
 30
0.0
 11
9.462094455480011
 21
1.654315403424988
 31
0.0
  0
LINE
  5
2CC
330
293
100
AcDbEntity
  8
TRIM
100
AcDbLine
 10
9.684119635489306
 20
2.000339596352224
 30
0.0
 11
9.684119635489302
 21
0.9343154034249874
 31
0.0
  0
LINE
  5
2CD
330
293
100
AcDbEntity
  8
TRIM
100
AcDbLine
 10
9.432094455479997
 20
2.030339596352224
 30
0.0
 11
9.432094455480022
 21
1.474315403424987
 31
0.0
  0
TEXT
  5
2CE
330
293
100
AcDbEntity
  8
DIM
100
AcDbText
 10
9.477107045484656
 20
1.865565403424988
 30
0.0
 40
0.09
  1
REV
 41
0.8
 72
     1
 11
9.573107045484656
 21
1.865565403424988
 31
0.0
100
AcDbText
  0
LINE
  5
2CF
330
293
100
AcDbEntity
  8
TRIM
100
AcDbLine
 10
9.684119635489306
 20
1.834315403424988
 30
0.0
 11
9.462094455480006
 21
1.834315403424988
 31
0.0
  0
SOLID
  5
2D0
330
293
100
AcDbEntity
  8
SOLID
 62
     1
100
AcDbTrace
 10
9.336741622233388
 20
1.779709898068546
 30
0.0
 11
9.415805044717822
 21
1.928406569175877
 31
0.0
 12
9.331143681674539
 22
1.789026435684056
 32
0.0
 13
9.397519865140669
 23
1.913861880597488
 33
0.0
  0
SOLID
  5
2D1
330
293
100
AcDbEntity
  8
SOLID
 62
     1
100
AcDbTrace
 10
9.203204583077742
 20
1.779709898068546
 30
0.0
 11
9.336741622233388
 21
1.779709898068546
 31
0.0
 12
9.197606642518891
 22
1.789026435684056
 32
0.0
 13
9.331143681674539
 23
1.789026435684056
 33
0.0
  0
LINE
  5
2D2
330
293
100
AcDbEntity
  8
TRIM
100
AcDbLine
 10
10.24446826441905
 20
2.000339596352224
 30
0.0
 11
10.24446826441905
 21
0.934315403424987
 31
0.0
  0
TEXT
  5
2D3
330
293
100
AcDbEntity
  8
DIM
100
AcDbText
 10
10.2605817160691
 20
1.865565403424988
 30
0.0
 40
0.09
  1
INITIALS
 41
0.8
 72
     1
 11
10.46115314464053
 21
1.865565403424988
 31
0.0
100
AcDbText
  0
LINE
  5
2D4
330
293
100
AcDbEntity
  8
TRIM
100
AcDbLine
 10
10.66999999853406
 20
1.834315403424988
 30
0.0
 11
10.24446826441905
 21
1.834315403424988
 31
0.0
  0
LINE
  5
2D5
330
293
100
AcDbEntity
  8
TRIM
100
AcDbLine
 10
0.2799999985341133
 20
0.5992358197914696
 30
0.0
 11
8.246999998534064
 21
0.5992358197914634
 31
0.0
  0
LINE
  5
2D6
330
293
100
AcDbEntity
  8
TRIM
100
AcDbLine
 10
0.2799999985340644
 20
0.8884716413094695
 30
0.0
 11
8.246999998534064
 21
0.8884716413094633
 31
0.0
  0
LINE
  5
2D7
330
293
100
AcDbEntity
  8
TRIM
100
AcDbLine
 10
0.2499999985340651
 20
0.249999998273462
 30
0.0
 11
10.69999999853406
 21
0.2499999982734629
 31
0.0
  0
LINE
  5
2D8
330
293
100
AcDbEntity
  8
TRIM
100
AcDbLine
 10
0.2799999985340644
 20
0.5692358197914693
 30
0.0
 11
8.246999998534064
 21
0.5692358197914627
 31
0.0
  0
LINE
  5
2D9
330
293
100
AcDbEntity
  8
TRIM
100
AcDbLine
 10
0.2799999985341133
 20
0.2799999982734693
 30
0.0
 11
8.246999998534064
 21
0.2799999982734627
 31
0.0
  0
LINE
  5
2DA
330
293
100
AcDbEntity
  8
TRIM
100
AcDbLine
 10
0.2799999985340651
 20
1.237707462827464
 30
0.0
 11
4.373749998534062
 21
1.237707462827463
 31
0.0
  0
LINE
  5
2DB
330
293
100
AcDbEntity
  8
TRIM
100
AcDbLine
 10
0.2799999985341142
 20
1.207707462827464
 30
0.0
 11
3.562499998534065
 21
1.207707462827464
 31
0.0
  0
LINE
  5
2DC
330
293
100
AcDbEntity
  8
TRIM
100
AcDbLine
 10
0.2799999985340644
 20
0.9184716413094644
 30
0.0
 11
3.562499998534113
 21
0.9184716413094644
 31
0.0
  0
TEXT
  5
2DD
330
293
100
AcDbEntity
  8
TRIM
100
AcDbText
 10
0.3575473542991792
 20
0.6700287859488796
 30
0.0
 40
0.14
  1
DESCRIPTION:
 41
0.9
  7
SIMPLEX
100
AcDbText
  0
TEXT
  5
2DE
330
293
100
AcDbEntity
  8
TRIM
100
AcDbText
 10
0.3575473542991792
 20
0.3575287859488796
 30
0.0
 40
0.14
  1
EXTRA DESC:
 41
0.9
  7
SIMPLEX
100
AcDbText
  0
TEXT
  5
2DF
330
293
100
AcDbEntity
  8
TRIM
100
AcDbText
 10
0.3601805216547635
 20
0.9931394110287762
 30
0.0
 40
0.14
  1
PART NUMBER:
 41
0.8
  7
SIMPLEX
100
AcDbText
  0
LINE
  5
2E0
330
293
100
AcDbEntity
  8
TRIM
100
AcDbLine
 10
0.2799999985340644
 20
0.8884716413094695
 30
0.0
 11
0.2799999985341133
 21
0.5992358197914696
 31
0.0
  0
LINE
  5
2E1
330
293
100
AcDbEntity
  8
TRIM
100
AcDbLine
 10
0.2799999985340644
 20
0.5692358197914693
 30
0.0
 11
0.2799999985341133
 21
0.2799999982734693
 31
0.0
  0
LINE
  5
2E2
330
293
100
AcDbEntity
  8
TRIM
100
AcDbLine
 10
0.2799999985340653
 20
1.207707462827465
 30
0.0
 11
0.2799999985340644
 21
0.9184716413094644
 31
0.0
  0
LINE
  5
2E3
330
293
100
AcDbEntity
  8
TRIM
100
AcDbLine
 10
3.592499998534066
 20
1.207707462827464
 30
0.0
 11
4.343749998534065
 21
1.207707462827464
 31
0.0
  0
TEXT
  5
2E4
330
293
100
AcDbEntity
  8
DIM
 62
     1
100
AcDbText
 10
3.789702379486445
 20
1.103749998273462
 30
0.0
 40
0.08
  1
SHEET
 72
     1
 11
3.968749998534065
 21
1.103749998273462
 31
0.0
100
AcDbText
  0
LINE
  5
2E5
330
293
100
AcDbEntity
  8
TRIM
100
AcDbLine
 10
3.592499998534066
 20
1.207707462827464
 30
0.0
 11
3.592499998534113
 21
0.9184716413094671
 31
0.0
  0
LINE
  5
2E6
330
293
100
AcDbEntity
  8
TRIM
100
AcDbLine
 10
3.562499998534065
 20
1.207707462827464
 30
0.0
 11
3.562499998534113
 21
0.9184716413094644
 31
0.0
  0
LINE
  5
2E7
330
293
100
AcDbEntity
  8
TRIM
100
AcDbLine
 10
4.373749998534062
 20
1.237707462827463
 30
0.0
 11
4.373749998534114
 21
0.9184716413094671
 31
0.0
  0
LINE
  5
2E8
330
293
100
AcDbEntity
  8
TRIM
100
AcDbLine
 10
4.343749998534065
 20
1.207707462827464
 30
0.0
 11
4.343749998534113
 21
0.9184716413094644
 31
0.0
  0
LINE
  5
2E9
330
293
100
AcDbEntity
  8
TRIM
100
AcDbLine
 10
4.373749998534114
 20
0.9184716413094662
 30
0.0
 11
8.246999998534064
 21
0.918471641309463
 31
0.0
  0
LINE
  5
2EA
330
293
100
AcDbEntity
  8
TRIM
100
AcDbLine
 10
9.432094455480024
 20
1.474315403424987
 30
0.0
 11
8.276999998534062
 21
1.474315403424987
 31
0.0
  0
TEXT
  5
2EB
330
293
100
AcDbEntity
  8
DIM
100
AcDbText
 10
8.293249998534063
 20
0.5153392262302923
 30
0.0
 40
0.056
  1
DIMENSIONS IN 'INCHES' UNLESS SPECIFIED OTHERWISE
100
AcDbText
  0
LINE
  5
2EC
330
293
100
AcDbEntity
  8
TRIM
100
AcDbLine
 10
9.432094455480005
 20
1.294315403424988
 30
0.0
 11
8.276999998534051
 21
1.294315403424987
 31
0.0
  0
LINE
  5
2ED
330
293
100
AcDbEntity
  8
TRIM
100
AcDbLine
 10
9.432094455480024
 20
1.444315403424987
 30
0.0
 11
8.276999998534066
 21
1.444315403424987
 31
0.0
  0
LINE
  5
2EE
330
293
100
AcDbEntity
  8
TRIM
100
AcDbLine
 10
8.276999998534064
 20
0.324999998273463
 30
0.0
 11
10.66999999853406
 21
0.3249999982734621
 31
0.0
  0
LINE
  5
2EF
330
293
100
AcDbEntity
  8
TRIM
100
AcDbLine
 10
8.276999998534064
 20
0.474999998273463
 30
0.0
 11
10.66999999853406
 21
0.4749999982734625
 31
0.0
  0
TEXT
  5
2F0
330
293
100
AcDbEntity
  8
TRIM
100
AcDbText
 10
8.324563651603105
 20
0.8310145276027238
 30
0.0
 40
0.07
  1
PRINT APPROVED
 41
1.058889550608496
  7
SIMPLEX
 72
     5
 11
9.27403461531539
 21
0.8310145276027238
 31
0.0
100
AcDbText
  0
LINE
  5
2F1
330
293
100
AcDbEntity
  8
TRIM
100
AcDbLine
 10
9.432094455480063
 20
0.6043154034249878
 30
0.0
 11
8.276999998534064
 21
0.6043154034249878
 31
0.0
  0
LINE
  5
2F2
330
293
100
AcDbEntity
  8
TRIM
 62
     2
100
AcDbLine
 10
9.432094455480012
 20
1.114315403424987
 30
0.0
 11
8.276999998534064
 21
1.114315403424987
 31
0.0
  0
LINE
  5
2F3
330
293
100
AcDbEntity
  8
TRIM
100
AcDbLine
 10
9.432094455480017
 20
0.9343154034249874
 30
0.0
 11
8.276999998534064
 21
0.934315403424987
 31
0.0
  0
LINE
  5
2F4
330
293
100
AcDbEntity
  8
TRIM
 62
     2
100
AcDbLine
 10
9.432094455480024
 20
0.7957609724770878
 30
0.0
 11
8.276999998534064
 21
0.7957609724770878
 31
0.0
  0
LINE
  5
2F5
330
293
100
AcDbEntity
  8
TRIM
100
AcDbLine
 10
9.432094455480031
 20
0.6043154034249874
 30
0.0
 11
8.276999998534064
 21
0.6043154034249874
 31
0.0
  0
LINE
  5
2F6
330
293
100
AcDbEntity
  8
TRIM
100
AcDbLine
 10
8.246999998534064
 20
0.5992358197914598
 30
0.0
 11
8.246999998534064
 21
0.8884716413094597
 31
0.0
  0
LINE
  5
2F7
330
293
100
AcDbEntity
  8
TRIM
100
AcDbLine
 10
8.276999998534064
 20
0.6043154034249878
 30
0.0
 11
8.276999998534064
 21
1.114315403424988
 31
0.0
  0
TEXT
  5
2F8
330
293
100
AcDbEntity
  8
TRIM
100
AcDbText
 10
8.312499998534065
 20
0.3599999982734623
 30
0.0
 40
0.08
  1
FILE:
  7
SIMPLEX
100
AcDbText
  0
LINE
  5
2F9
330
293
100
AcDbEntity
  8
TRIM
100
AcDbLine
 10
8.276999998534064
 20
0.3249999982734653
 30
0.0
 11
8.349999998534064
 21
0.3249999982734648
 31
0.0
  0
LINE
  5
2FA
330
293
100
AcDbEntity
  8
TRIM
100
AcDbLine
 10
8.276999998534064
 20
0.3249999982734621
 30
0.0
 11
8.276999998534064
 21
0.474999998273463
 31
0.0
  0
LINE
  5
2FB
330
293
100
AcDbEntity
  8
TRIM
100
AcDbLine
 10
8.246999998534064
 20
0.2799999982734596
 30
0.0
 11
8.246999998534064
 21
0.5692358197914596
 31
0.0
  0
TEXT
  5
2FC
330
293
100
AcDbEntity
  8
TRIM
100
AcDbText
 10
8.324563651603092
 20
1.149568958550623
 30
0.0
 40
0.07
  1
PRINT DRAWN
 41
1.047995828933662
  7
SIMPLEX
 72
     5
 11
9.061654051286435
 21
1.149568958550623
 31
0.0
100
AcDbText
  0
TEXT
  5
2FD
330
293
100
AcDbEntity
  8
TRIM
100
AcDbText
 10
8.324583587926003
 20
1.317921744520258
 30
0.0
 40
0.09
  1
SCALE:
  7
SIMPLEX
100
AcDbText
  0
LINE
  5
2FE
330
293
100
AcDbEntity
  8
TRIM
100
AcDbLine
 10
8.276999998534064
 20
1.114315403424988
 30
0.0
 11
8.276999998534064
 21
1.444315403424987
 31
0.0
  0
LINE
  5
2FF
330
293
100
AcDbEntity
  8
TRIM
100
AcDbLine
 10
10.66999999853406
 20
0.6043154034249874
 30
0.0
 11
9.462094455480064
 21
0.6043154034249878
 31
0.0
  0
LINE
  5
300
330
293
100
AcDbEntity
  8
TRIM
100
AcDbLine
 10
10.66999999853406
 20
0.3249999982734621
 30
0.0
 11
10.66999999853406
 21
0.4749999982734625
 31
0.0
  0
LINE
  5
301
330
293
100
AcDbEntity
  8
TRIM
100
AcDbLine
 10
10.66999999853406
 20
0.934315403424987
 30
0.0
 11
9.462094455480039
 21
0.9343154034249874
 31
0.0
  0
LINE
  5
302
330
293
100
AcDbEntity
  8
TRIM
100
AcDbLine
 10
10.66999999853406
 20
1.114315403424987
 30
0.0
 11
9.462094455480032
 21
1.114315403424987
 31
0.0
  0
LINE
  5
303
330
293
100
AcDbEntity
  8
TRIM
100
AcDbLine
 10
10.66999999853406
 20
1.294315403424987
 30
0.0
 11
9.462094455480025
 21
1.294315403424988
 31
0.0
  0
LINE
  5
304
330
293
100
AcDbEntity
  8
TRIM
100
AcDbLine
 10
10.66999999853406
 20
1.474315403424987
 30
0.0
 11
9.462094455480018
 21
1.474315403424987
 31
0.0
  0
TEXT
  5
305
330
293
100
AcDbEntity
  8
TRIM
100
AcDbText
 10
9.527645854177304
 20
0.8310145276027238
 30
0.0
 40
0.07
  1
DESIGN ENGINEER
  7
SIMPLEX
100
AcDbText
  0
LINE
  5
306
330
293
100
AcDbEntity
  8
TRIM
 62
     2
100
AcDbLine
 10
10.66418891242604
 20
0.7957609724770874
 30
0.0
 11
9.462094455480064
 21
0.7957609724770878
 31
0.0
  0
LINE
  5
307
330
293
100
AcDbEntity
  8
TRIM
100
AcDbLine
 10
9.432094455480024
 20
1.444315403424987
 30
0.0
 11
9.432094455480063
 21
0.6043154034249878
 31
0.0
  0
LINE
  5
308
330
293
100
AcDbEntity
  8
TRIM
 62
     2
100
AcDbLine
 10
8.986598446570452
 20
0.7957609724770878
 30
0.0
 11
8.98659844657045
 21
0.6043154034249878
 31
0.0
  0
LINE
  5
309
330
293
100
AcDbEntity
  8
TRIM
 62
     2
100
AcDbLine
 10
8.986598446570452
 20
1.114315403424987
 30
0.0
 11
8.986598446570452
 21
0.9343154034249874
 31
0.0
  0
LINE
  5
30A
330
293
100
AcDbEntity
  8
TRIM
100
AcDbLine
 10
3.592499998534113
 20
0.9184716413094671
 30
0.0
 11
4.343749998534113
 21
0.9184716413094662
 31
0.0
  0
ATTDEF
  5
30B
330
293
100
AcDbEntity
  8
DIM
100
AcDbText
 10
1.748750001101063
 20
0.9930549840549819
 30
0.0
 40
0.13
  1

  7
SIMPLEX
100
AcDbAttributeDefinition
  3
PART_#
  2
PART_#
 70
     0
  0
ATTDEF
  5
30C
330
293
100
AcDbEntity
  8
DIM
100
AcDbText
 10
1.754683743625886
 20
0.6688693887053426
 30
0.0
 40
0.13
  1

  7
SIMPLEX
100
AcDbAttributeDefinition
  3
PART_DESCRIPTION
  2
PART_DESCRIPTION
 70
     0
  0
ATTDEF
  5
30D
330
293
100
AcDbEntity
  8
DIM
100
AcDbText
 10
1.75
 20
0.3555424452224223
 30
0.0
 40
0.13
  1

  7
SIMPLEX
100
AcDbAttributeDefinition
  3
EXTRA_DESCRIPTION
  2
EXTRA_DESCRIPTION
 70
     0
  0
ATTDEF
  5
30E
330
293
100
AcDbEntity
  8
DIM
100
AcDbText
 10
3.96875
 20
1.0
 30
0.0
 40
0.1
  1

  7
SIMPLEX
 72
     4
 11
3.96875
 21
1.0
 31
0.0
100
AcDbAttributeDefinition
  3
SHEET
  2
SHEET
 70
     0
  0
ENDBLK
  5
310
330
293
100
AcDbEntity
  8
0
100
AcDbBlockEnd
  0
BLOCK
  5
313
330
311
100
AcDbEntity
  8
0
100
AcDbBlockBegin
  2
A$C56887695
 70
     2
 10
0.0
 20
0.0
 30
0.0
  3
A$C56887695
  1

  0
ATTDEF
  5
312
330
311
100
AcDbEntity
  8
DIM
100
AcDbText
 10
0.0000000016510064
 20
0.0076190448079387
 30
0.0
 40
0.08
  1

  7
SIMPLEX
100
AcDbAttributeDefinition
  3
FILE_NAME
  2
FILE_NAME
 70
     0
  0
ENDBLK
  5
314
330
311
100
AcDbEntity
  8
0
100
AcDbBlockEnd
  0
BLOCK
  5
317
330
315
100
AcDbEntity
  8
0
100
AcDbBlockBegin
  2
A$C406F4052
 70
     2
 10
0.0
 20
0.0
 30
0.0
  3
A$C406F4052
  1

  0
ATTDEF
  5
316
330
315
100
AcDbEntity
  8
DIM
100
AcDbText
 10
0.0000000097657775
 20
0.0000000059644165
 30
0.0
 40
0.08
  1

  7
SIMPLEX
100
AcDbAttributeDefinition
  3
DRAWING_SCALE
  2
SCALE
 70
     0
  0
ENDBLK
  5
318
330
315
100
AcDbEntity
  8
0
100
AcDbBlockEnd
  0
BLOCK
  5
31B
330
319
100
AcDbEntity
  8
0
100
AcDbBlockBegin
  2
A$C217D2A32
 70
     2
 10
0.0
 20
0.0
 30
0.0
  3
A$C217D2A32
  1

  0
ATTDEF
  5
31A
330
319
100
AcDbEntity
  8
DIM
100
AcDbText
 10
0.1409523881144832
 20
0.0400000152139821
 30
0.0
 40
0.08
  1

  7
SIMPLEX
 72
     4
 11
0.1409523881144832
 21
0.0400000152139821
 31
0.0
100
AcDbAttributeDefinition
  3
DATE_DRAWN
  2
DATE
 70
     0
  0
ENDBLK
  5
31C
330
319
100
AcDbEntity
  8
0
100
AcDbBlockEnd
  0
BLOCK
  5
31F
330
31D
100
AcDbEntity
  8
0
100
AcDbBlockBegin
  2
A$C26835032
 70
     2
 10
0.0
 20
0.0
 30
0.0
  3
A$C26835032
  1

  0
ATTDEF
  5
31E
330
31D
100
AcDbEntity
  8
DIM
100
AcDbText
 10
0.1504761941594115
 20
0.0400000152139821
 30
0.0
 40
0.08
  1

  7
SIMPLEX
 72
     4
 11
0.1504761941594115
 21
0.0400000152139821
 31
0.0
100
AcDbAttributeDefinition
  3
DRAWN_BY?
  2
WHO?
 70
     0
  0
ENDBLK
  5
320
330
31D
100
AcDbEntity
  8
0
100
AcDbBlockEnd
  0
BLOCK
  5
323
330
321
100
AcDbEntity
  8
0
100
AcDbBlockBegin
  2
A$C11730435
 70
     2
 10
0.0
 20
0.0
 30
0.0
  3
A$C11730435
  1

  0
ATTDEF
  5
322
330
321
100
AcDbEntity
  8
DIM
100
AcDbText
 10
0.1542857245995872
 20
0.0399999866443972
 30
0.0
 40
0.08
  1

  7
SCRIPT
 72
     4
 11
0.1542857245995872
 21
0.0399999866443972
 31
0.0
100
AcDbAttributeDefinition
  3
DATE_APPROVED
  2
DATE
 70
     0
  0
ENDBLK
  5
324
330
321
100
AcDbEntity
  8
0
100
AcDbBlockEnd
  0
BLOCK
  5
327
330
325
100
AcDbEntity
  8
0
100
AcDbBlockBegin
  2
A$C740A492C
 70
     2
 10
0.0
 20
0.0
 30
0.0
  3
A$C740A492C
  1

  0
ATTDEF
  5
326
330
325
100
AcDbEntity
  8
DIM
100
AcDbText
 10
0.1676190447818424
 20
0.0399999866443968
 30
0.0
 40
0.08
  1

  7
SCRIPT
 72
     4
 11
0.1676190447818424
 21
0.0399999866443968
 31
0.0
100
AcDbAttributeDefinition
  3
APPROVED_BY?
  2
WHO?
 70
     0
  0
ENDBLK
  5
328
330
325
100
AcDbEntity
  8
0
100
AcDbBlockEnd
  0
BLOCK
  5
32B
330
329
100
AcDbEntity
  8
0
100
AcDbBlockBegin
  2
A$C251463E3
 70
     2
 10
0.0
 20
0.0
 30
0.0
  3
A$C251463E3
  1

  0
ATTDEF
  5
32A
330
329
100
AcDbEntity
  8
DIM
100
AcDbText
 10
-0.0076190422628919
 20
-0.0000000133556033
 30
0.0
 40
0.08
  1

  7
SCRIPT
 11
-0.0076190422628919
 21
0.0399999866443968
 31
0.0
100
AcDbAttributeDefinition
  3
ENGINEER_IN_CHARGE
  2
WHO?
 70
     0
 74
     2
  0
ENDBLK
  5
32C
330
329
100
AcDbEntity
  8
0
100
AcDbBlockEnd
  0
BLOCK
  5
32F
330
32D
100
AcDbEntity
  8
0
100
AcDbBlockBegin
  2
A$C46507260
 70
     0
 10
0.0
 20
0.0
 30
0.0
  3
A$C46507260
  1

  0
TEXT
  5
32E
330
32D
100
AcDbEntity
  8
DIM
100
AcDbText
 10
0.0000000011396958
 20
0.0000000091671084
 30
0.0
 40
0.04
  1
F04-0001-01 REV. 00
 72
     2
 11
0.6933333344730297
 21
0.0000000091671084
 31
0.0
100
AcDbText
  0
ENDBLK
  5
330
330
32D
100
AcDbEntity
  8
0
100
AcDbBlockEnd
  0
BLOCK
  5
3C0
330
33C
100
AcDbEntity
  8
0
100
AcDbBlockBegin
  2
TFT_APRLIST
 70
     2
 10
0.0
 20
0.0
 30
0.0
  3
TFT_APRLIST
  1

  0
INSERT
  5
33D
330
33C
100
AcDbEntity
  8
DIM
100
AcDbBlockReference
 66
     1
  2
A$C4FB65283
 10
0.9375
 20
-0.9375
 30
0.0
  0
ATTRIB
  5
33E
330
33D
100
AcDbEntity
  8
DIM
100
AcDbText
 10
0.937500002566999
 20
-0.8941666572544825
 30
0.0
 40
0.13
  1

  7
SIMPLEX
100
AcDbAttribute
  2
PART_#
 70
     0
  0
SEQEND
  5
33F
330
33D
100
AcDbEntity
  8
DIM
  0
LINE
  5
340
330
33C
100
AcDbEntity
  8
TRIM
100
AcDbLine
 10
10.42
 20
3.919999999999998
 30
0.0
 11
0.0299999999999994
 21
3.919999999999998
 31
0.0
  0
LINE
  5
341
330
33C
100
AcDbEntity
  8
TRIM
100
AcDbLine
 10
0.0000000000000004
 20
3.949999999999999
 30
0.0
 11
10.45
 21
3.949999999999999
 31
0.0
  0
LINE
  5
342
330
33C
100
AcDbEntity
  8
TRIM
100
AcDbLine
 10
0.0299999999999994
 20
3.919999999999998
 30
0.0
 11
0.0300000000000001
 21
-2.962292535445997
 31
0.0
  0
LINE
  5
343
330
33C
100
AcDbEntity
  8
TRIM
100
AcDbLine
 10
0.0
 20
3.949999999999999
 30
0.0
 11
0.0
 21
-3.95
 31
0.0
  0
LINE
  5
344
330
33C
100
AcDbEntity
  8
TRIM
100
AcDbLine
 10
10.42
 20
-1.5175
 30
0.0
 11
10.42
 21
3.919999999999996
 31
0.0
  0
LINE
  5
345
330
33C
100
AcDbEntity
  8
TRIM
100
AcDbLine
 10
10.45
 20
-3.950000000000002
 30
0.0
 11
10.45
 21
3.949999999999997
 31
0.0
  0
SOLID
  5
346
330
33C
100
AcDbEntity
  8
SOLID
 62
     1
100
AcDbTrace
 10
8.850645716126262
 20
-2.583175278293517
 30
0.0
 11
8.953204584543676
 21
-2.390290100204915
 31
0.0
 12
8.844321505542426
 22
-2.575224655934988
 32
0.0
 13
8.947606643984826
 23
-2.380973562589405
 33
0.0
  0
SOLID
  5
347
330
33C
100
AcDbEntity
  8
SOLID
 62
     1
100
AcDbTrace
 10
8.74363316304192
 20
-2.589343763358917
 30
0.0
 11
8.928899859358651
 21
-2.368551512435391
 31
0.0
 12
8.835889224763977
 22
-2.564623826123615
 32
0.0
 13
8.940142723239695
 23
-2.368551512435391
 33
0.0
  0
SOLID
  5
348
330
33C
100
AcDbEntity
  8
SOLID
 62
     1
100
AcDbTrace
 10
8.775982482150034
 20
-2.368551512435392
 30
0.0
 11
9.123139627170399
 21
-2.27553103578049
 31
0.0
 12
9.073679762395343
 22
-2.368551512435391
 32
0.0
 13
9.073679762395343
 23
-2.368551512435391
 33
0.0
  0
SOLID
  5
349
330
33C
100
AcDbEntity
  8
SOLID
 62
     1
100
AcDbTrace
 10
8.816585181828658
 20
-2.344811799209671
 30
0.0
 11
9.147519866606604
 21
-2.256138117675972
 31
0.0
 12
8.834870361405812
 22
-2.330267110631282
 32
0.0
 13
9.165805046183757
 23
-2.241593429097584
 33
0.0
  0
LINE
  5
34A
330
33C
100
AcDbEntity
  8
TRIM
100
AcDbLine
 10
10.42
 20
-1.5475
 30
0.0
 11
8.026999999999999
 21
-1.547499999999999
 31
0.0
  0
TEXT
  5
34B
330
33C
100
AcDbEntity
  8
TRIM
100
AcDbText
 10
8.09375
 20
-1.717123664042923
 30
0.0
 40
0.1
  1
TASK FORCE TIPS, INC.
 51
10.0
  7
ROMAND
100
AcDbText
  0
TEXT
  5
34C
330
33C
100
AcDbEntity
  8
TRIM
100
AcDbText
 10
8.128853320039944
 20
-2.15479946193006
 30
0.0
 40
0.09
  1
219-462-6161
  7
SIMPLEX
100
AcDbText
  0
TEXT
  5
34D
330
33C
100
AcDbEntity
  8
TRIM
 62
     2
100
AcDbText
 10
8.128853320039944
 20
-2.004135382055867
 30
0.0
 40
0.09
  1
VALPARAISO, IN 46383
  7
SIMPLEX
100
AcDbText
  0
TEXT
  5
34E
330
33C
100
AcDbEntity
  8
TRIM
 62
     2
100
AcDbText
 10
8.128853320039944
 20
-1.859417196791166
 30
0.0
 40
0.09
  1
2800 E. EVANS AVE.
  7
SIMPLEX
100
AcDbText
  0
LINE
  5
34F
330
33C
100
AcDbEntity
  8
TRIM
100
AcDbLine
 10
10.42
 20
-1.5175
 30
0.0
 11
7.997000000000003
 21
-1.5175
 31
0.0
  0
LINE
  5
350
330
33C
100
AcDbEntity
  8
TRIM
100
AcDbLine
 10
8.026999999999997
 20
-2.695684594848474
 30
0.0
 11
8.026999999999999
 21
-1.547499999999999
 31
0.0
  0
LINE
  5
351
330
33C
100
AcDbEntity
  8
TRIM
100
AcDbLine
 10
7.996999999999999
 20
-3.281528356963998
 30
0.0
 11
7.997000000000003
 21
-1.5175
 31
0.0
  0
SOLID
  5
352
330
33C
100
AcDbEntity
  8
SOLID
 62
     1
100
AcDbTrace
 10
8.043289410762174
 20
-2.390290100204915
 30
0.0
 11
8.307257976534964
 21
-2.390290100204915
 31
0.0
 12
8.114055539671543
 22
-2.380973562589405
 32
0.0
 13
8.327237355926614
 23
-2.380973562589405
 33
0.0
  0
SOLID
  5
353
330
33C
100
AcDbEntity
  8
SOLID
 62
     1
100
AcDbTrace
 10
8.043289410762174
 20
-2.390290100204915
 30
0.0
 11
8.598232942251094
 21
-2.241593429097584
 31
0.0
 12
8.114055539671543
 22
-2.380973562589405
 32
0.0
 13
8.579947762673942
 23
-2.256138117675972
 33
0.0
  0
SOLID
  5
354
330
33C
100
AcDbEntity
  8
SOLID
 62
     1
100
AcDbTrace
 10
8.168609832132082
 20
-2.589343763358917
 30
0.0
 11
8.353876528448813
 21
-2.368551512435391
 31
0.0
 12
8.260865893854139
 22
-2.564623826123616
 32
0.0
 13
8.365119392329857
 23
-2.368551512435391
 33
0.0
  0
SOLID
  5
355
330
33C
100
AcDbEntity
  8
SOLID
 62
     1
100
AcDbTrace
 10
8.107639478387344
 20
-2.628186162520601
 30
0.0
 11
8.307257976534964
 21
-2.390290100204915
 31
0.0
 12
8.133769629992231
 22
-2.611539420022737
 32
0.0
 13
8.327237355926614
 23
-2.380973562589405
 33
0.0
  0
SOLID
  5
356
330
33C
100
AcDbEntity
  8
SOLID
 62
     1
100
AcDbTrace
 10
8.269298174632588
 20
-2.575224655934988
 30
0.0
 11
8.372583313074988
 21
-2.380973562589405
 31
0.0
 12
8.275622385216424
 22
-2.583175278293517
 32
0.0
 13
8.378181253633838
 23
-2.390290100204915
 33
0.0
  0
SOLID
  5
357
330
33C
100
AcDbEntity
  8
SOLID
 62
     1
100
AcDbTrace
 10
8.519123824336961
 20
-2.473989674493337
 30
0.0
 11
8.389737608104452
 21
-2.628186162520601
 31
0.0
 12
8.534207787034425
 22
-2.470507267310368
 32
0.0
 13
8.415867759709337
 23
-2.611539420022737
 33
0.0
  0
SOLID
  5
358
330
33C
100
AcDbEntity
  8
SOLID
 62
     1
100
AcDbTrace
 10
8.55772051493353
 20
-2.583175278293517
 30
0.0
 11
8.597274695487143
 21
-2.508784684111249
 31
0.0
 12
8.551396304349694
 22
-2.575224655934988
 32
0.0
 13
8.59312736164485
 23
-2.496739952053105
 33
0.0
  0
SOLID
  5
359
330
33C
100
AcDbEntity
  8
SOLID
 62
     1
100
AcDbTrace
 10
8.902260686836452
 20
-2.380973562589405
 30
0.0
 11
8.708792960902071
 21
-2.611539420022736
 31
0.0
 12
8.882281307444802
 22
-2.390290100204915
 32
0.0
 13
8.682662809297184
 23
-2.628186162520601
 33
0.0
  0
SOLID
  5
35A
330
33C
100
AcDbEntity
  8
SOLID
 62
     1
100
AcDbTrace
 10
8.450707961849186
 20
-2.589343763358917
 30
0.0
 11
8.554319737297708
 21
-2.465864057733076
 31
0.0
 12
8.542964023571245
 22
-2.564623826123616
 32
0.0
 13
8.587597583188456
 23
-2.480680309308914
 33
0.0
  0
SOLID
  5
35B
330
33C
100
AcDbEntity
  8
SOLID
 62
     1
100
AcDbTrace
 10
8.389737608104452
 20
-2.628186162520601
 30
0.0
 11
8.55772051493353
 21
-2.583175278293517
 31
0.0
 12
8.415867759709337
 22
-2.611539420022737
 32
0.0
 13
8.551396304349694
 23
-2.575224655934988
 33
0.0
  0
SOLID
  5
35C
330
33C
100
AcDbEntity
  8
SOLID
 62
     1
100
AcDbTrace
 10
8.107639478387344
 20
-2.628186162520601
 30
0.0
 11
8.275622385216424
 21
-2.583175278293517
 31
0.0
 12
8.133769629992231
 22
-2.611539420022737
 32
0.0
 13
8.269298174632588
 23
-2.575224655934988
 33
0.0
  0
SOLID
  5
35D
330
33C
100
AcDbEntity
  8
SOLID
 62
     1
100
AcDbTrace
 10
8.682662809297184
 20
-2.628186162520601
 30
0.0
 11
8.850645716126262
 21
-2.583175278293517
 31
0.0
 12
8.708792960902071
 22
-2.611539420022736
 32
0.0
 13
8.844321505542426
 23
-2.575224655934988
 33
0.0
  0
SOLID
  5
35E
330
33C
100
AcDbEntity
  8
SOLID
 62
     1
100
AcDbTrace
 10
8.20841037821737
 20
-2.368551512435391
 30
0.0
 11
8.555567523237739
 21
-2.27553103578049
 31
0.0
 12
8.50610765846268
 22
-2.368551512435391
 32
0.0
 13
8.50610765846268
 23
-2.368551512435391
 33
0.0
  0
SOLID
  5
35F
330
33C
100
AcDbEntity
  8
SOLID
 62
     1
100
AcDbTrace
 10
8.372583313074988
 20
-2.380973562589405
 30
0.0
 11
8.609335485643718
 21
-2.380973562589405
 31
0.0
 12
8.378181253633838
 22
-2.390290100204915
 32
0.0
 13
8.58935610625207
 23
-2.390290100204915
 33
0.0
  0
SOLID
  5
360
330
33C
100
AcDbEntity
  8
SOLID
 62
     1
100
AcDbTrace
 10
8.572168428944468
 20
-2.410773576384599
 30
0.0
 11
8.457090831512811
 21
-2.446370806652486
 31
0.0
 12
8.577542132047717
 22
-2.418863405958059
 32
0.0
 13
8.483530453625318
 23
-2.44794426478169
 33
0.0
  0
SOLID
  5
361
330
33C
100
AcDbEntity
  8
SOLID
 62
     1
100
AcDbTrace
 10
8.457090831512811
 20
-2.446370806652486
 30
0.0
 11
8.519123824336961
 21
-2.473989674493337
 31
0.0
 12
8.483530453625318
 22
-2.44794426478169
 32
0.0
 13
8.534207787034425
 23
-2.470507267310368
 33
0.0
  0
SOLID
  5
362
330
33C
100
AcDbEntity
  8
SOLID
 62
     1
100
AcDbTrace
 10
8.492196430183701
 20
-2.368551512435392
 30
0.0
 11
8.839353575204068
 21
-2.27553103578049
 31
0.0
 12
8.78989371042901
 22
-2.368551512435391
 32
0.0
 13
8.78989371042901
 23
-2.368551512435391
 33
0.0
  0
SOLID
  5
363
330
33C
100
AcDbEntity
  8
SOLID
 62
     1
100
AcDbTrace
 10
8.710751963821957
 20
-2.380973562589405
 30
0.0
 11
8.902260686836452
 21
-2.380973562589405
 31
0.0
 12
8.716349904380805
 22
-2.390290100204915
 32
0.0
 13
8.882281307444802
 23
-2.390290100204915
 33
0.0
  0
SOLID
  5
364
330
33C
100
AcDbEntity
  8
SOLID
 62
     1
100
AcDbTrace
 10
8.551084309439481
 20
-2.330267110631282
 30
0.0
 11
8.882018994217425
 21
-2.241593429097584
 31
0.0
 12
8.532799129862327
 22
-2.34481179920967
 32
0.0
 13
8.863733814640273
 23
-2.256138117675972
 33
0.0
  0
SOLID
  5
365
330
33C
100
AcDbEntity
  8
SOLID
 62
     1
100
AcDbTrace
 10
8.532799129862327
 20
-2.34481179920967
 30
0.0
 11
8.579947762673942
 21
-2.256138117675972
 31
0.0
 12
8.551084309439481
 22
-2.330267110631282
 32
0.0
 13
8.598232942251094
 23
-2.241593429097584
 33
0.0
  0
SOLID
  5
366
330
33C
100
AcDbEntity
  8
SOLID
 62
     1
100
AcDbTrace
 10
8.59312736164485
 20
-2.496739952053105
 30
0.0
 11
8.638464999731693
 21
-2.516925569053505
 31
0.0
 12
8.597274695487143
 22
-2.508784684111249
 32
0.0
 13
8.642612333573987
 23
-2.528970301111649
 33
0.0
  0
SOLID
  5
367
330
33C
100
AcDbEntity
  8
SOLID
 62
     1
100
AcDbTrace
 10
8.518783283108664
 20
-2.450042208953961
 30
0.0
 11
8.687749359579143
 21
-2.397775525726124
 31
0.0
 12
8.6329352212753
 22
-2.500865926309313
 32
0.0
 13
8.6329352212753
 23
-2.500865926309313
 33
0.0
  0
SOLID
  5
368
330
33C
100
AcDbEntity
  8
SOLID
 62
     1
100
AcDbTrace
 10
8.584707069518715
 20
-2.429649845389338
 30
0.0
 11
8.635974658165919
 21
-2.368551512435391
 31
0.0
 12
8.620641232051864
 22
-2.41853424437989
 32
0.0
 13
8.647217522046963
 23
-2.368551512435391
 33
0.0
  0
SOLID
  5
369
330
33C
100
AcDbEntity
  8
SOLID
 62
     1
100
AcDbTrace
 10
8.58935610625207
 20
-2.390290100204915
 30
0.0
 11
8.572168428944468
 21
-2.410773576384599
 31
0.0
 12
8.609335485643718
 22
-2.380973562589405
 32
0.0
 13
8.577542132047717
 23
-2.418863405958059
 33
0.0
  0
SOLID
  5
36A
330
33C
100
AcDbEntity
  8
SOLID
 62
     1
100
AcDbTrace
 10
8.638464999731693
 20
-2.516925569053505
 30
0.0
 11
8.710751963821957
 21
-2.380973562589405
 31
0.0
 12
8.642612333573987
 22
-2.528970301111649
 32
0.0
 13
8.716349904380805
 23
-2.390290100204915
 33
0.0
  0
SOLID
  5
36B
330
33C
100
AcDbEntity
  8
SOLID
 62
     1
100
AcDbTrace
 10
8.645754239211189
 20
-2.397763190625549
 30
0.0
 11
8.700031216426285
 21
-2.380973562589405
 31
0.0
 12
8.654681442792094
 22
-2.380973562589405
 32
0.0
 13
8.654681442792094
 23
-2.380973562589405
 33
0.0
  0
SOLID
  5
36C
330
33C
100
AcDbEntity
  8
SOLID
 62
     1
100
AcDbTrace
 10
8.816585181828658
 20
-2.344811799209671
 30
0.0
 11
8.863733814640273
 21
-2.256138117675972
 31
0.0
 12
8.834870361405812
 22
-2.330267110631282
 32
0.0
 13
8.882018994217425
 23
-2.241593429097584
 33
0.0
  0
LINE
  5
36D
330
33C
100
AcDbEntity
  8
TRIM
100
AcDbLine
 10
10.42
 20
-2.169660401921237
 30
0.0
 11
10.42
 21
-1.5475
 31
0.0
  0
LINE
  5
36E
330
33C
100
AcDbEntity
  8
TRIM
100
AcDbLine
 10
9.212094456945933
 20
-2.199660401921237
 30
0.0
 11
9.212094456945999
 21
-3.595684594848474
 31
0.0
  0
LINE
  5
36F
330
33C
100
AcDbEntity
  8
TRIM
100
AcDbLine
 10
10.42
 20
-3.595684594848474
 30
0.0
 11
10.42
 21
-2.199660401921237
 31
0.0
  0
LINE
  5
370
330
33C
100
AcDbEntity
  8
TRIM
100
AcDbLine
 10
9.212094456945933
 20
-2.199660401921237
 30
0.0
 11
10.42
 21
-2.199660401921237
 31
0.0
  0
LINE
  5
371
330
33C
100
AcDbEntity
  8
TRIM
100
AcDbLine
 10
9.182094456945932
 20
-2.169660401921237
 30
0.0
 11
10.42
 21
-2.169660401921237
 31
0.0
  0
TEXT
  5
372
330
33C
100
AcDbEntity
  8
DIM
100
AcDbText
 10
9.571579665705828
 20
-2.334434594848473
 30
0.0
 40
0.09
  1
DATE
 41
0.9
 72
     1
 11
9.714293951420113
 21
-2.334434594848473
 31
0.0
100
AcDbText
  0
LINE
  5
373
330
33C
100
AcDbEntity
  8
TRIM
100
AcDbLine
 10
9.994468265884984
 20
-2.365684594848473
 30
0.0
 11
9.434119636955241
 21
-2.365684594848473
 31
0.0
  0
LINE
  5
374
330
33C
100
AcDbEntity
  8
TRIM
100
AcDbLine
 10
10.42
 20
-2.545684594848474
 30
0.0
 11
9.212094456945946
 21
-2.545684594848474
 31
0.0
  0
LINE
  5
375
330
33C
100
AcDbEntity
  8
TRIM
100
AcDbLine
 10
9.434119636955241
 20
-2.199660401921237
 30
0.0
 11
9.434119636955237
 21
-3.265684594848474
 31
0.0
  0
LINE
  5
376
330
33C
100
AcDbEntity
  8
TRIM
100
AcDbLine
 10
9.182094456945932
 20
-2.169660401921237
 30
0.0
 11
9.182094456945957
 21
-2.695684594848474
 31
0.0
  0
TEXT
  5
377
330
33C
100
AcDbEntity
  8
DIM
100
AcDbText
 10
9.227107046950591
 20
-2.334434594848473
 30
0.0
 40
0.09
  1
REV
 41
0.8
 72
     1
 11
9.323107046950591
 21
-2.334434594848473
 31
0.0
100
AcDbText
  0
LINE
  5
378
330
33C
100
AcDbEntity
  8
TRIM
100
AcDbLine
 10
9.434119636955241
 20
-2.365684594848473
 30
0.0
 11
9.212094456945941
 21
-2.365684594848473
 31
0.0
  0
SOLID
  5
379
330
33C
100
AcDbEntity
  8
SOLID
 62
     1
100
AcDbTrace
 10
9.086741623699323
 20
-2.390290100204915
 30
0.0
 11
9.165805046183757
 21
-2.241593429097584
 31
0.0
 12
9.081143683140474
 22
-2.380973562589405
 32
0.0
 13
9.147519866606604
 23
-2.256138117675972
 33
0.0
  0
SOLID
  5
37A
330
33C
100
AcDbEntity
  8
SOLID
 62
     1
100
AcDbTrace
 10
8.953204584543676
 20
-2.390290100204915
 30
0.0
 11
9.086741623699323
 21
-2.390290100204915
 31
0.0
 12
8.947606643984826
 22
-2.380973562589405
 32
0.0
 13
9.081143683140474
 23
-2.380973562589405
 33
0.0
  0
LINE
  5
37B
330
33C
100
AcDbEntity
  8
TRIM
100
AcDbLine
 10
9.994468265884982
 20
-2.199660401921237
 30
0.0
 11
9.994468265884982
 21
-3.265684594848475
 31
0.0
  0
TEXT
  5
37C
330
33C
100
AcDbEntity
  8
DIM
100
AcDbText
 10
10.01058171753503
 20
-2.334434594848473
 30
0.0
 40
0.09
  1
INITIALS
 41
0.8
 72
     1
 11
10.21115314610646
 21
-2.334434594848473
 31
0.0
100
AcDbText
  0
LINE
  5
37D
330
33C
100
AcDbEntity
  8
TRIM
100
AcDbLine
 10
10.42
 20
-2.365684594848473
 30
0.0
 11
9.994468265884984
 21
-2.365684594848473
 31
0.0
  0
LINE
  5
37E
330
33C
100
AcDbEntity
  8
TRIM
100
AcDbLine
 10
0.0300000000000482
 20
-3.600764178481992
 30
0.0
 11
7.996999999999999
 21
-3.600764178481998
 31
0.0
  0
LINE
  5
37F
330
33C
100
AcDbEntity
  8
TRIM
100
AcDbLine
 10
0.0299999999999994
 20
-3.311528356963992
 30
0.0
 11
7.996999999999999
 21
-3.311528356963998
 31
0.0
  0
LINE
  5
380
330
33C
100
AcDbEntity
  8
TRIM
100
AcDbLine
 10
0.0
 20
-3.95
 30
0.0
 11
10.45
 21
-3.949999999999999
 31
0.0
  0
LINE
  5
381
330
33C
100
AcDbEntity
  8
TRIM
100
AcDbLine
 10
0.0299999999999994
 20
-3.630764178481992
 30
0.0
 11
7.996999999999999
 21
-3.630764178481999
 31
0.0
  0
LINE
  5
382
330
33C
100
AcDbEntity
  8
TRIM
100
AcDbLine
 10
0.0300000000000482
 20
-3.919999999999992
 30
0.0
 11
7.996999999999999
 21
-3.919999999999999
 31
0.0
  0
LINE
  5
383
330
33C
100
AcDbEntity
  8
TRIM
100
AcDbLine
 10
0.0300000000000001
 20
-2.962292535445997
 30
0.0
 11
4.123749999999997
 21
-2.962292535445998
 31
0.0
  0
LINE
  5
384
330
33C
100
AcDbEntity
  8
TRIM
100
AcDbLine
 10
0.0300000000000491
 20
-2.992292535445997
 30
0.0
 11
3.3125
 21
-2.992292535445997
 31
0.0
  0
LINE
  5
385
330
33C
100
AcDbEntity
  8
TRIM
100
AcDbLine
 10
0.0299999999999994
 20
-3.281528356963997
 30
0.0
 11
3.312500000000048
 21
-3.281528356963997
 31
0.0
  0
TEXT
  5
386
330
33C
100
AcDbEntity
  8
TRIM
100
AcDbText
 10
0.1075473557651141
 20
-3.529971212324582
 30
0.0
 40
0.14
  1
DESCRIPTION:
 41
0.9
  7
SIMPLEX
100
AcDbText
  0
TEXT
  5
387
330
33C
100
AcDbEntity
  8
TRIM
100
AcDbText
 10
0.1075473557651141
 20
-3.842471212324582
 30
0.0
 40
0.14
  1
EXTRA DESC:
 41
0.9
  7
SIMPLEX
100
AcDbText
  0
TEXT
  5
388
330
33C
100
AcDbEntity
  8
TRIM
100
AcDbText
 10
0.1101805231206985
 20
-3.206860587244686
 30
0.0
 40
0.14
  1
PART NUMBER:
 41
0.8
  7
SIMPLEX
100
AcDbText
  0
LINE
  5
389
330
33C
100
AcDbEntity
  8
TRIM
100
AcDbLine
 10
0.0299999999999994
 20
-3.311528356963992
 30
0.0
 11
0.0300000000000482
 21
-3.600764178481992
 31
0.0
  0
LINE
  5
38A
330
33C
100
AcDbEntity
  8
TRIM
100
AcDbLine
 10
0.0299999999999994
 20
-3.630764178481992
 30
0.0
 11
0.0300000000000482
 21
-3.919999999999992
 31
0.0
  0
LINE
  5
38B
330
33C
100
AcDbEntity
  8
TRIM
100
AcDbLine
 10
0.0300000000000003
 20
-2.992292535445996
 30
0.0
 11
0.0299999999999994
 21
-3.281528356963997
 31
0.0
  0
LINE
  5
38C
330
33C
100
AcDbEntity
  8
TRIM
100
AcDbLine
 10
3.342500000000001
 20
-2.992292535445997
 30
0.0
 11
4.09375
 21
-2.992292535445997
 31
0.0
  0
TEXT
  5
38D
330
33C
100
AcDbEntity
  8
DIM
 62
     1
100
AcDbText
 10
3.53970238095238
 20
-3.096249999999999
 30
0.0
 40
0.08
  1
SHEET
 72
     1
 11
3.71875
 21
-3.096249999999999
 31
0.0
100
AcDbText
  0
LINE
  5
38E
330
33C
100
AcDbEntity
  8
TRIM
100
AcDbLine
 10
3.342500000000001
 20
-2.992292535445997
 30
0.0
 11
3.342500000000048
 21
-3.281528356963995
 31
0.0
  0
LINE
  5
38F
330
33C
100
AcDbEntity
  8
TRIM
100
AcDbLine
 10
3.3125
 20
-2.992292535445997
 30
0.0
 11
3.312500000000048
 21
-3.281528356963997
 31
0.0
  0
LINE
  5
390
330
33C
100
AcDbEntity
  8
TRIM
100
AcDbLine
 10
4.123749999999997
 20
-2.962292535445998
 30
0.0
 11
4.123750000000049
 21
-3.281528356963995
 31
0.0
  0
LINE
  5
391
330
33C
100
AcDbEntity
  8
TRIM
100
AcDbLine
 10
4.09375
 20
-2.992292535445997
 30
0.0
 11
4.093750000000048
 21
-3.281528356963997
 31
0.0
  0
LINE
  5
392
330
33C
100
AcDbEntity
  8
TRIM
100
AcDbLine
 10
4.123750000000049
 20
-3.281528356963995
 30
0.0
 11
7.996999999999999
 21
-3.281528356963999
 31
0.0
  0
LINE
  5
393
330
33C
100
AcDbEntity
  8
TRIM
100
AcDbLine
 10
9.182094456945959
 20
-2.695684594848474
 30
0.0
 11
8.026999999999997
 21
-2.695684594848474
 31
0.0
  0
TEXT
  5
394
330
33C
100
AcDbEntity
  8
DIM
100
AcDbText
 10
8.043249999999998
 20
-3.684660772043169
 30
0.0
 40
0.056
  1
DIMENSIONS IN 'INCHES' UNLESS SPECIFIED OTHERWISE
100
AcDbText
  0
LINE
  5
395
330
33C
100
AcDbEntity
  8
TRIM
100
AcDbLine
 10
9.182094456945939
 20
-2.905684594848473
 30
0.0
 11
8.026999999999986
 21
-2.905684594848474
 31
0.0
  0
LINE
  5
396
330
33C
100
AcDbEntity
  8
TRIM
100
AcDbLine
 10
9.182094456945959
 20
-2.725684594848474
 30
0.0
 11
8.027000000000001
 21
-2.725684594848474
 31
0.0
  0
LINE
  5
397
330
33C
100
AcDbEntity
  8
TRIM
100
AcDbLine
 10
8.026999999999999
 20
-3.874999999999999
 30
0.0
 11
10.42
 21
-3.875
 31
0.0
  0
LINE
  5
398
330
33C
100
AcDbEntity
  8
TRIM
100
AcDbLine
 10
8.026999999999999
 20
-3.724999999999999
 30
0.0
 11
10.42
 21
-3.724999999999999
 31
0.0
  0
TEXT
  5
399
330
33C
100
AcDbEntity
  8
TRIM
100
AcDbText
 10
8.07456365306904
 20
-3.368985470670738
 30
0.0
 40
0.07
  1
PRINT APPROVED
 41
1.058889550608496
  7
SIMPLEX
 72
     5
 11
9.024034616781325
 21
-3.368985470670738
 31
0.0
100
AcDbText
  0
LINE
  5
39A
330
33C
100
AcDbEntity
  8
TRIM
100
AcDbLine
 10
9.182094456945998
 20
-3.595684594848474
 30
0.0
 11
8.026999999999999
 21
-3.595684594848474
 31
0.0
  0
LINE
  5
39B
330
33C
100
AcDbEntity
  8
TRIM
 62
     2
100
AcDbLine
 10
9.182094456945947
 20
-3.085684594848474
 30
0.0
 11
8.026999999999999
 21
-3.085684594848474
 31
0.0
  0
LINE
  5
39C
330
33C
100
AcDbEntity
  8
TRIM
100
AcDbLine
 10
9.182094456945952
 20
-3.265684594848474
 30
0.0
 11
8.026999999999999
 21
-3.265684594848475
 31
0.0
  0
LINE
  5
39D
330
33C
100
AcDbEntity
  8
TRIM
 62
     2
100
AcDbLine
 10
9.182094456945959
 20
-3.404239025796374
 30
0.0
 11
8.026999999999999
 21
-3.404239025796374
 31
0.0
  0
LINE
  5
39E
330
33C
100
AcDbEntity
  8
TRIM
100
AcDbLine
 10
9.182094456945966
 20
-3.595684594848474
 30
0.0
 11
8.026999999999999
 21
-3.595684594848474
 31
0.0
  0
LINE
  5
39F
330
33C
100
AcDbEntity
  8
TRIM
100
AcDbLine
 10
7.996999999999999
 20
-3.600764178482002
 30
0.0
 11
7.996999999999999
 21
-3.311528356964002
 31
0.0
  0
LINE
  5
3A0
330
33C
100
AcDbEntity
  8
TRIM
100
AcDbLine
 10
8.026999999999999
 20
-3.595684594848474
 30
0.0
 11
8.026999999999999
 21
-3.085684594848474
 31
0.0
  0
TEXT
  5
3A1
330
33C
100
AcDbEntity
  8
TRIM
100
AcDbText
 10
8.0625
 20
-3.839999999999999
 30
0.0
 40
0.08
  1
FILE:
  7
SIMPLEX
100
AcDbText
  0
LINE
  5
3A2
330
33C
100
AcDbEntity
  8
TRIM
100
AcDbLine
 10
8.026999999999999
 20
-3.874999999999996
 30
0.0
 11
8.099999999999999
 21
-3.874999999999997
 31
0.0
  0
LINE
  5
3A3
330
33C
100
AcDbEntity
  8
TRIM
100
AcDbLine
 10
8.026999999999999
 20
-3.875
 30
0.0
 11
8.026999999999999
 21
-3.724999999999999
 31
0.0
  0
LINE
  5
3A4
330
33C
100
AcDbEntity
  8
TRIM
100
AcDbLine
 10
7.996999999999999
 20
-3.920000000000002
 30
0.0
 11
7.996999999999999
 21
-3.630764178482002
 31
0.0
  0
TEXT
  5
3A5
330
33C
100
AcDbEntity
  8
TRIM
100
AcDbText
 10
8.074563653069027
 20
-3.050431039722838
 30
0.0
 40
0.07
  1
PRINT DRAWN
 41
1.047995828933662
  7
SIMPLEX
 72
     5
 11
8.81165405275237
 21
-3.050431039722838
 31
0.0
100
AcDbText
  0
TEXT
  5
3A6
330
33C
100
AcDbEntity
  8
TRIM
100
AcDbText
 10
8.074583589391938
 20
-2.867078253753203
 30
0.0
 40
0.09
  1
SCALE:
  7
SIMPLEX
100
AcDbText
  0
LINE
  5
3A7
330
33C
100
AcDbEntity
  8
TRIM
100
AcDbLine
 10
8.026999999999999
 20
-3.085684594848474
 30
0.0
 11
8.026999999999999
 21
-2.725684594848474
 31
0.0
  0
LINE
  5
3A8
330
33C
100
AcDbEntity
  8
TRIM
100
AcDbLine
 10
10.42
 20
-3.595684594848474
 30
0.0
 11
9.212094456945999
 21
-3.595684594848474
 31
0.0
  0
LINE
  5
3A9
330
33C
100
AcDbEntity
  8
TRIM
100
AcDbLine
 10
10.42
 20
-3.875
 30
0.0
 11
10.42
 21
-3.724999999999999
 31
0.0
  0
LINE
  5
3AA
330
33C
100
AcDbEntity
  8
TRIM
100
AcDbLine
 10
10.42
 20
-3.265684594848475
 30
0.0
 11
9.212094456945974
 21
-3.265684594848474
 31
0.0
  0
LINE
  5
3AB
330
33C
100
AcDbEntity
  8
TRIM
100
AcDbLine
 10
10.42
 20
-3.085684594848474
 30
0.0
 11
9.212094456945967
 21
-3.085684594848474
 31
0.0
  0
LINE
  5
3AC
330
33C
100
AcDbEntity
  8
TRIM
100
AcDbLine
 10
10.42
 20
-2.905684594848474
 30
0.0
 11
9.21209445694596
 21
-2.905684594848473
 31
0.0
  0
LINE
  5
3AD
330
33C
100
AcDbEntity
  8
TRIM
100
AcDbLine
 10
10.42
 20
-2.725684594848474
 30
0.0
 11
9.212094456945953
 21
-2.725684594848474
 31
0.0
  0
TEXT
  5
3AE
330
33C
100
AcDbEntity
  8
TRIM
100
AcDbText
 10
9.277645855643239
 20
-3.368985470670738
 30
0.0
 40
0.07
  1
DESIGN ENGINEER
  7
SIMPLEX
100
AcDbText
  0
LINE
  5
3AF
330
33C
100
AcDbEntity
  8
TRIM
 62
     2
100
AcDbLine
 10
10.41418891389197
 20
-3.404239025796374
 30
0.0
 11
9.212094456945999
 21
-3.404239025796374
 31
0.0
  0
LINE
  5
3B0
330
33C
100
AcDbEntity
  8
TRIM
100
AcDbLine
 10
9.182094456945959
 20
-2.725684594848474
 30
0.0
 11
9.182094456945998
 21
-3.595684594848474
 31
0.0
  0
LINE
  5
3B1
330
33C
100
AcDbEntity
  8
TRIM
 62
     2
100
AcDbLine
 10
8.736598448036387
 20
-3.404239025796374
 30
0.0
 11
8.736598448036385
 21
-3.595684594848474
 31
0.0
  0
LINE
  5
3B2
330
33C
100
AcDbEntity
  8
TRIM
 62
     2
100
AcDbLine
 10
8.736598448036387
 20
-3.085684594848474
 30
0.0
 11
8.736598448036387
 21
-3.265684594848474
 31
0.0
  0
LINE
  5
3B3
330
33C
100
AcDbEntity
  8
TRIM
100
AcDbLine
 10
3.342500000000048
 20
-3.281528356963995
 30
0.0
 11
4.093750000000047
 21
-3.281528356963995
 31
0.0
  0
ATTDEF
  5
3B4
330
33C
100
AcDbEntity
  8
DIM
100
AcDbText
 10
1.498750002566998
 20
-3.20694501421848
 30
0.0
 40
0.13
  1

  7
SIMPLEX
100
AcDbAttributeDefinition
  3
PART_#
  2
PART_#
 70
     0
  0
ATTDEF
  5
3B5
330
33C
100
AcDbEntity
  8
DIM
100
AcDbText
 10
1.504683745091821
 20
-3.531130609568119
 30
0.0
 40
0.13
  1

  7
SIMPLEX
100
AcDbAttributeDefinition
  3
PART_DESCRIPTION
  2
PART_DESCRIPTION
 70
     0
  0
ATTDEF
  5
3B6
330
33C
100
AcDbEntity
  8
DIM
100
AcDbText
 10
1.500000001465934
 20
-3.844457553051039
 30
0.0
 40
0.13
  1

  7
SIMPLEX
100
AcDbAttributeDefinition
  3
EXTRA_DESCRIPTION
  2
EXTRA_DESCRIPTION
 70
     0
  0
ATTDEF
  5
3B7
330
33C
100
AcDbEntity
  8
DIM
100
AcDbText
 10
3.718750001465934
 20
-3.199999998273462
 30
0.0
 40
0.1
  1

  7
SIMPLEX
 72
     4
 11
3.718750001465934
 21
-3.199999998273462
 31
0.0
100
AcDbAttributeDefinition
  3
SHEET
  2
SHEET
 70
     0
  0
ATTDEF
  5
3B8
330
33C
100
AcDbEntity
  8
DIM
100
AcDbText
 10
8.370750001651005
 20
-3.841069024870303
 30
0.0
 40
0.08
  1

  7
SIMPLEX
100
AcDbAttributeDefinition
  3
FILE_NAME
  2
FILE_NAME
 70
     0
  0
ATTDEF
  5
3B9
330
33C
100
AcDbEntity
  8
DIM
100
AcDbText
 10
8.593750001465934
 20
-2.867243860095429
 30
0.0
 40
0.08
  1

  7
SIMPLEX
100
AcDbAttributeDefinition
  3
DRAWING_SCALE
  2
SCALE
 70
     0
  0
ATTDEF
  5
3BA
330
33C
100
AcDbEntity
  8
DIM
100
AcDbText
 10
8.381799224018193
 20
-3.175684594848474
 30
0.0
 40
0.08
  1

  7
SIMPLEX
 72
     4
 11
8.381799224018193
 21
-3.175684594848474
 31
0.0
100
AcDbAttributeDefinition
  3
DATE_DRAWN
  2
DATE
 70
     0
  0
ATTDEF
  5
3BB
330
33C
100
AcDbEntity
  8
DIM
100
AcDbText
 10
8.959346452491169
 20
-3.175684594848474
 30
0.0
 40
0.08
  1

  7
SIMPLEX
 72
     4
 11
8.959346452491169
 21
-3.175684594848474
 31
0.0
100
AcDbAttributeDefinition
  3
DRAWN_BY?
  2
WHO?
 70
     0
  0
ATTDEF
  5
3BC
330
33C
100
AcDbEntity
  8
DIM
100
AcDbText
 10
8.381799224018193
 20
-3.499961810322424
 30
0.0
 40
0.08
  1

  7
SCRIPT
 72
     4
 11
8.381799224018193
 21
-3.499961810322424
 31
0.0
100
AcDbAttributeDefinition
  3
DATE_APPROVED
  2
DATE
 70
     0
  0
ATTDEF
  5
3BD
330
33C
100
AcDbEntity
  8
DIM
100
AcDbText
 10
8.959346452491192
 20
-3.499961810322424
 30
0.0
 40
0.08
  1

  7
SCRIPT
 72
     4
 11
8.959346452491192
 21
-3.499961810322424
 31
0.0
100
AcDbAttributeDefinition
  3
APPROVED_BY?
  2
WHO?
 70
     0
  0
ATTDEF
  5
3BE
330
33C
100
AcDbEntity
  8
DIM
100
AcDbText
 10
9.277645855643239
 20
-3.539961810322424
 30
0.0
 40
0.08
  1

  7
SCRIPT
 11
9.277645855643239
 21
-3.499961810322424
 31
0.0
100
AcDbAttributeDefinition
  3
ENGINEER_IN_CHARGE
  2
WHO?
 70
     0
 74
     2
  0
TEXT
  5
3BF
330
33C
100
AcDbEntity
  8
DIM
100
AcDbText
 10
9.716766296807861
 20
-3.931972942467266
 30
0.0
 40
0.04
  1
F04-0052-01 REV. 00
 72
     2
 11
10.41771867776024
 21
-3.931972942467266
 31
0.0
100
AcDbText
  0
ENDBLK
  5
3C1
330
33C
100
AcDbEntity
  8
0
100
AcDbBlockEnd
  0
BLOCK
  5
3E8
330
3E4
100
AcDbEntity
  8
0
100
AcDbBlockBegin
  2
rvsn_blk
 70
     2
 10
0.0
 20
0.0
 30
0.0
  3
rvsn_blk
  1

  0
ATTDEF
  5
3E5
330
3E4
100
AcDbEntity
  8
DIM
100
AcDbText
 10
-0.1443252782292399
 20
0.0442732402878181
 30
1.0
 40
0.07
  1

  7
SIMPLEX
100
AcDbAttributeDefinition
  3
REV_#
  2
X
 70
     0
  0
ATTDEF
  5
3E6
330
3E4
100
AcDbEntity
  8
DIM
100
AcDbText
 10
0.269150253848311
 20
0.0469563354417511
 30
1.0
 40
0.07
  1

  7
SIMPLEX
 72
     1
 11
0.269150253848311
 21
0.0469563354417511
 31
1.0
100
AcDbAttributeDefinition
  3
DATE
  2
DATE
 70
     0
  0
ATTDEF
  5
3E7
330
3E4
100
AcDbEntity
  8
DIM
100
AcDbText
 10
0.7631729674994113
 20
0.0469563354417511
 30
1.0
 40
0.07
  1

  7
SIMPLEX
 72
     1
 11
0.7631729674994113
 21
0.0469563354417511
 31
1.0
100
AcDbAttributeDefinition
  3
INITIALS
  2
XXX
 70
     0
  0
ENDBLK
  5
3E9
330
3E4
100
AcDbEntity
  8
0
100
AcDbBlockEnd
  0
ENDSEC
  0
SECTION
  2
ENTITIES
  0
INSERT
  5
1
330
1ED
100
AcDbEntity
  8
0
100
AcDbBlockReference
  2
ACAD
 10
2.186316711291805
 20
0.6691678048606109
 30
0.0
 41
0.3
 42
0.3
 43
0.3
  0
LINE
  5
2
330
1ED
100
AcDbEntity
  8
BASE
100
AcDbLine
 10
0.8456356846191717
 20
1.38061176976602
 30
0.0
 11
0.8018980851485633
 21
1.38061176976602
 31
0.0
  0
LINE
  5
3
330
1ED
100
AcDbEntity
  8
BASE
100
AcDbLine
 10
0.8500304841064449
 20
-0.2843882302339793
 30
0.0
 11
0.8018980851485633
 21
-0.2843882302339793
 31
0.0
  0
LINE
  5
D
330
1ED
100
AcDbEntity
  8
HEAD
100
AcDbLine
 10
1.726129183978263
 20
1.573198750172538
 30
0.0
 11
1.726129183978263
 21
-0.4769752106404992
 31
0.0
  0
LINE
  5
E
330
1ED
100
AcDbEntity
  8
BASE
100
AcDbLine
 10
-0.114895542392178
 20
1.759589063302003
 30
0.0
 11
-0.0712387029854789
 21
1.803245902708704
 31
0.0
  0
LINE
  5
F
330
1ED
100
AcDbEntity
  8
BASE
100
AcDbLine
 10
-0.114895542392178
 20
1.759589063302003
 30
0.0
 11
-0.2022092212055853
 21
1.759589063302003
 31
0.0
  0
ARC
  5
10
330
1ED
100
AcDbEntity
  8
BASE
100
AcDbCircle
 10
-0.2022092212055853
 20
1.672275384488598
 30
0.0
 40
0.0873136788134041
100
AcDbArc
 50
90.0
 51
180.0
  0
LINE
  5
11
330
1ED
100
AcDbEntity
  8
BASE
100
AcDbLine
 10
0.6272707275217542
 20
1.759589063302003
 30
0.0
 11
0.5836138881150533
 21
1.803245902708704
 31
0.0
  0
ARC
  5
12
330
1ED
100
AcDbEntity
  8
BASE
100
AcDbCircle
 10
0.7145844063351588
 20
1.672275384488598
 30
0.0
 40
0.0873136788134041
100
AcDbArc
 50
0.0
 51
89.99999999999998
  0
LINE
  5
13
330
1ED
100
AcDbEntity
  8
BASE
100
AcDbLine
 10
0.7145844063351588
 20
1.759589063302
 30
0.0
 11
0.6272707275217542
 21
1.759589063302
 31
0.0
  0
LINE
  5
14
330
1ED
100
AcDbEntity
  8
BASE
100
AcDbLine
 10
0.7145844063351588
 20
-0.6633655237699619
 30
0.0
 11
0.6272707275217542
 21
-0.6633655237699619
 31
0.0
  0
ARC
  5
15
330
1ED
100
AcDbEntity
  8
BASE
100
AcDbCircle
 10
0.7145844063351588
 20
-0.5760518449565582
 30
0.0
 40
0.0873136788134041
100
AcDbArc
 50
270.0000000000001
 51
0.0
  0
LINE
  5
16
330
1ED
100
AcDbEntity
  8
BASE
100
AcDbLine
 10
-0.114895542392178
 20
-0.6633655237699628
 30
0.0
 11
-0.2022092212055853
 21
-0.6633655237699628
 31
0.0
  0
LINE
  5
17
330
1ED
100
AcDbEntity
  8
BASE
100
AcDbLine
 10
-0.114895542392178
 20
-0.6633655237699628
 30
0.0
 11
-0.0712387029854789
 21
-0.7070223631766642
 31
0.0
  0
LINE
  5
18
330
1ED
100
AcDbEntity
  8
BASE
100
AcDbLine
 10
0.6272707275217542
 20
-0.6633655237699628
 30
0.0
 11
0.5836138881150533
 21
-0.7070223631766642
 31
0.0
  0
ARC
  5
19
330
1ED
100
AcDbEntity
  8
BASE
100
AcDbCircle
 10
-0.2022092212055853
 20
-0.5760518449565582
 30
0.0
 40
0.0873136788134041
100
AcDbArc
 50
180.0
 51
270.0
  0
LINE
  5
1A
330
1ED
100
AcDbEntity
  8
BASE
100
AcDbLine
 10
-0.114895542392178
 20
1.759589063302003
 30
0.0
 11
-0.114895542392178
 21
-0.6633655237699628
 31
0.0
  0
LINE
  5
1B
330
1ED
100
AcDbEntity
  8
BASE
100
AcDbLine
 10
0.6272707275217542
 20
1.759589063302003
 30
0.0
 11
0.6272707275217542
 21
-0.6633655237699628
 31
0.0
  0
LINE
  5
1C
330
1ED
100
AcDbEntity
  8
BASE
100
AcDbLine
 10
0.8018980851485606
 20
-0.5906041144337602
 30
0.0
 11
0.8018980851485633
 21
1.672275384488598
 31
0.0
  0
LINE
  5
1D
330
1ED
100
AcDbEntity
  8
BASE
100
AcDbLine
 10
-0.2895229000189872
 20
1.672275384488598
 30
0.0
 11
-0.2895229000189872
 21
-0.5760518449565582
 31
0.0
  0
LINE
  5
1E
330
1ED
100
AcDbEntity
  8
BASE
100
AcDbLine
 10
-0.0712387029854789
 20
1.803245902708704
 30
0.0
 11
-0.0712387029854789
 21
-0.7070223631766628
 31
0.0
  0
LINE
  5
1F
330
1ED
100
AcDbEntity
  8
BASE
100
AcDbLine
 10
0.5836138881150533
 20
0.6639209371190369
 30
0.0
 11
-0.0712387029854789
 21
0.432302602413005
 31
0.0
  0
LINE
  5
20
330
1ED
100
AcDbEntity
  8
BASE
100
AcDbLine
 10
-0.0712387029854789
 20
0.6639209371190369
 30
0.0
 11
0.5836138881150533
 21
0.432302602413005
 31
0.0
  0
LINE
  5
21
330
1ED
100
AcDbEntity
  8
BASE
100
AcDbLine
 10
0.5836138881150568
 20
-0.6591084249197344
 30
0.0
 11
-0.0712387029854771
 21
-0.7016681822394446
 31
0.0
  0
LINE
  5
22
330
1ED
100
AcDbEntity
  8
BASE
100
AcDbLine
 10
-0.0712387029854789
 20
-0.6856513194117153
 30
0.0
 11
0.5836138881150533
 21
-0.7070223631766628
 31
0.0
  0
LINE
  5
23
330
1ED
100
AcDbEntity
  8
BASE
100
AcDbLine
 10
0.5836138881150533
 20
-0.6222659533805457
 30
0.0
 11
-0.0712387029854789
 21
-0.6856513194117153
 31
0.0
  0
LINE
  5
24
330
1ED
100
AcDbEntity
  8
BASE
100
AcDbLine
 10
-0.0712387029854789
 20
-0.51902477770098
 30
0.0
 11
0.5836138881150533
 21
-0.6222659533805457
 31
0.0
  0
LINE
  5
25
330
1ED
100
AcDbEntity
  8
BASE
100
AcDbLine
 10
0.5836138881150533
 20
-0.3794435467866429
 30
0.0
 11
-0.0712387029854789
 21
-0.51902477770098
 31
0.0
  0
LINE
  5
26
330
1ED
100
AcDbEntity
  8
BASE
100
AcDbLine
 10
-0.0712387029854789
 20
-0.2082755320470865
 30
0.0
 11
0.5836138881150533
 21
-0.3794435467866429
 31
0.0
  0
LINE
  5
27
330
1ED
100
AcDbEntity
  8
BASE
100
AcDbLine
 10
0.5836138881150533
 20
-0.0113496549308622
 30
0.0
 11
-0.0712387029854789
 21
-0.2082755320470865
 31
0.0
  0
LINE
  5
28
330
1ED
100
AcDbEntity
  8
BASE
100
AcDbLine
 10
-0.0712387029854789
 20
0.2046280100033944
 30
0.0
 11
0.5836138881150533
 21
-0.0113496549308622
 31
0.0
  0
LINE
  5
29
330
1ED
100
AcDbEntity
  8
BASE
100
AcDbLine
 10
0.5836138881150533
 20
0.432302602413005
 30
0.0
 11
-0.0712387029854789
 21
0.2046280100033944
 31
0.0
  0
LINE
  5
2A
330
1ED
100
AcDbEntity
  8
BASE
100
AcDbLine
 10
-0.0712387029854789
 20
-0.6591084249197344
 30
0.0
 11
0.5836138881150533
 21
-0.7016681822394446
 31
0.0
  0
LINE
  5
2B
330
1ED
100
AcDbEntity
  8
BASE
100
AcDbLine
 10
0.5836138881150533
 20
-0.5754382317710341
 30
0.0
 11
-0.0712387029854789
 21
-0.6591084249197344
 31
0.0
  0
LINE
  5
2C
330
1ED
100
AcDbEntity
  8
BASE
100
AcDbLine
 10
-0.0712387029854789
 20
-0.4535068908696878
 30
0.0
 11
0.5836138881150533
 21
-0.5754382317710341
 31
0.0
  0
LINE
  5
2D
330
1ED
100
AcDbEntity
  8
BASE
100
AcDbLine
 10
0.5836138881150533
 20
-0.2974666277895646
 30
0.0
 11
-0.0712387029854789
 21
-0.4535068908696878
 31
0.0
  0
LINE
  5
2E
330
1ED
100
AcDbEntity
  8
BASE
100
AcDbLine
 10
-0.0712387029854789
 20
-0.1126312065401911
 30
0.0
 11
0.5836138881150533
 21
-0.2974666277895646
 31
0.0
  0
LINE
  5
2F
330
1ED
100
AcDbEntity
  8
BASE
100
AcDbLine
 10
0.5836138881150533
 20
0.0947050242934378
 30
0.0
 11
-0.0712387029854789
 21
-0.1126312065401911
 31
0.0
  0
LINE
  5
30
330
1ED
100
AcDbEntity
  8
BASE
100
AcDbLine
 10
-0.0712387029854789
 20
0.3174814780426827
 30
0.0
 11
0.5836138881150533
 21
0.0947050242934378
 31
0.0
  0
LINE
  5
31
330
1ED
100
AcDbEntity
  8
BASE
100
AcDbLine
 10
0.5836138881150533
 20
0.5481117697660196
 30
0.0
 11
-0.0712387029854789
 21
0.3174814780426827
 31
0.0
  0
LINE
  5
32
330
1ED
100
AcDbEntity
  8
BASE
100
AcDbLine
 10
0.5836138881150533
 20
-0.6856513194117153
 30
0.0
 11
-0.0712387029854789
 21
-0.7070223631766628
 31
0.0
  0
LINE
  5
33
330
1ED
100
AcDbEntity
  8
BASE
100
AcDbLine
 10
-0.0712387029854789
 20
-0.6222659533805457
 30
0.0
 11
0.5836138881150533
 21
-0.6856513194117153
 31
0.0
  0
LINE
  5
34
330
1ED
100
AcDbEntity
  8
BASE
100
AcDbLine
 10
0.5836138881150533
 20
-0.51902477770098
 30
0.0
 11
-0.0712387029854789
 21
-0.6222659533805457
 31
0.0
  0
LINE
  5
35
330
1ED
100
AcDbEntity
  8
BASE
100
AcDbLine
 10
-0.0712387029854789
 20
-0.3794435467866429
 30
0.0
 11
0.5836138881150533
 21
-0.51902477770098
 31
0.0
  0
LINE
  5
36
330
1ED
100
AcDbEntity
  8
BASE
100
AcDbLine
 10
0.5836138881150533
 20
-0.2082755320470865
 30
0.0
 11
-0.0712387029854789
 21
-0.3794435467866429
 31
0.0
  0
LINE
  5
37
330
1ED
100
AcDbEntity
  8
BASE
100
AcDbLine
 10
-0.0712387029854789
 20
-0.0113496549308622
 30
0.0
 11
0.5836138881150533
 21
-0.2082755320470865
 31
0.0
  0
LINE
  5
38
330
1ED
100
AcDbEntity
  8
BASE
100
AcDbLine
 10
0.5836138881150568
 20
0.2046280100033944
 30
0.0
 11
-0.0712387029854789
 21
-0.0113496549308622
 31
0.0
  0
LINE
  5
39
330
1ED
100
AcDbEntity
  8
BASE
100
AcDbLine
 10
-0.0712387029854789
 20
0.432302602413005
 30
0.0
 11
0.5836138881150568
 21
0.2046280100033944
 31
0.0
  0
LINE
  5
3A
330
1ED
100
AcDbEntity
  8
BASE
100
AcDbLine
 10
0.5836138881150533
 20
-0.6591084249197344
 30
0.0
 11
-0.0712387029854789
 21
-0.7016681822394446
 31
0.0
  0
LINE
  5
3B
330
1ED
100
AcDbEntity
  8
BASE
100
AcDbLine
 10
-0.0712387029854789
 20
-0.5754382317710341
 30
0.0
 11
0.5836138881150533
 21
-0.6591084249197344
 31
0.0
  0
LINE
  5
3C
330
1ED
100
AcDbEntity
  8
BASE
100
AcDbLine
 10
0.5836138881150533
 20
-0.4535068908696878
 30
0.0
 11
-0.0712387029854789
 21
-0.5754382317710341
 31
0.0
  0
LINE
  5
3D
330
1ED
100
AcDbEntity
  8
BASE
100
AcDbLine
 10
-0.0712387029854789
 20
-0.2974666277895646
 30
0.0
 11
0.5836138881150533
 21
-0.4535068908696878
 31
0.0
  0
LINE
  5
3E
330
1ED
100
AcDbEntity
  8
BASE
100
AcDbLine
 10
0.5836138881150533
 20
-0.1126312065401911
 30
0.0
 11
-0.0712387029854789
 21
-0.2974666277895646
 31
0.0
  0
LINE
  5
3F
330
1ED
100
AcDbEntity
  8
BASE
100
AcDbLine
 10
-0.0712387029854789
 20
0.0947050242934378
 30
0.0
 11
0.5836138881150533
 21
-0.1126312065401911
 31
0.0
  0
LINE
  5
40
330
1ED
100
AcDbEntity
  8
BASE
100
AcDbLine
 10
0.5836138881150533
 20
0.3174814780426827
 30
0.0
 11
-0.0712387029854789
 21
0.0947050242934378
 31
0.0
  0
LINE
  5
41
330
1ED
100
AcDbEntity
  8
BASE
100
AcDbLine
 10
-0.0712387029854789
 20
0.5481117697660196
 30
0.0
 11
0.5836138881150533
 21
0.3174814780426827
 31
0.0
  0
LINE
  5
42
330
1ED
100
AcDbEntity
  8
BASE
100
AcDbLine
 10
0.5836138881150533
 20
-0.7070223631766628
 30
0.0
 11
-0.0712387029854789
 21
-0.7070223631766628
 31
0.0
  0
LINE
  5
43
330
1ED
100
AcDbEntity
  8
BASE
100
AcDbLine
 10
0.5836138881150533
 20
1.803245902708704
 30
0.0
 11
0.5836138881150533
 21
-0.7070223631766642
 31
0.0
  0
LINE
  5
44
330
1ED
100
AcDbEntity
  8
BASE
100
AcDbLine
 10
0.5836138881150533
 20
1.803245902708704
 30
0.0
 11
-0.0712387029854789
 21
1.803245902708704
 31
0.0
  0
LINE
  5
45
330
1ED
100
AcDbEntity
  8
BASE
100
AcDbLine
 10
-0.0712387029854789
 20
0.5481117697660196
 30
0.0
 11
0.5836138881150533
 21
0.7787420614893566
 31
0.0
  0
LINE
  5
46
330
1ED
100
AcDbEntity
  8
BASE
100
AcDbLine
 10
0.5836138881150533
 20
0.7787420614893566
 30
0.0
 11
-0.0712387029854789
 21
1.001518515238603
 31
0.0
  0
LINE
  5
47
330
1ED
100
AcDbEntity
  8
BASE
100
AcDbLine
 10
-0.0712387029854789
 20
1.001518515238603
 30
0.0
 11
0.5836138881150533
 21
1.208854746072231
 31
0.0
  0
LINE
  5
48
330
1ED
100
AcDbEntity
  8
BASE
100
AcDbLine
 10
0.5836138881150533
 20
1.208854746072231
 30
0.0
 11
-0.0712387029854789
 21
1.393690167321605
 31
0.0
  0
LINE
  5
49
330
1ED
100
AcDbEntity
  8
BASE
100
AcDbLine
 10
-0.0712387029854789
 20
1.393690167321605
 30
0.0
 11
0.5836138881150533
 21
1.549730430401726
 31
0.0
  0
LINE
  5
4A
330
1ED
100
AcDbEntity
  8
BASE
100
AcDbLine
 10
0.5836138881150533
 20
1.549730430401726
 30
0.0
 11
-0.0712387029854789
 21
1.671661771303075
 31
0.0
  0
LINE
  5
4B
330
1ED
100
AcDbEntity
  8
BASE
100
AcDbLine
 10
-0.0712387029854789
 20
1.671661771303075
 30
0.0
 11
0.5836138881150533
 21
1.755331964451774
 31
0.0
  0
LINE
  5
4C
330
1ED
100
AcDbEntity
  8
BASE
100
AcDbLine
 10
0.5836138881150533
 20
1.755331964451774
 30
0.0
 11
-0.0712387029854789
 21
1.797891721771486
 31
0.0
  0
LINE
  5
4D
330
1ED
100
AcDbEntity
  8
BASE
100
AcDbLine
 10
-0.0712387029854789
 20
0.6639209371190342
 30
0.0
 11
0.5836138881150568
 21
0.8915955295286472
 31
0.0
  0
LINE
  5
4E
330
1ED
100
AcDbEntity
  8
BASE
100
AcDbLine
 10
0.5836138881150568
 20
0.8915955295286472
 30
0.0
 11
-0.0712387029854789
 21
1.107573194462903
 31
0.0
  0
LINE
  5
4F
330
1ED
100
AcDbEntity
  8
BASE
100
AcDbLine
 10
-0.0712387029854789
 20
1.107573194462903
 30
0.0
 11
0.5836138881150533
 21
1.304499071579126
 31
0.0
  0
LINE
  5
50
330
1ED
100
AcDbEntity
  8
BASE
100
AcDbLine
 10
0.5836138881150533
 20
1.304499071579126
 30
0.0
 11
-0.0712387029854789
 21
1.475667086318683
 31
0.0
  0
LINE
  5
51
330
1ED
100
AcDbEntity
  8
BASE
100
AcDbLine
 10
-0.0712387029854789
 20
1.475667086318683
 30
0.0
 11
0.5836138881150533
 21
1.615248317233021
 31
0.0
  0
LINE
  5
52
330
1ED
100
AcDbEntity
  8
BASE
100
AcDbLine
 10
0.5836138881150533
 20
1.615248317233021
 30
0.0
 11
-0.0712387029854789
 21
1.718489492912587
 31
0.0
  0
LINE
  5
53
330
1ED
100
AcDbEntity
  8
BASE
100
AcDbLine
 10
-0.0712387029854789
 20
1.718489492912587
 30
0.0
 11
0.5836138881150533
 21
1.781874858943755
 31
0.0
  0
LINE
  5
54
330
1ED
100
AcDbEntity
  8
BASE
100
AcDbLine
 10
0.5836138881150533
 20
1.781874858943755
 30
0.0
 11
-0.0712387029854789
 21
1.803245902708704
 31
0.0
  0
LINE
  5
55
330
1ED
100
AcDbEntity
  8
BASE
100
AcDbLine
 10
0.5836138881150533
 20
0.5481117697660196
 30
0.0
 11
-0.0712387029854789
 21
0.7787420614893566
 31
0.0
  0
LINE
  5
56
330
1ED
100
AcDbEntity
  8
BASE
100
AcDbLine
 10
-0.0712387029854789
 20
0.7787420614893566
 30
0.0
 11
0.5836138881150533
 21
1.001518515238603
 31
0.0
  0
LINE
  5
57
330
1ED
100
AcDbEntity
  8
BASE
100
AcDbLine
 10
0.5836138881150533
 20
1.001518515238603
 30
0.0
 11
-0.0712387029854789
 21
1.208854746072231
 31
0.0
  0
LINE
  5
58
330
1ED
100
AcDbEntity
  8
BASE
100
AcDbLine
 10
-0.0712387029854789
 20
1.208854746072231
 30
0.0
 11
0.5836138881150533
 21
1.393690167321605
 31
0.0
  0
LINE
  5
59
330
1ED
100
AcDbEntity
  8
BASE
100
AcDbLine
 10
0.5836138881150533
 20
1.393690167321605
 30
0.0
 11
-0.0712387029854789
 21
1.549730430401726
 31
0.0
  0
LINE
  5
5A
330
1ED
100
AcDbEntity
  8
BASE
100
AcDbLine
 10
-0.0712387029854789
 20
1.549730430401726
 30
0.0
 11
0.5836138881150533
 21
1.671661771303075
 31
0.0
  0
LINE
  5
5B
330
1ED
100
AcDbEntity
  8
BASE
100
AcDbLine
 10
0.5836138881150533
 20
1.671661771303075
 30
0.0
 11
-0.0712387029854789
 21
1.755331964451774
 31
0.0
  0
LINE
  5
5C
330
1ED
100
AcDbEntity
  8
BASE
100
AcDbLine
 10
-0.0712387029854789
 20
1.755331964451774
 30
0.0
 11
0.5836138881150533
 21
1.797891721771486
 31
0.0
  0
LINE
  5
5D
330
1ED
100
AcDbEntity
  8
BASE
100
AcDbLine
 10
0.5836138881150533
 20
0.6639209371190342
 30
0.0
 11
-0.0712387029854789
 21
0.8915955295286472
 31
0.0
  0
LINE
  5
5E
330
1ED
100
AcDbEntity
  8
BASE
100
AcDbLine
 10
-0.0712387029854789
 20
0.8915955295286472
 30
0.0
 11
0.5836138881150533
 21
1.107573194462903
 31
0.0
  0
LINE
  5
5F
330
1ED
100
AcDbEntity
  8
BASE
100
AcDbLine
 10
0.5836138881150533
 20
1.107573194462903
 30
0.0
 11
-0.0712387029854789
 21
1.304499071579126
 31
0.0
  0
LINE
  5
60
330
1ED
100
AcDbEntity
  8
BASE
100
AcDbLine
 10
-0.0712387029854789
 20
1.304499071579126
 30
0.0
 11
0.5836138881150533
 21
1.475667086318683
 31
0.0
  0
LINE
  5
61
330
1ED
100
AcDbEntity
  8
BASE
100
AcDbLine
 10
0.5836138881150533
 20
1.475667086318683
 30
0.0
 11
-0.0712387029854789
 21
1.615248317233021
 31
0.0
  0
LINE
  5
62
330
1ED
100
AcDbEntity
  8
BASE
100
AcDbLine
 10
-0.0712387029854789
 20
1.615248317233021
 30
0.0
 11
0.5836138881150533
 21
1.718489492912587
 31
0.0
  0
LINE
  5
63
330
1ED
100
AcDbEntity
  8
BASE
100
AcDbLine
 10
0.5836138881150533
 20
1.718489492912587
 30
0.0
 11
-0.0712387029854789
 21
1.781874858943755
 31
0.0
  0
LINE
  5
64
330
1ED
100
AcDbEntity
  8
BASE
100
AcDbLine
 10
-0.0712387029854789
 20
1.781874858943755
 30
0.0
 11
0.5836138881150533
 21
1.803245902708704
 31
0.0
  0
LINE
  5
65
330
1ED
100
AcDbEntity
  8
BASE
100
AcDbLine
 10
0.5836138881150568
 20
1.755331964451774
 30
0.0
 11
-0.0712387029854771
 21
1.797891721771486
 31
0.0
  0
LINE
  5
66
330
1ED
100
AcDbEntity
  8
BASE
100
AcDbLine
 10
-0.0712387029854789
 20
0.432302602413005
 30
0.0
 11
0.5836138881150533
 21
0.6639209371190342
 31
0.0
  0
LINE
  5
67
330
1ED
100
AcDbEntity
  8
BASE
100
AcDbLine
 10
0.5836138881150533
 20
0.432302602413005
 30
0.0
 11
-0.0712387029854789
 21
0.6639209371190342
 31
0.0
  0
ARC
  5
84
330
1ED
100
AcDbEntity
  8
HEAD
100
AcDbCircle
 10
1.413401769085638
 20
-0.3553023765291621
 30
0.0
 40
0.02
100
AcDbArc
 50
283.2977291993282
 51
0.0000000000020215
  0
ARC
  5
85
330
1ED
100
AcDbEntity
  8
HEAD
100
AcDbCircle
 10
1.498401769085637
 20
-0.3809198956128106
 30
0.0
 40
0.0649999999999999
100
AcDbArc
 50
202.0915367369638
 51
0.0000634253838263
  0
LINE
  5
86
330
1ED
100
AcDbEntity
  8
HEAD
100
AcDbLine
 10
1.343401769085636
 20
-0.4277647686023652
 30
0.0
 11
1.438173796506267
 21
-0.4053655766010201
 31
0.0
  0
LINE
  5
87
330
1ED
100
AcDbEntity
  8
HEAD
100
AcDbLine
 10
1.343401769085636
 20
-0.3923977600330235
 30
0.0
 11
1.418001992426825
 21
-0.3747661363204049
 31
0.0
  0
LINE
  5
88
330
1ED
100
AcDbEntity
  8
HEAD
100
AcDbLine
 10
1.523401769085622
 20
-0.3809198679382662
 30
0.0
 11
1.523401769085637
 21
-0.3705230152590397
 31
0.0
  0
LINE
  5
89
330
1ED
100
AcDbEntity
  8
HEAD
100
AcDbLine
 10
1.498401769085637
 20
0.4757949030636693
 30
0.0
 11
1.343401769085637
 21
0.4832856043590761
 31
0.0
  0
LINE
  5
8A
330
1ED
100
AcDbEntity
  8
HEAD
100
AcDbLine
 10
1.563401769085638
 20
0.3142954704009222
 30
0.0
 11
1.343401769085637
 21
0.401543375321189
 31
0.0
  0
LINE
  5
8B
330
1ED
100
AcDbEntity
  8
HEAD
100
AcDbLine
 10
1.498401769085637
 20
0.4757949030636693
 30
0.0
 11
1.343401769085637
 21
0.5280556278278339
 31
0.0
  0
LINE
  5
8C
330
1ED
100
AcDbEntity
  8
HEAD
100
AcDbLine
 10
1.563401769085636
 20
0.6096585437571993
 30
0.0
 11
1.343401769085637
 21
0.608763063441451
 31
0.0
  0
LINE
  5
8D
330
1ED
100
AcDbEntity
  8
HEAD
100
AcDbLine
 10
1.473401769085637
 20
-0.3571255556374835
 30
0.0
 11
1.523401769085637
 21
-0.3705230152590397
 31
0.0
  0
LINE
  5
8E
330
1ED
100
AcDbEntity
  8
HEAD
100
AcDbLine
 10
1.343401769085636
 20
-0.3923977600330235
 30
0.0
 11
1.343401769085636
 21
-0.4277647686023652
 31
0.0
  0
ARC
  5
8F
330
1ED
100
AcDbEntity
  8
HEAD
100
AcDbCircle
 10
1.498401769085637
 20
-0.3809198956128106
 30
0.0
 40
0.0249999999999999
100
AcDbArc
 50
179.9999617361379
 51
0.0000634253838263
  0
LINE
  5
90
330
1ED
100
AcDbEntity
  8
HEAD
100
AcDbLine
 10
1.473401769085637
 20
-0.3571255556374835
 30
0.0
 11
1.473401769085637
 21
-0.3809198871664798
 31
0.0
  0
LINE
  5
91
330
1ED
100
AcDbEntity
  8
HEAD
100
AcDbLine
 10
1.433401769085637
 20
-0.3464075879402384
 30
0.0
 11
1.433401769085637
 21
-0.3553023765291616
 31
0.0
  0
LINE
  5
92
330
1ED
100
AcDbEntity
  8
HEAD
100
AcDbLine
 10
1.343401769085637
 20
-0.2726183588409721
 30
0.0
 11
1.343401769085637
 21
-0.3222921606214371
 31
0.0
  0
LINE
  5
93
330
1ED
100
AcDbEntity
  8
HEAD
100
AcDbLine
 10
1.343401769085637
 20
-0.3222921606214371
 30
0.0
 11
1.433401769085637
 21
-0.3464075879402384
 31
0.0
  0
LINE
  5
94
330
1ED
100
AcDbEntity
  8
HEAD
100
AcDbLine
 10
1.563401769085637
 20
-0.3315671811758194
 30
0.0
 11
1.563401769085638
 21
-0.3809198689478563
 31
0.0
  0
LINE
  5
95
330
1ED
100
AcDbEntity
  8
HEAD
100
AcDbLine
 10
1.343401769085637
 20
-0.2726183588409721
 30
0.0
 11
1.563401769085637
 21
-0.3315671811758194
 31
0.0
  0
ARC
  5
96
330
1ED
100
AcDbEntity
  8
HEAD
100
AcDbCircle
 10
1.408401769085636
 20
0.1139370822483414
 30
0.0
 40
0.065
100
AcDbArc
 50
180.0
 51
252.6205994074383
  0
ARC
  5
97
330
1ED
100
AcDbEntity
  8
HEAD
100
AcDbCircle
 10
1.498401769085637
 20
0.1622909875582454
 30
0.0
 40
0.065
100
AcDbArc
 50
359.9999999999996
 51
72.62059940744331
  0
ARC
  5
98
330
1ED
100
AcDbEntity
  8
HEAD
100
AcDbCircle
 10
1.403188535012577
 20
0.1153339641081725
 30
0.0
 40
0.065
100
AcDbArc
 50
257.3794005925553
 51
333.8044242138898
  0
ARC
  5
99
330
1ED
100
AcDbEntity
  8
HEAD
100
AcDbCircle
 10
1.503615003158696
 20
0.1608941056984152
 30
0.0
 40
0.065
100
AcDbArc
 50
77.37940059255929
 51
153.8044242138896
  0
ARC
  5
9A
330
1ED
100
AcDbEntity
  8
HEAD
100
AcDbCircle
 10
1.48812442243714
 20
0.097203560890046
 30
0.0
 40
0.0753787650783102
100
AcDbArc
 50
277.8362706495211
 51
357.0275109197058
  0
ARC
  5
9B
330
1ED
100
AcDbEntity
  8
HEAD
100
AcDbCircle
 10
1.425288583683366
 20
0.1735575324795358
 30
0.0
 40
0.0819016366383692
100
AcDbArc
 50
101.8988234605281
 51
178.9099362692127
  0
ARC
  5
9C
330
1ED
100
AcDbEntity
  8
HEAD
100
AcDbCircle
 10
1.409401769085636
 20
0.1643976658960025
 30
0.0
 40
0.026
100
AcDbArc
 50
92.20422750397379
 51
179.9999999999994
  0
ARC
  5
9D
330
1ED
100
AcDbEntity
  8
HEAD
100
AcDbCircle
 10
1.403401769085636
 20
0.1497473644340017
 30
0.0
 40
0.02
100
AcDbArc
 50
179.9999999999996
 51
333.8044242138898
  0
ARC
  5
9E
330
1ED
100
AcDbEntity
  8
HEAD
100
AcDbCircle
 10
1.503401769085638
 20
0.1264807053725887
 30
0.0
 40
0.02
100
AcDbArc
 50
0.0
 51
153.8044242138898
  0
ARC
  5
9F
330
1ED
100
AcDbEntity
  8
HEAD
100
AcDbCircle
 10
1.497401769085637
 20
0.1118304039105826
 30
0.0
 40
0.026
100
AcDbArc
 50
272.2042275039719
 51
0.0000000000003422
  0
LINE
  5
A0
330
1ED
100
AcDbEntity
  8
HEAD
100
AcDbLine
 10
1.445290993336658
 20
0.1895874826045736
 30
0.0
 11
1.421347618261648
 21
0.1409186330782601
 31
0.0
  0
LINE
  5
A1
330
1ED
100
AcDbEntity
  8
HEAD
100
AcDbLine
 10
1.485455919909625
 20
0.1353094367283294
 30
0.0
 11
1.461512544834615
 21
0.0866405872020142
 31
0.0
  0
LINE
  5
A2
330
1ED
100
AcDbEntity
  8
HEAD
100
AcDbLine
 10
1.383401769085637
 20
0.1643976658960033
 30
0.0
 11
1.383401769085637
 21
0.1497473644340017
 31
0.0
  0
LINE
  5
A3
330
1ED
100
AcDbEntity
  8
HEAD
100
AcDbLine
 10
1.523401769085637
 20
0.1264807053725887
 30
0.0
 11
1.523401769085637
 21
0.1118304039105835
 31
0.0
  0
LINE
  5
A4
330
1ED
100
AcDbEntity
  8
HEAD
100
AcDbLine
 10
1.343401769085637
 20
0.1751156335935082
 30
0.0
 11
1.343401769085636
 21
0.1139370822483414
 31
0.0
  0
LINE
  5
A5
330
1ED
100
AcDbEntity
  8
HEAD
100
AcDbLine
 10
1.563401769085637
 20
0.1622909875582454
 30
0.0
 11
1.563401769085637
 21
0.0932946855666526
 31
0.0
  0
LINE
  5
A6
330
1ED
100
AcDbEntity
  8
HEAD
100
AcDbLine
 10
1.523401769085637
 20
-0.3072642562582408
 30
0.0
 11
1.563401769085637
 21
-0.3179822239554864
 31
0.0
  0
LINE
  5
A7
330
1ED
100
AcDbEntity
  8
HEAD
100
AcDbLine
 10
1.473401769085637
 20
-0.2413974640079788
 30
0.0
 11
1.523401769085637
 21
-0.254794923629535
 31
0.0
  0
LINE
  5
A8
330
1ED
100
AcDbEntity
  8
HEAD
100
AcDbLine
 10
1.433401769085637
 20
-0.2306794963107341
 30
0.0
 11
1.433401769085637
 21
-0.2831488289394399
 31
0.0
  0
LINE
  5
A9
330
1ED
100
AcDbEntity
  8
HEAD
100
AcDbLine
 10
1.473401769085637
 20
-0.2413974640079788
 30
0.0
 11
1.473401769085637
 21
-0.2938667966366855
 31
0.0
  0
LINE
  5
AA
330
1ED
100
AcDbEntity
  8
HEAD
100
AcDbLine
 10
1.343401769085637
 20
-0.259033401620639
 30
0.0
 11
1.383401769085637
 21
-0.2697513693178841
 31
0.0
  0
LINE
  5
AB
330
1ED
100
AcDbEntity
  8
HEAD
100
AcDbLine
 10
1.383401769085637
 20
-0.2172820366891774
 30
0.0
 11
1.383401769085637
 21
-0.2697513693178841
 31
0.0
  0
LINE
  5
AC
330
1ED
100
AcDbEntity
  8
HEAD
100
AcDbLine
 10
1.343401769085637
 20
-0.1444474981673283
 30
0.0
 11
1.563401769085637
 21
-0.2033963205021751
 31
0.0
  0
LINE
  5
AD
330
1ED
100
AcDbEntity
  8
HEAD
100
AcDbLine
 10
1.563401769085637
 20
-0.2033963205021751
 30
0.0
 11
1.563401769085637
 21
-0.3179822239554864
 31
0.0
  0
LINE
  5
AE
330
1ED
100
AcDbEntity
  8
HEAD
100
AcDbLine
 10
1.383401769085637
 20
-0.2172820366891774
 30
0.0
 11
1.433401769085637
 21
-0.2306794963107341
 31
0.0
  0
LINE
  5
AF
330
1ED
100
AcDbEntity
  8
HEAD
100
AcDbLine
 10
1.343401769085637
 20
-0.1444474981673283
 30
0.0
 11
1.343401769085637
 21
-0.259033401620639
 31
0.0
  0
LINE
  5
B0
330
1ED
100
AcDbEntity
  8
HEAD
100
AcDbLine
 10
1.433401769085637
 20
-0.2831488289394399
 30
0.0
 11
1.473401769085637
 21
-0.2938667966366855
 31
0.0
  0
LINE
  5
B1
330
1ED
100
AcDbEntity
  8
HEAD
100
AcDbLine
 10
1.523401769085637
 20
-0.254794923629535
 30
0.0
 11
1.523401769085637
 21
-0.3072642562582408
 31
0.0
  0
LINE
  5
B2
330
1ED
100
AcDbEntity
  8
HEAD
100
AcDbLine
 10
1.523401769085637
 20
-0.1145885840357259
 30
0.0
 11
1.523401769085637
 21
-0.1750579166644317
 31
0.0
  0
LINE
  5
B3
330
1ED
100
AcDbEntity
  8
HEAD
100
AcDbLine
 10
1.523401769085637
 20
0.0079973194175844
 30
0.0
 11
1.523401769085637
 21
-0.0524720132111214
 31
0.0
  0
LINE
  5
B4
330
1ED
100
AcDbEntity
  8
HEAD
100
AcDbLine
 10
1.523401769085637
 20
0.0079973194175844
 30
0.0
 11
1.563401769085637
 21
-0.0027206482796602
 31
0.0
  0
LINE
  5
B5
330
1ED
100
AcDbEntity
  8
HEAD
100
AcDbLine
 10
1.523401769085637
 20
-0.1750579166644317
 30
0.0
 11
1.563401769085637
 21
-0.1857758843616768
 31
0.0
  0
LINE
  5
B6
330
1ED
100
AcDbEntity
  8
HEAD
100
AcDbLine
 10
1.343401769085637
 20
-0.0042411585735187
 30
0.0
 11
1.343401769085637
 21
-0.0663577293981237
 31
0.0
  0
LINE
  5
B7
330
1ED
100
AcDbEntity
  8
HEAD
100
AcDbLine
 10
1.343401769085637
 20
-0.0663577293981237
 30
0.0
 11
1.523401769085637
 21
-0.1145885840357259
 31
0.0
  0
LINE
  5
B8
330
1ED
100
AcDbEntity
  8
HEAD
100
AcDbLine
 10
1.563401769085637
 20
-0.0027206482796602
 30
0.0
 11
1.563401769085637
 21
-0.1857758843616768
 31
0.0
  0
LINE
  5
B9
330
1ED
100
AcDbEntity
  8
HEAD
100
AcDbLine
 10
1.343401769085636
 20
-0.0042411585735187
 30
0.0
 11
1.523401769085637
 21
-0.0524720132111214
 31
0.0
  0
LINE
  5
BA
330
1ED
100
AcDbEntity
  8
HEAD
100
AcDbLine
 10
1.563401769085637
 20
0.3680838705380021
 30
0.0
 11
1.563401769085638
 21
0.3142954704009222
 31
0.0
  0
LINE
  5
BB
330
1ED
100
AcDbEntity
  8
HEAD
100
AcDbLine
 10
1.343401769085637
 20
0.4832856043590761
 30
0.0
 11
1.343401769085637
 21
0.401543375321189
 31
0.0
  0
LINE
  5
BC
330
1ED
100
AcDbEntity
  8
HEAD
100
AcDbLine
 10
1.343401769085637
 20
0.292787289857658
 30
0.0
 11
1.563401769085637
 21
0.2338384675228111
 31
0.0
  0
LINE
  5
BD
330
1ED
100
AcDbEntity
  8
HEAD
100
AcDbLine
 10
1.563401769085637
 20
0.2959550383474157
 30
0.0
 11
1.563401769085637
 21
0.2338384675228111
 31
0.0
  0
LINE
  5
BE
330
1ED
100
AcDbEntity
  8
HEAD
100
AcDbLine
 10
1.563401769085637
 20
0.5066446553583815
 30
0.0
 11
1.563401769085636
 21
0.422595287554366
 31
0.0
  0
LINE
  5
BF
330
1ED
100
AcDbEntity
  8
HEAD
100
AcDbLine
 10
1.343401769085637
 20
0.354903860682263
 30
0.0
 11
1.343401769085637
 21
0.292787289857658
 31
0.0
  0
LINE
  5
C0
330
1ED
100
AcDbEntity
  8
HEAD
100
AcDbLine
 10
1.563401769085636
 20
0.5596581295621195
 30
0.0
 11
1.408044706128664
 21
0.5590257695994359
 31
0.0
  0
LINE
  5
C1
330
1ED
100
AcDbEntity
  8
HEAD
100
AcDbLine
 10
1.408401769085636
 20
0.2536993666037022
 30
0.0
 11
1.408401769085636
 21
0.1903784280095237
 31
0.0
  0
LINE
  5
C2
330
1ED
100
AcDbEntity
  8
HEAD
100
AcDbLine
 10
1.498401769085637
 20
0.0858496417970659
 30
0.0
 11
1.498401769085637
 21
0.0225287032028878
 31
0.0
  0
LINE
  5
C3
330
1ED
100
AcDbEntity
  8
HEAD
100
AcDbLine
 10
1.563401769085637
 20
0.5066446553583815
 30
0.0
 11
1.408044706128664
 21
0.5590257695994359
 31
0.0
  0
LINE
  5
C4
330
1ED
100
AcDbEntity
  8
HEAD
100
AcDbLine
 10
1.563401769085636
 20
0.422595287554366
 30
0.0
 11
1.406874139675728
 21
0.430159814756868
 31
0.0
  0
LINE
  5
C5
330
1ED
100
AcDbEntity
  8
HEAD
100
AcDbLine
 10
1.563401769085637
 20
0.3680838705380021
 30
0.0
 11
1.406874139675728
 21
0.430159814756868
 31
0.0
  0
LINE
  5
C6
330
1ED
100
AcDbEntity
  8
HEAD
100
AcDbLine
 10
1.563401769085636
 20
0.6096585437571993
 30
0.0
 11
1.563401769085636
 21
0.5596581295621195
 31
0.0
  0
LINE
  5
C7
330
1ED
100
AcDbEntity
  8
HEAD
100
AcDbLine
 10
1.583401769085636
 20
0.6593271472072973
 30
0.0
 11
1.583401769085636
 21
0.5739168623234652
 31
0.0
  0
LINE
  5
C8
330
1ED
100
AcDbEntity
  8
HEAD
100
AcDbLine
 10
1.583401769085636
 20
0.8327359074259863
 30
0.0
 11
1.583401769085636
 21
0.7473256225421548
 31
0.0
  0
LINE
  5
C9
330
1ED
100
AcDbEntity
  8
HEAD
100
AcDbLine
 10
1.583401769085636
 20
0.5739168623234652
 30
0.0
 11
1.643401769085636
 21
0.5578399107775978
 31
0.0
  0
LINE
  5
CA
330
1ED
100
AcDbEntity
  8
HEAD
100
AcDbLine
 10
1.583401769085636
 20
0.8327359074259863
 30
0.0
 11
1.643401769085636
 21
0.8166589558801188
 31
0.0
  0
LINE
  5
CB
330
1ED
100
AcDbEntity
  8
HEAD
100
AcDbLine
 10
1.343401769085637
 20
0.608763063441451
 30
0.0
 11
1.343401769085637
 21
0.5280556278278339
 31
0.0
  0
LINE
  5
CC
330
1ED
100
AcDbEntity
  8
HEAD
100
AcDbLine
 10
1.343401769085636
 20
0.354903860682263
 30
0.0
 11
1.563401769085637
 21
0.2959550383474157
 31
0.0
  0
LINE
  5
CD
330
1ED
100
AcDbEntity
  8
HEAD
100
AcDbLine
 10
1.343401769085636
 20
0.7236349533907669
 30
0.0
 11
1.583401769085636
 21
0.6593271472072973
 31
0.0
  0
LINE
  5
CE
330
1ED
100
AcDbEntity
  8
HEAD
100
AcDbLine
 10
1.343401769085636
 20
0.811633428725624
 30
0.0
 11
1.583401769085636
 21
0.7473256225421548
 31
0.0
  0
LINE
  5
CF
330
1ED
100
AcDbEntity
  8
HEAD
100
AcDbLine
 10
1.643401769085636
 20
0.8166589558801188
 30
0.0
 11
1.643401769085636
 21
0.5578399107775978
 31
0.0
  0
LINE
  5
D0
330
1ED
100
AcDbEntity
  8
HEAD
100
AcDbLine
 10
1.343401769085636
 20
0.811633428725624
 30
0.0
 11
1.343401769085636
 21
0.7236349533907669
 31
0.0
  0
TEXT
  5
D1
330
1ED
100
AcDbEntity
  8
HEAD
100
AcDbText
 10
1.170260442516316
 20
0.80939455154734
 30
0.0
 40
0.1
  1
DUAL GALL
 50
270.0
 41
1.102801816242052
  7
TXT
 72
     5
 11
1.170260442516316
 21
-0.0991040875473034
 31
0.0
100
AcDbText
  0
TEXT
  5
D2
330
1ED
100
AcDbEntity
  8
HEAD
100
AcDbText
 10
1.170260442516316
 20
-0.2842983420619537
 30
0.0
 40
0.1
  1
AGE
 50
270.0
 41
0.5317358966473372
  7
TXT
 72
     5
 11
1.170260442516316
 21
-0.4260945811679103
 31
0.0
100
AcDbText
  0
TEXT
  5
D3
330
1ED
100
AcDbEntity
  8
HEAD
100
AcDbText
 10
1.170260442516316
 20
-0.1196849126224998
 30
0.0
 40
0.1
  1
ON
 50
270.0
 41
0.7879641883651211
  7
TXT
 72
     5
 11
1.170260442516316
 21
-0.2547644877708063
 31
0.0
100
AcDbText
  0
LINE
  5
D4
330
1ED
100
AcDbEntity
  8
BUMPER
100
AcDbLine
 10
3.030406986432494
 20
-0.5981460417790672
 30
0.0
 11
3.030406986432494
 21
1.694395390404866
 31
0.0
  0
LINE
  5
D5
330
1ED
100
AcDbEntity
  8
HEAD
100
AcDbLine
 10
1.101129183978263
 20
-0.4768882302339819
 30
0.0
 11
2.216129183978264
 21
-0.4768882302339819
 31
0.0
  0
LINE
  5
D6
330
1ED
100
AcDbEntity
  8
HEAD
100
AcDbLine
 10
1.071129183978266
 20
-0.5456382302339798
 30
0.0
 11
1.101129183978263
 21
-0.4768882302339801
 31
0.0
  0
ARC
  5
D7
330
1ED
100
AcDbEntity
  8
HEAD
100
AcDbCircle
 10
0.9111291839782627
 20
-0.4856382302339793
 30
0.0
 40
0.06
100
AcDbArc
 50
180.0
 51
270.0
  0
LINE
  5
D8
330
1ED
100
AcDbEntity
  8
HEAD
100
AcDbLine
 10
0.9111291839782627
 20
-0.5456382302339798
 30
0.0
 11
1.071129183978266
 21
-0.5456382302339798
 31
0.0
  0
ARC
  5
D9
330
1ED
100
AcDbEntity
  8
HEAD
100
AcDbCircle
 10
2.216129183978263
 20
-2.81318133368226
 30
0.0
 40
2.33629310344828
100
AcDbArc
 50
75.6889169302282
 51
90.00000000000003
  0
ARC
  5
DA
330
1ED
100
AcDbEntity
  8
HEAD
100
AcDbCircle
 10
3.371129183978262
 20
1.714404873214294
 30
0.0
 40
2.336293103448274
100
AcDbArc
 50
255.6889169302282
 51
261.5080862789356
  0
LINE
  5
DB
330
1ED
100
AcDbEntity
  8
HEAD
100
AcDbLine
 10
2.793629183978264
 20
1.645611769766019
 30
0.0
 11
2.793629183978264
 21
-0.5493882302339799
 31
0.0
  0
LINE
  5
DC
330
1ED
100
AcDbEntity
  8
HEAD
100
AcDbLine
 10
2.793629183978263
 20
1.496589950166385
 30
0.0
 11
2.793629183978263
 21
1.64561176976602
 31
0.0
  0
LINE
  5
DD
330
1ED
100
AcDbEntity
  8
HEAD
100
AcDbLine
 10
2.216129183978264
 20
-0.4768882302339801
 30
0.0
 11
2.216129183978264
 21
1.573111769766022
 31
0.0
  0
ARC
  5
DE
330
1ED
100
AcDbEntity
  8
HEAD
100
AcDbCircle
 10
3.371129183978262
 20
-0.6181813336822542
 30
0.0
 40
2.336293103448274
100
AcDbArc
 50
98.49191372106442
 51
104.3110830697718
  0
ARC
  5
DF
330
1ED
100
AcDbEntity
  8
HEAD
100
AcDbCircle
 10
2.216129183978263
 20
3.9094048732143
 30
0.0
 40
2.33629310344828
100
AcDbArc
 50
270.0
 51
284.3110830697718
  0
LINE
  5
E0
330
1ED
100
AcDbEntity
  8
HEAD
100
AcDbLine
 10
0.9111291839782627
 20
1.64186176976602
 30
0.0
 11
0.9111291839782627
 21
-0.5456382302339798
 31
0.0
  0
LINE
  5
E1
330
1ED
100
AcDbEntity
  8
HEAD
100
AcDbLine
 10
0.9111291839782627
 20
1.64186176976602
 30
0.0
 11
1.071129183978266
 21
1.64186176976602
 31
0.0
  0
ARC
  5
E2
330
1ED
100
AcDbEntity
  8
HEAD
100
AcDbCircle
 10
0.9111291839782627
 20
1.581861769766019
 30
0.0
 40
0.06
100
AcDbArc
 50
90.0
 51
180.0
  0
LINE
  5
E3
330
1ED
100
AcDbEntity
  8
HEAD
100
AcDbLine
 10
0.8511291839782639
 20
-0.4856382302339793
 30
0.0
 11
0.8511291839782639
 21
1.581861769766019
 31
0.0
  0
LINE
  5
E4
330
1ED
100
AcDbEntity
  8
HEAD
100
AcDbLine
 10
1.071129183978266
 20
-0.5456382302339798
 30
0.0
 11
1.071129183978266
 21
1.64186176976602
 31
0.0
  0
LINE
  5
E5
330
1ED
100
AcDbEntity
  8
HEAD
100
AcDbLine
 10
1.101129183978263
 20
-0.4768882302339819
 30
0.0
 11
1.101129183978263
 21
1.573111769766022
 31
0.0
  0
LINE
  5
E6
330
1ED
100
AcDbEntity
  8
HEAD
100
AcDbLine
 10
1.071129183978266
 20
1.64186176976602
 30
0.0
 11
1.101129183978263
 21
1.57311176976602
 31
0.0
  0
LINE
  5
E7
330
1ED
100
AcDbEntity
  8
HEAD
100
AcDbLine
 10
1.101129183978263
 20
1.573111769766022
 30
0.0
 11
2.216129183978264
 21
1.573111769766022
 31
0.0
  0
TEXT
  5
E8
330
1ED
100
AcDbEntity
  8
2060
100
AcDbText
 10
1.181787692477787
 20
1.269240623212534
 30
0.0
 40
0.08
  1
GPM
 50
269.9999999999997
 41
0.661753114394827
  7
SIMPLEX
 72
     5
 11
1.181787692477786
 21
1.123024696984344
 31
0.0
100
AcDbText
  0
TEXT
  5
E9
330
1ED
100
AcDbEntity
  8
2060
100
AcDbText
 10
1.343819301979845
 20
1.376954562821228
 30
0.0
 40
0.25
  1
0
 50
270.0
 41
0.5462658650931394
  7
COMPLEX
 72
     5
 11
1.343819301979845
 21
1.285910251972372
 31
0.0
100
AcDbText
  0
TEXT
  5
EA
330
1ED
100
AcDbEntity
  8
2060
100
AcDbText
 10
1.343819301979845
 20
1.262324837261745
 30
0.0
 40
0.25
  1
6
 50
270.0
 41
0.6853424684096197
  7
COMPLEX
 72
     5
 11
1.343819301979845
 21
1.156259931436447
 31
0.0
100
AcDbText
  0
TEXT
  5
EB
330
1ED
100
AcDbEntity
  8
2060
100
AcDbText
 10
1.343819301979845
 20
1.533233630742864
 30
0.0
 40
0.25
  1
F
 50
270.0
 41
0.3988873405072662
  7
COMPLEX
 72
     5
 11
1.343819301979845
 21
1.471501066140549
 31
0.0
100
AcDbText
  0
TEXT
  5
EC
330
1ED
100
AcDbEntity
  8
2060
100
AcDbText
 10
1.343819301979845
 20
1.45524600138496
 30
0.0
 40
0.25
  1
2
 50
270.0
 41
0.3605235357964354
  7
COMPLEX
 72
     5
 11
1.343819301979845
 21
1.395158745418887
 31
0.0
100
AcDbText
  0
TEXT
  5
ED
330
1ED
100
AcDbEntity
  8
2060
100
AcDbText
 10
1.181787692477787
 20
1.37676919396382
 30
0.0
 40
0.08
  1
60
 50
270.0
 41
0.5282987934638715
  7
SIMPLEX
 72
     5
 11
1.181787692477787
 21
1.308341921667547
 31
0.0
100
AcDbText
  0
TEXT
  5
EE
330
1ED
100
AcDbEntity
  8
2060
100
AcDbText
 10
1.193750022257086
 20
1.420538996295784
 30
0.0
 40
0.0587780732262404
  1
/
 50
279.196655891629
  7
SIMPLEX
100
AcDbText
  0
TEXT
  5
EF
330
1ED
100
AcDbEntity
  8
2060
100
AcDbText
 10
1.181787692477787
 20
1.468718341111937
 30
0.0
 40
0.08
  1
20
 50
270.0
 41
0.330186745914921
  7
SIMPLEX
 72
     5
 11
1.181787692477787
 21
1.425951295926766
 31
0.0
100
AcDbText
  0
TEXT
  5
F0
330
1ED
100
AcDbEntity
  8
2060
100
AcDbText
 10
1.343819301979845
 20
1.129782085561
 30
0.0
 40
0.25
  1
0
 50
270.0
 41
0.784469800253704
  7
COMPLEX
 72
     5
 11
1.343819301979845
 21
0.9990371188520494
 31
0.0
100
AcDbText
  0
INSERT
  5
F1
330
1ED
100
AcDbEntity
  8
POLYLINE
100
AcDbBlockReference
  2
PLT
 10
0.0
 20
0.0
 30
0.0
  0
LINE
  5
F8
330
1ED
100
AcDbEntity
  8
BUMPER
100
AcDbLine
 10
4.225621007284594
 20
0.1989383288195636
 30
0.0
 11
4.225621007284594
 21
0.4683010181798922
 31
0.0
  0
LINE
  5
F9
330
1ED
100
AcDbEntity
  8
BUMPER
100
AcDbLine
 10
3.191799095295956
 20
0.2127674502516443
 30
0.0
 11
4.20735747813903
 21
0.2057044520612443
 31
0.0
  0
ARC
  5
FA
330
1ED
100
AcDbEntity
  8
BUMPER
100
AcDbCircle
 10
3.191799095295956
 20
0.1252674502516444
 30
0.0
 40
0.0875
100
AcDbArc
 50
90.00000000000003
 51
270.0
  0
LINE
  5
FB
330
1ED
100
AcDbEntity
  8
BUMPER
100
AcDbLine
 10
3.191799095295956
 20
-0.1597304249937044
 30
0.0
 11
4.225621007284594
 21
-0.1868053496500419
 31
0.0
  0
LINE
  5
FC
330
1ED
100
AcDbEntity
  8
BUMPER
100
AcDbLine
 10
3.191799095295956
 20
0.0377674502516445
 30
0.0
 11
4.20735747813903
 21
0.0307044520612445
 31
0.0
  0
LINE
  5
FD
330
1ED
100
AcDbEntity
  8
BUMPER
100
AcDbLine
 10
3.191799095295956
 20
-0.315047560255016
 30
0.0
 11
4.229569748011575
 21
-0.3421224849113535
 31
0.0
  0
LINE
  5
FE
330
1ED
100
AcDbEntity
  8
BUMPER
100
AcDbLine
 10
3.191799095295956
 20
-0.5394068193422977
 30
0.0
 11
4.277447626042969
 21
-0.5711494470763383
 31
0.0
  0
LINE
  5
FF
330
1ED
100
AcDbEntity
  8
BUMPER
100
AcDbLine
 10
3.142063211465014
 20
-0.4403647807673048
 30
0.0
 11
4.225784934864948
 21
-0.4734181140835215
 31
0.0
  0
ARC
  5
100
330
1ED
100
AcDbEntity
  8
BUMPER
100
AcDbCircle
 10
3.194774689465932
 20
-0.4394510999494803
 30
0.0
 40
0.1
100
AcDbArc
 50
203.0518886581975
 51
268.2948584353896
  0
ARC
  5
101
330
1ED
100
AcDbEntity
  8
BUMPER
100
AcDbCircle
 10
3.194774689465932
 20
-0.2150918408621987
 30
0.0
 40
0.1
100
AcDbArc
 50
198.2020416901729
 51
268.2948584353896
  0
ARC
  5
102
330
1ED
100
AcDbEntity
  8
BUMPER
100
AcDbCircle
 10
3.177047386798807
 20
-0.2362453123371946
 30
0.0
 40
0.0779239429750049
100
AcDbArc
 50
79.08753543938907
 51
187.4349570611508
  0
ARC
  5
103
330
1ED
100
AcDbEntity
  8
BUMPER
100
AcDbCircle
 10
3.135954420341368
 20
-0.4742609576583777
 30
0.0
 40
0.0334781603662238
100
AcDbArc
 50
78.12617577815095
 51
187.4599984064925
  0
ARC
  5
104
330
1ED
100
AcDbEntity
  8
BUMPER
100
AcDbCircle
 10
4.185247136827229
 20
0.1182130445019194
 30
0.0
 40
0.0902586336251138
100
AcDbArc
 50
284.1798538204297
 51
74.30676075234294
  0
ARC
  5
105
330
1ED
100
AcDbEntity
  8
BUMPER
100
AcDbCircle
 10
4.36533939965016
 20
-0.4621675189172914
 30
0.0
 40
0.1400072302885865
100
AcDbArc
 50
184.6091004205986
 51
231.1145090851901
  0
ARC
  5
106
330
1ED
100
AcDbEntity
  8
BUMPER
100
AcDbCircle
 10
4.543664680885369
 20
-0.0874863843028213
 30
0.0
 40
0.3331906889382101
100
AcDbArc
 50
197.342587395097
 51
215.6276651342796
  0
ARC
  5
107
330
1ED
100
AcDbEntity
  8
BUMPER
100
AcDbCircle
 10
4.189710197748576
 20
-0.2649981121677456
 30
0.0
 40
0.0868156242750327
100
AcDbArc
 50
297.3309025091432
 51
348.7226092607421
  0
LINE
  5
108
330
1ED
100
AcDbEntity
  8
BUMPER
100
AcDbLine
 10
4.225621007284594
 20
-0.4734131143194347
 30
0.0
 11
4.225621007284594
 21
-0.3420194642127137
 31
0.0
  0
LINE
  5
109
330
1ED
100
AcDbEntity
  8
BUMPER
100
AcDbLine
 10
4.225621007284594
 20
-0.1868053496500406
 30
0.0
 11
4.225621007284594
 21
0.0374877601842751
 31
0.0
  0
LINE
  5
10A
330
1ED
100
AcDbEntity
  8
BUMPER
100
AcDbLine
 10
4.277283698462614
 20
1.818687809831009
 30
0.0
 11
4.277447626042969
 21
1.824527652779748
 31
0.0
  0
ARC
  5
10B
330
1ED
100
AcDbEntity
  8
BUMPER
100
AcDbCircle
 10
4.365175472069806
 20
1.709705881671962
 30
0.0
 40
0.1400072302885865
100
AcDbArc
 50
128.8854909148099
 51
175.3908995794014
  0
LINE
  5
10C
330
1ED
100
AcDbEntity
  8
BUMPER
100
AcDbLine
 10
4.225621007284594
 20
0.897285210712477
 30
0.0
 11
4.225621007284594
 21
0.6279225213521485
 31
0.0
  0
LINE
  5
10D
330
1ED
100
AcDbEntity
  8
BUMPER
100
AcDbLine
 10
4.225621007284594
 20
1.283028889182081
 30
0.0
 11
4.225621007284594
 21
1.058735779347765
 31
0.0
  0
LINE
  5
10E
330
1ED
100
AcDbEntity
  8
BUMPER
100
AcDbLine
 10
4.225621007284594
 20
1.569636653851475
 30
0.0
 11
4.225621007284594
 21
1.438243003744754
 31
0.0
  0
ARC
  5
10F
330
1ED
100
AcDbEntity
  8
BUMPER
100
AcDbCircle
 10
4.189710197748576
 20
1.361221651699786
 30
0.0
 40
0.0868156242750327
100
AcDbArc
 50
11.27739073925792
 51
62.66909749085682
  0
ARC
  5
110
330
1ED
100
AcDbEntity
  8
BUMPER
100
AcDbCircle
 10
4.543664680885369
 20
1.183709923834861
 30
0.0
 40
0.3331906889382101
100
AcDbArc
 50
144.3723348657204
 51
162.657412604903
  0
ARC
  5
111
330
1ED
100
AcDbEntity
  8
BUMPER
100
AcDbCircle
 10
4.36533939965016
 20
1.558391058449331
 30
0.0
 40
0.1400072302885865
100
AcDbArc
 50
128.8854909148099
 51
175.3908995794014
  0
ARC
  5
112
330
1ED
100
AcDbEntity
  8
BUMPER
100
AcDbCircle
 10
4.185247136827229
 20
0.9780104950301211
 30
0.0
 40
0.0902586336251138
100
AcDbArc
 50
285.6932392476571
 51
75.82014617957032
  0
LINE
  5
113
330
1ED
100
AcDbEntity
  8
BUMPER
100
AcDbLine
 10
3.139552173217512
 20
1.6886251594261
 30
0.0
 11
4.225621007284594
 21
1.720956476838193
 31
0.0
  0
ARC
  5
114
330
1ED
100
AcDbEntity
  8
BUMPER
100
AcDbCircle
 10
3.132347617814284
 20
1.712433612442126
 30
0.0
 40
0.0248746468030096
100
AcDbArc
 50
167.7648818450397
 51
286.8360741697189
  0
ARC
  5
115
330
1ED
100
AcDbEntity
  8
BUMPER
100
AcDbCircle
 10
3.135954420341368
 20
1.570484497190418
 30
0.0
 40
0.0334781603662238
100
AcDbArc
 50
172.5400015935075
 51
281.8738242218491
  0
ARC
  5
116
330
1ED
100
AcDbEntity
  8
BUMPER
100
AcDbCircle
 10
3.177047386798807
 20
1.332468851869234
 30
0.0
 40
0.0779239429750049
100
AcDbArc
 50
172.5650429388492
 51
280.9124645606109
  0
ARC
  5
117
330
1ED
100
AcDbEntity
  8
BUMPER
100
AcDbCircle
 10
3.194774689465932
 20
1.311315380394239
 30
0.0
 40
0.1
100
AcDbArc
 50
91.70514156461045
 51
161.7979583098271
  0
ARC
  5
118
330
1ED
100
AcDbEntity
  8
BUMPER
100
AcDbCircle
 10
3.194774689465932
 20
1.53567463948152
 30
0.0
 40
0.1
100
AcDbArc
 50
91.70514156461045
 51
156.9481113418025
  0
LINE
  5
119
330
1ED
100
AcDbEntity
  8
BUMPER
100
AcDbLine
 10
3.142063211465014
 20
1.536588320299345
 30
0.0
 11
4.225784934864948
 21
1.569641653615561
 31
0.0
  0
LINE
  5
11A
330
1ED
100
AcDbEntity
  8
BUMPER
100
AcDbLine
 10
3.191799095295956
 20
1.635630358874338
 30
0.0
 11
4.277447626042969
 21
1.667372986608378
 31
0.0
  0
LINE
  5
11B
330
1ED
100
AcDbEntity
  8
BUMPER
100
AcDbLine
 10
3.191799095295956
 20
1.411271099787056
 30
0.0
 11
4.229569748011575
 21
1.438346024443394
 31
0.0
  0
LINE
  5
11C
330
1ED
100
AcDbEntity
  8
BUMPER
100
AcDbLine
 10
3.191799095295956
 20
1.058456089280396
 30
0.0
 11
4.20735747813903
 21
1.065519087470796
 31
0.0
  0
LINE
  5
11D
330
1ED
100
AcDbEntity
  8
BUMPER
100
AcDbLine
 10
3.191799095295956
 20
1.255953964525744
 30
0.0
 11
4.225621007284594
 21
1.283028889182082
 31
0.0
  0
ARC
  5
11E
330
1ED
100
AcDbEntity
  8
BUMPER
100
AcDbCircle
 10
3.191799095295956
 20
0.970956089280396
 30
0.0
 40
0.0875
100
AcDbArc
 50
90.00000000000005
 51
270.0
  0
LINE
  5
11F
330
1ED
100
AcDbEntity
  8
BUMPER
100
AcDbLine
 10
3.191799095295956
 20
0.883456089280396
 30
0.0
 11
4.20735747813903
 21
0.8905190874707963
 31
0.0
  0
ARC
  5
120
330
1ED
100
AcDbEntity
  8
BUMPER
100
AcDbCircle
 10
4.189753279014503
 20
0.5481117697660203
 30
0.0
 40
0.0875
100
AcDbArc
 50
270.0
 51
90.00000000000005
  0
LINE
  5
121
330
1ED
100
AcDbEntity
  8
BUMPER
100
AcDbLine
 10
4.415621007284594
 20
-0.8368882302339775
 30
0.0
 11
4.415621007284594
 21
1.93311176976602
 31
0.0
  0
LINE
  5
122
330
1ED
100
AcDbEntity
  8
BUMPER
100
AcDbLine
 10
3.191799095295956
 20
0.4606117697660201
 30
0.0
 11
4.189753279014503
 21
0.4606117697660204
 31
0.0
  0
LINE
  5
123
330
1ED
100
AcDbEntity
  8
BUMPER
100
AcDbLine
 10
3.191799095295956
 20
0.6356117697660202
 30
0.0
 11
4.189753279014503
 21
0.6356117697660202
 31
0.0
  0
ARC
  5
124
330
1ED
100
AcDbEntity
  8
BUMPER
100
AcDbCircle
 10
3.191799095295956
 20
0.5481117697660203
 30
0.0
 40
0.0875
100
AcDbArc
 50
90.00000000000005
 51
270.0
  0
ARC
  5
125
330
1ED
100
AcDbEntity
  8
BUMPER
100
AcDbCircle
 10
3.204299095295956
 20
1.690616481398732
 30
0.0
 40
0.1
100
AcDbArc
 50
91.70514156461045
 51
164.2829674356334
  0
LINE
  5
126
330
1ED
100
AcDbEntity
  8
BUMPER
100
AcDbLine
 10
3.201323501125979
 20
1.79057220079155
 30
0.0
 11
4.277447626042969
 21
1.824527652779748
 31
0.0
  0
LINE
  5
127
330
1ED
100
AcDbEntity
  8
BUMPER
100
AcDbLine
 10
3.038889555742309
 20
1.704279590124646
 30
0.0
 11
3.107609652039312
 21
1.709829557356167
 31
0.0
  0
ARC
  5
128
330
1ED
100
AcDbEntity
  8
BUMPER
100
AcDbCircle
 10
4.415621007284594
 20
1.74311176976602
 30
0.0
 40
0.19
100
AcDbArc
 50
90.0
 51
154.9848689197036
  0
LINE
  5
129
330
1ED
100
AcDbEntity
  8
BUMPER
100
AcDbLine
 10
4.415621007284594
 20
1.93311176976602
 30
0.0
 11
4.700621007284594
 21
1.93311176976602
 31
0.0
  0
LINE
  5
12A
330
1ED
100
AcDbEntity
  8
BUMPER
100
AcDbLine
 10
4.225621007284594
 20
1.720956476838193
 30
0.0
 11
4.225621007284594
 21
1.666385801426633
 31
0.0
  0
LINE
  5
12B
330
1ED
100
AcDbEntity
  8
BUMPER
100
AcDbLine
 10
4.700621007284594
 20
-0.8368882302339777
 30
0.0
 11
4.700621007284594
 21
1.93311176976602
 31
0.0
  0
ARC
  5
12C
330
1ED
100
AcDbEntity
  8
BUMPER
100
AcDbCircle
 10
3.040406986432493
 20
1.694395390404866
 30
0.0
 40
0.01
100
AcDbArc
 50
98.72795348780021
 51
180.0
  0
LINE
  5
12D
330
1ED
100
AcDbEntity
  8
BUMPER
100
AcDbLine
 10
4.415621007284594
 20
-0.8368882302339775
 30
0.0
 11
4.700621007284594
 21
-0.8368882302339777
 31
0.0
  0
ARC
  5
12E
330
1ED
100
AcDbEntity
  8
BUMPER
100
AcDbCircle
 10
4.415621007284594
 20
-0.6468882302339778
 30
0.0
 40
0.19
100
AcDbArc
 50
205.0151310802963
 51
270.0
  0
LINE
  5
12F
330
1ED
100
AcDbEntity
  8
BUMPER
100
AcDbLine
 10
4.225621007284594
 20
-0.6247329373061504
 30
0.0
 11
4.225621007284594
 21
-0.5701622618945908
 31
0.0
  0
LINE
  5
130
330
1ED
100
AcDbEntity
  8
BUMPER
100
AcDbLine
 10
3.039601988215919
 20
-0.6081135880102773
 30
0.0
 11
3.107609652039312
 21
-0.613606017824125
 31
0.0
  0
LINE
  5
131
330
1ED
100
AcDbEntity
  8
BUMPER
100
AcDbLine
 10
3.201323501125979
 20
-0.6943486612595076
 30
0.0
 11
4.277447626042969
 21
-0.7283041132477062
 31
0.0
  0
ARC
  5
132
330
1ED
100
AcDbEntity
  8
BUMPER
100
AcDbCircle
 10
3.204299095295956
 20
-0.5943929418666905
 30
0.0
 40
0.1
100
AcDbArc
 50
195.7170325643666
 51
268.2948584353896
  0
ARC
  5
133
330
1ED
100
AcDbEntity
  8
BUMPER
100
AcDbCircle
 10
3.132347617814284
 20
-0.6162100729100838
 30
0.0
 40
0.0248746468030096
100
AcDbArc
 50
73.16392583028108
 51
192.2351181549603
  0
LINE
  5
134
330
1ED
100
AcDbEntity
  8
BUMPER
100
AcDbLine
 10
3.139552173217512
 20
-0.5924016198940585
 30
0.0
 11
4.225621007284594
 21
-0.6247329373061504
 31
0.0
  0
ARC
  5
135
330
1ED
100
AcDbEntity
  8
BUMPER
100
AcDbCircle
 10
4.365175472069806
 20
-0.6134823421399203
 30
0.0
 40
0.1400072302885865
100
AcDbArc
 50
184.6091004205986
 51
231.1145090851901
  0
ARC
  5
136
330
1ED
100
AcDbEntity
  8
BUMPER
100
AcDbCircle
 10
3.040406986432494
 20
-0.5981460417790672
 30
0.0
 40
0.01
100
AcDbArc
 50
180.0
 51
265.3827039306355
  0
LWPOLYLINE
  5
137
330
1ED
100
AcDbEntity
  8
POLYLINE
100
AcDbPolyline
 90
       14
 70
     0
 43
0.015
 10
3.31565208399725
 20
1.144386550943474
 42
0.0253963787236796
 10
3.083152042339483
 20
1.097499989372985
 42
-0.0625251816010558
 10
2.50565208399725
 20
1.024999999999999
 10
1.39065208399725
 20
1.025000000000002
 10
1.360652083997253
 20
1.09375
 10
1.200652083997249
 20
1.093749999999999
 42
0.4142135623730934
 10
1.140652083997249
 20
1.033749999999999
 10
1.140652083997249
 20
-1.033749999999999
 42
0.4142135623730949
 10
1.200652083997249
 20
-1.093749999999999
 10
1.360652083997253
 20
-1.09375
 10
1.39065208399725
 20
-1.025000000000002
 10
2.50565208399725
 20
-1.025
 42
-0.0625251677457857
 10
3.083152083997251
 20
-1.0975
 42
0.0253963741202748
 10
3.315652083997251
 20
-1.144386550943474
 42
3.38085945038732
  0
LWPOLYLINE
  5
147
330
1ED
100
AcDbEntity
  8
POLYLINE
100
AcDbPolyline
 90
        2
 70
     0
 43
0.015
 10
1.360652083997253
 20
1.09375
 10
1.360652083997253
 20
-1.09375
  0
LWPOLYLINE
  5
14B
330
1ED
100
AcDbEntity
  8
POLYLINE
100
AcDbPolyline
 90
        2
 70
     0
 43
0.015
 10
1.39065208399725
 20
1.025000000000002
 10
1.39065208399725
 20
-1.025000000000002
  0
LWPOLYLINE
  5
14F
330
1ED
100
AcDbEntity
  8
POLYLINE
100
AcDbPolyline
 90
        5
 70
     0
 43
0.015
 10
4.566970526061956
 20
1.276415883013728
 10
3.490846401144966
 20
1.242460431025529
 42
0.3267226315332732
 10
3.397560869182508
 20
1.169593373388425
 42
0.5719592696291464
 10
3.4290750732365
 20
1.14051338966008
 10
4.515143907303581
 20
1.172844707072172
  0
LWPOLYLINE
  5
156
330
1ED
100
AcDbEntity
  8
POLYLINE
100
AcDbPolyline
 90
        5
 70
     0
 43
0.015
 10
4.566970526061957
 20
1.119261216842358
 10
3.481321995314943
 20
1.087518589108317
 42
0.2929118539419885
 10
3.392282527585296
 20
1.026719330020391
 42
0.5168781753113051
 10
3.432365690508985
 20
0.9896108963064332
 10
4.515143907303581
 20
1.021524884085454
  0
LWPOLYLINE
  5
15D
330
1ED
100
AcDbEntity
  8
POLYLINE
100
AcDbPolyline
 90
        6
 70
     0
 43
0.015
 10
4.562363661880477
 20
0.8296868968636418
 42
0.2388126543707954
 10
4.515053326293153
 20
0.889936956211595
 10
3.481321995314943
 20
0.8631593300210361
 42
0.3178690538779789
 10
3.389301497373757
 20
0.7944404876105225
 42
0.5114363952588842
 10
3.481321995314943
 20
0.7078421947597248
 10
4.51514390730358
 20
0.7349171194160621
  0
LWPOLYLINE
  5
165
330
1ED
100
AcDbEntity
  8
POLYLINE
100
AcDbPolyline
 90
        5
 70
     0
 43
0.015
 10
4.496880378158017
 20
0.517407317704776
 10
3.481321995314943
 20
0.5103443195143759
 42
0.9930693914189438
 10
3.481321995314943
 20
0.3353443195143758
 10
4.496880378158017
 20
0.3424073177047762
 42
0.7787424176487435
 10
4.496876296725557
 20
0.5173911641590321
 42
0.0816857737165194
  0
LWPOLYLINE
  5
16C
330
1ED
100
AcDbEntity
  8
POLYLINE
100
AcDbPolyline
 90
        3
 70
     0
 43
0.015
 10
4.566806598481601
 20
1.270576040064989
 42
0.205749877333149
 10
4.51514390730358
 20
1.172844707072172
 10
4.515143907303581
 20
1.118274031660613
  0
LWPOLYLINE
  5
171
330
1ED
100
AcDbEntity
  8
POLYLINE
100
AcDbPolyline
 90
        3
 70
     0
 43
0.015
 10
4.566970526061957
 20
1.119261216842358
 42
0.2057836311198422
 10
4.515306378755889
 20
1.0215118071513
 10
4.515053326293153
 20
0.889936956211595
  0
LWPOLYLINE
  5
176
330
1ED
100
AcDbEntity
  8
POLYLINE
100
AcDbPolyline
 90
        3
 70
     0
 43
0.015
 10
4.562363661880477
 20
0.8296868968636418
 42
0.0799534208814532
 10
4.51514390730358
 20
0.7349171194160613
 10
4.515143907303581
 20
0.5106240095817452
  0
LWPOLYLINE
  5
17B
330
1ED
100
AcDbEntity
  8
POLYLINE
100
AcDbPolyline
 90
        5
 70
     0
 43
0.015
 10
4.496880378158017
 20
-0.517407317704774
 10
3.481321995314943
 20
-0.5103443195143739
 42
-0.9930693914189438
 10
3.481321995314943
 20
-0.3353443195143738
 10
4.496880378158017
 20
-0.3424073177047742
 42
-0.7787424176487435
 10
4.496876296725557
 20
-0.5173911641590302
 42
-0.0816857737165194
  0
LWPOLYLINE
  5
182
330
1ED
100
AcDbEntity
  8
POLYLINE
100
AcDbPolyline
 90
        3
 70
     0
 43
0.015
 10
4.562363661880477
 20
-0.8296868968636399
 42
-0.0799534208814532
 10
4.51514390730358
 20
-0.7349171194160592
 10
4.515143907303581
 20
-0.5106240095817432
  0
LWPOLYLINE
  5
187
330
1ED
100
AcDbEntity
  8
POLYLINE
100
AcDbPolyline
 90
        6
 70
     0
 43
0.015
 10
4.562363661880477
 20
-0.8296868968636399
 42
-0.2388126543707954
 10
4.515053326293153
 20
-0.889936956211593
 10
3.481321995314943
 20
-0.8631593300210342
 42
-0.3178690538779789
 10
3.389301497373757
 20
-0.7944404876105205
 42
-0.5114363952588842
 10
3.481321995314943
 20
-0.7078421947597228
 10
4.51514390730358
 20
-0.73491711941606
  0
LWPOLYLINE
  5
18F
330
1ED
100
AcDbEntity
  8
POLYLINE
100
AcDbPolyline
 90
        3
 70
     0
 43
0.015
 10
4.566970526061957
 20
-1.119261216842356
 42
-0.2057836311198422
 10
4.515306378755889
 20
-1.021511807151298
 10
4.515053326293153
 20
-0.889936956211593
  0
LWPOLYLINE
  5
194
330
1ED
100
AcDbEntity
  8
POLYLINE
100
AcDbPolyline
 90
        5
 70
     0
 43
0.015
 10
4.566970526061957
 20
-1.119261216842356
 10
3.481321995314943
 20
-1.087518589108315
 42
-0.2929118539419885
 10
3.392282527585296
 20
-1.026719330020389
 42
-0.5168781753113051
 10
3.432365690508985
 20
-0.989610896306431
 10
4.515143907303581
 20
-1.021524884085452
  0
LWPOLYLINE
  5
19B
330
1ED
100
AcDbEntity
  8
POLYLINE
100
AcDbPolyline
 90
        3
 70
     0
 43
0.015
 10
4.566806598481601
 20
-1.270576040064987
 42
-0.205749877333149
 10
4.51514390730358
 20
-1.17284470707217
 10
4.515143907303581
 20
-1.118274031660611
  0
LWPOLYLINE
  5
1A0
330
1ED
100
AcDbEntity
  8
POLYLINE
100
AcDbPolyline
 90
        5
 70
     0
 43
0.015
 10
4.566970526061956
 20
-1.276415883013726
 10
3.490846401144966
 20
-1.242460431025527
 42
-0.3267226315332732
 10
3.397560869182508
 20
-1.169593373388423
 42
-0.5719592696291464
 10
3.4290750732365
 20
-1.140513389660078
 10
4.515143907303581
 20
-1.17284470707217
  0
LWPOLYLINE
  5
1A7
330
1ED
100
AcDbEntity
  8
POLYLINE
100
AcDbPolyline
 90
        6
 70
     0
 43
0.015
 10
4.53296663930269
 20
-1.275342942339382
 42
0.2914017901745351
 10
4.705143907303581
 20
-1.384999999999998
 10
4.990143907303581
 20
-1.384999999999998
 10
4.990143907303581
 20
1.385
 10
4.705143907303581
 20
1.385
 42
0.2914017901745347
 10
4.53296663930269
 20
1.275342942339384
 42
0.0530857173566107
  0
LWPOLYLINE
  5
1AF
330
1ED
100
AcDbEntity
  8
POLYLINE
100
AcDbPolyline
 90
        2
 70
     0
 43
0.015
 10
4.515143907303581
 20
0.3491734409464569
 10
4.515143907303581
 20
0.0798107515861282
  0
LWPOLYLINE
  5
1B3
330
1ED
100
AcDbEntity
  8
POLYLINE
100
AcDbPolyline
 90
        5
 70
     0
 43
0.015
 10
4.47927617903349
 20
0.0874999999999999
 10
3.481321995314943
 20
0.0874999999999999
 42
0.9999999999999998
 10
3.481321995314943
 20
-0.0875000000000002
 10
4.47927617903349
 20
-0.0874999999999999
 42
0.9999999999999996
 10
4.47927617903349
 20
0.0875
 42
0.2503151724157836
  0
LWPOLYLINE
  5
1BA
330
1ED
100
AcDbEntity
  8
POLYLINE
100
AcDbPolyline
 90
        2
 70
     0
 43
0.015
 10
4.515143907303581
 20
-0.3491734409464566
 10
4.515143907303581
 20
-0.0798107515861282
  0
LWPOLYLINE
  5
1BE
330
1ED
100
AcDbEntity
  8
POLYLINE
100
AcDbPolyline
 90
        4
 70
     0
 43
0.015
 10
3.397132552058299
 20
1.161717787590147
 10
3.328412455761296
 20
1.156167820358626
 10
3.329124888234907
 20
-1.156225357776297
 10
3.397132552058299
 20
-1.161717787590145
  0
INSERT
  5
3C5
330
1ED
100
AcDbEntity
  8
2060
100
AcDbBlockReference
 66
     1
  2
TFT_APRLIST
 10
-2.59375
 20
-0.0625
 30
0.0
  0
ATTRIB
  5
3C6
330
3C5
100
AcDbEntity
  8
DIM
100
AcDbText
 10
-1.094999997433001
 20
-3.26944501421848
 30
0.0
 40
0.13
  1
F2060
  7
SIMPLEX
100
AcDbAttribute
  2
PART_#
 70
     0
  0
ATTRIB
  5
3C7
330
3C5
100
AcDbEntity
  8
DIM
100
AcDbText
 10
-1.089066254908178
 20
-3.593630609568119
 30
0.0
 40
0.13
  1
TWISTER TIP 1.5" NH
  7
SIMPLEX
100
AcDbAttribute
  2
PART_DESCRIPTION
 70
     0
  0
ATTRIB
  5
3C8
330
3C5
100
AcDbEntity
  8
DIM
100
AcDbText
 10
-1.093749998534065
 20
-3.906957553051039
 30
0.0
 40
0.13
  1
20 & 60 GPM TWIST TYPE NOZZLE
  7
SIMPLEX
100
AcDbAttribute
  2
EXTRA_DESCRIPTION
 70
     0
  0
ATTRIB
  5
3C9
330
3C5
100
AcDbEntity
  8
DIM
100
AcDbText
 10
0.8892857157516491
 20
-3.312499998273461
 30
0.0
 40
0.1
  1
1 OF 1
  7
SIMPLEX
 72
     4
 11
1.125000001465934
 21
-3.262499998273462
 31
0.0
100
AcDbAttribute
  2
SHEET
 70
     0
  0
ATTRIB
  5
3CA
330
3C5
100
AcDbEntity
  8
DIM
100
AcDbText
 10
5.777000001651005
 20
-3.903569024870303
 30
0.0
 40
0.08
  1
F\FIN & SUB\F2060
  7
SIMPLEX
100
AcDbAttribute
  2
FILE_NAME
 70
     0
  0
ATTRIB
  5
3CB
330
3C5
100
AcDbEntity
  8
DIM
100
AcDbText
 10
6.000000001465934
 20
-2.929743860095429
 30
0.0
 40
0.08
  1
FULL
  7
SIMPLEX
100
AcDbAttribute
  2
SCALE
 70
     0
  0
ATTRIB
  5
3CC
330
3C5
100
AcDbEntity
  8
DIM
100
AcDbText
 10
5.563287319256288
 20
-3.272470309134189
 30
0.0
 40
0.08
  1
6/3/92
  7
SIMPLEX
 72
     4
 11
5.788049224018193
 21
-3.238184594848474
 31
0.0
100
AcDbAttribute
  2
DATE
 70
     0
  0
ATTRIB
  5
3CD
330
3C5
100
AcDbEntity
  8
DIM
100
AcDbText
 10
6.247501214395931
 20
-3.278184594848474
 30
0.0
 40
0.08
  1
MWR
  7
SIMPLEX
 72
     4
 11
6.365596452491169
 21
-3.238184594848474
 31
0.0
100
AcDbAttribute
  2
WHO?
 70
     0
  0
ATTRIB
  5
3CE
330
3C5
100
AcDbEntity
  8
DIM
100
AcDbText
 10
5.47566827163724
 20
-3.596747524608138
 30
0.0
 40
0.08
  1
11/29/99
  7
SCRIPT
 72
     4
 11
5.788049224018193
 21
-3.562461810322424
 31
0.0
100
AcDbAttribute
  2
DATE
 70
     0
  0
ATTRIB
  5
3CF
330
3C5
100
AcDbEntity
  8
DIM
100
AcDbText
 10
6.226548833443573
 20
-3.602461810322424
 30
0.0
 40
0.08
  1
RWS
  7
SCRIPT
 72
     4
 11
6.365596452491192
 21
-3.562461810322424
 31
0.0
100
AcDbAttribute
  2
WHO?
 70
     0
  0
ATTRIB
  5
3D0
330
3C5
100
AcDbEntity
  8
DIM
100
AcDbText
 10
6.683895855643239
 20
-3.602461810322424
 30
0.0
 40
0.08
  1
Laura A. Walker
  7
SCRIPT
 11
6.683895855643239
 21
-3.562461810322424
 31
0.0
100
AcDbAttribute
  2
WHO?
 70
     0
 74
     2
  0
SEQEND
  5
3D1
330
3C5
100
AcDbEntity
  8
2060
  0
INSERT
  5
3EA
330
1ED
100
AcDbEntity
  8
2060
100
AcDbBlockReference
 66
     1
  2
rvsn_blk
 10
6.84036963695524
 20
-2.608184594848474
 30
0.0
  0
ATTRIB
  5
3EB
330
3EA
100
AcDbEntity
  8
DIM
100
AcDbText
 10
6.696044358726
 20
-2.563911354560655
 30
1.0
 40
0.07
  1
1
  7
SIMPLEX
100
AcDbAttribute
  2
X
 70
     0
  0
ATTRIB
  5
3EC
330
3EA
100
AcDbEntity
  8
DIM
100
AcDbText
 10
6.894519890803551
 20
-2.561228259406723
 30
1.0
 40
0.07
  1
11/9/99
  7
SIMPLEX
 72
     1
 11
7.109519890803551
 21
-2.561228259406723
 31
1.0
100
AcDbAttribute
  2
DATE
 70
     0
  0
ATTRIB
  5
3ED
330
3EA
100
AcDbEntity
  8
DIM
100
AcDbText
 10
7.505209271121318
 20
-2.561228259406723
 30
1.0
 40
0.07
  1
BMH
  7
SIMPLEX
 72
     1
 11
7.603542604454651
 21
-2.561228259406723
 31
1.0
100
AcDbAttribute
  2
XXX
 70
     0
  0
SEQEND
  5
3EE
330
3EA
100
AcDbEntity
  8
2060
  0
LINE
  5
3FE
330
1ED
100
AcDbEntity
  8
2060
100
AcDbLine
 10
4.700621007284594
 20
1.99561176976602
 30
0.0
 11
4.700621007284594
 21
2.496810563935323
 31
0.0
  0
LINE
  5
3FF
330
1ED
100
AcDbEntity
  8
2060
100
AcDbLine
 10
-0.1895229000189893
 20
2.434310563935323
 30
0.0
 11
1.896501434585183
 21
2.434310563935323
 31
0.0
  0
LINE
  5
400
330
1ED
100
AcDbEntity
  8
2060
100
AcDbLine
 10
4.600621007284594
 20
2.434310563935323
 30
0.0
 11
2.514596672680421
 21
2.434310563935323
 31
0.0
  0
SOLID
  5
401
330
1ED
100
AcDbEntity
  8
2060
100
AcDbTrace
 10
-0.1895229000189893
 20
2.450977230601989
 30
0.0
 11
-0.1895229000189893
 21
2.417643897268656
 31
0.0
 12
-0.2895229000189889
 22
2.434310563935323
 32
0.0
 13
-0.2895229000189889
 23
2.434310563935323
 33
0.0
  0
SOLID
  5
402
330
1ED
100
AcDbEntity
  8
2060
100
AcDbTrace
 10
4.600621007284594
 20
2.450977230601989
 30
0.0
 11
4.600621007284594
 21
2.417643897268656
 31
0.0
 12
4.700621007284594
 22
2.434310563935323
 32
0.0
 13
4.700621007284594
 23
2.434310563935323
 33
0.0
  0
MTEXT
  5
403
330
1ED
100
AcDbEntity
  8
2060
100
AcDbMText
 10
2.205549053632802
 20
2.434310563935323
 30
0.0
 40
0.1
 41
0.0
 71
     5
 72
     1
  1
\A1;5 REF
 73
     1
 44
1.0
  0
LINE
  5
404
330
1ED
100
AcDbEntity
  8
2060
100
AcDbLine
 10
4.763121007284594
 20
1.93311176976602
 30
0.0
 11
5.726359343573321
 21
1.93311176976602
 31
0.0
  0
LINE
  5
405
330
1ED
100
AcDbEntity
  8
2060
100
AcDbLine
 10
4.763121007284594
 20
-0.8368882302339777
 30
0.0
 11
5.726359343573321
 21
-0.8368882302339779
 31
0.0
  0
LINE
  5
406
330
1ED
100
AcDbEntity
  8
2060
100
AcDbLine
 10
5.663859343573321
 20
1.833111769766019
 30
0.0
 11
5.663859343573321
 21
0.9285879602422113
 31
0.0
  0
LINE
  5
407
330
1ED
100
AcDbEntity
  8
2060
100
AcDbLine
 10
5.663859343573321
 20
-0.736888230233978
 30
0.0
 11
5.663859343573321
 21
0.1676355792898304
 31
0.0
  0
SOLID
  5
408
330
1ED
100
AcDbEntity
  8
2060
100
AcDbTrace
 10
5.647192676906654
 20
1.833111769766019
 30
0.0
 11
5.680526010239987
 21
1.833111769766019
 31
0.0
 12
5.663859343573321
 22
1.93311176976602
 32
0.0
 13
5.663859343573321
 23
1.93311176976602
 33
0.0
  0
SOLID
  5
409
330
1ED
100
AcDbEntity
  8
2060
100
AcDbTrace
 10
5.647192676906654
 20
-0.736888230233978
 30
0.0
 11
5.680526010239987
 21
-0.736888230233978
 31
0.0
 12
5.663859343573321
 22
-0.8368882302339779
 32
0.0
 13
5.663859343573321
 23
-0.8368882302339779
 33
0.0
  0
MTEXT
  5
40A
330
1ED
100
AcDbEntity
  8
2060
100
AcDbMText
 10
5.663859343573321
 20
0.548111769766022
 30
0.0
 40
0.1
 41
0.0
 71
     5
 72
     1
  1
\A1;2.8 REF
 11
0.0000000000000001
 21
1.0
 31
0.0
 73
     1
 44
1.0
  0
LINE
  5
40B
330
1ED
100
AcDbEntity
  8
2060
100
AcDbLine
 10
-0.1337387029854788
 20
-0.7070223631766642
 30
0.0
 11
-0.9510012327167141
 21
-0.707022363176664
 31
0.0
  0
LINE
  5
40D
330
1ED
100
AcDbEntity
  8
2060
100
AcDbLine
 10
-0.8885012327167132
 20
-0.6070223631766638
 30
0.0
 11
-0.8885012327167132
 21
0.1676355792898299
 31
0.0
  0
LINE
  5
40E
330
1ED
100
AcDbEntity
  8
2060
100
AcDbLine
 10
-0.8885012327167132
 20
1.703245902708705
 30
0.0
 11
-0.8885012327167132
 21
0.9285879602422109
 31
0.0
  0
SOLID
  5
40F
330
1ED
100
AcDbEntity
  8
2060
100
AcDbTrace
 10
-0.9051678993833807
 20
-0.6070223631766638
 30
0.0
 11
-0.8718345660500466
 21
-0.6070223631766638
 31
0.0
 12
-0.8885012327167141
 22
-0.707022363176664
 32
0.0
 13
-0.8885012327167141
 23
-0.707022363176664
 33
0.0
  0
SOLID
  5
410
330
1ED
100
AcDbEntity
  8
2060
100
AcDbTrace
 10
-0.9051678993833798
 20
1.703245902708705
 30
0.0
 11
-0.8718345660500466
 21
1.703245902708705
 31
0.0
 12
-0.8885012327167132
 22
1.803245902708704
 32
0.0
 13
-0.8885012327167132
 23
1.803245902708704
 33
0.0
  0
MTEXT
  5
411
330
1ED
100
AcDbEntity
  8
2060
100
AcDbMText
 10
-0.8885012327167133
 20
0.5481117697660203
 30
0.0
 40
0.1
 41
0.0
 71
     5
 72
     1
  1
\A1;2.5 REF
 11
0.0000000000000001
 21
1.0
 31
0.0
 73
     1
 44
1.0
  0
LINE
  5
412
330
1ED
100
AcDbEntity
  8
2060
100
AcDbLine
 10
-0.2895229000189889
 20
1.839455613354623
 30
0.0
 11
-0.2895229000189889
 21
2.496810563935323
 31
0.0
  0
LINE
  5
413
330
1ED
100
AcDbEntity
  8
2060
100
AcDbLine
 10
-0.3181852373801277
 20
1.803245902708704
 30
0.0
 11
-0.9510012327167132
 21
1.803245902708704
 31
0.0
  0
LINE
  5
42F
330
1ED
100
AcDbEntity
  8
2060
100
AcDbLine
 10
10.62936076912757
 20
2.434310563935324
 30
0.0
 11
12.71538510373174
 21
2.434310563935324
 31
0.0
  0
INSERT
  5
430
330
1ED
100
AcDbEntity
  8
2060
100
AcDbBlockReference
 66
     1
  2
TFT_APRLIST
 10
8.225133669146558
 20
-0.0624999999999991
 30
0.0
  0
ATTRIB
  5
431
330
430
100
AcDbEntity
  8
DIM
100
AcDbText
 10
9.723883671713556
 20
-3.269445014218479
 30
0.0
 40
0.13
  1
F2060-NP
  7
SIMPLEX
100
AcDbAttribute
  2
PART_#
 70
     0
  0
ATTRIB
  5
432
330
430
100
AcDbEntity
  8
DIM
100
AcDbText
 10
9.729817414238379
 20
-3.593630609568118
 30
0.0
 40
0.13
  1
TWISTER TIP 1.5"NPSH 
  7
SIMPLEX
100
AcDbAttribute
  2
PART_DESCRIPTION
 70
     0
  0
ATTRIB
  5
433
330
430
100
AcDbEntity
  8
DIM
100
AcDbText
 10
9.725133670612493
 20
-3.906957553051038
 30
0.0
 40
0.13
  1
20&60 GPM DUAL GALLONAGE
  7
SIMPLEX
100
AcDbAttribute
  2
EXTRA_DESCRIPTION
 70
     0
  0
ATTRIB
  5
434
330
430
100
AcDbEntity
  8
DIM
100
AcDbText
 10
11.70816938489821
 20
-3.312499998273461
 30
0.0
 40
0.1
  1
1 OF 1
  7
SIMPLEX
 72
     4
 11
11.94388367061249
 21
-3.262499998273461
 31
0.0
100
AcDbAttribute
  2
SHEET
 70
     0
  0
ATTRIB
  5
435
330
430
100
AcDbEntity
  8
DIM
100
AcDbText
 10
16.59588367079756
 20
-3.903569024870302
 30
0.0
 40
0.08
  1
F\FIN & SUB\F2060
  7
SIMPLEX
100
AcDbAttribute
  2
FILE_NAME
 70
     0
  0
ATTRIB
  5
436
330
430
100
AcDbEntity
  8
DIM
100
AcDbText
 10
16.81888367061249
 20
-2.929743860095428
 30
0.0
 40
0.08
  1
FULL
  7
SIMPLEX
100
AcDbAttribute
  2
SCALE
 70
     0
  0
ATTRIB
  5
437
330
430
100
AcDbEntity
  8
DIM
100
AcDbText
 10
16.31359955983142
 20
-3.272470309134188
 30
0.0
 40
0.08
  1
12/23/02
  7
SIMPLEX
 72
     4
 11
16.60693289316475
 21
-3.238184594848473
 31
0.0
100
AcDbAttribute
  2
DATE
 70
     0
  0
ATTRIB
  5
438
330
430
100
AcDbEntity
  8
DIM
100
AcDbText
 10
17.07781345497106
 20
-3.278184594848474
 30
0.0
 40
0.08
  1
CPD
  7
SIMPLEX
 72
     4
 11
17.18448012163772
 21
-3.238184594848473
 31
0.0
100
AcDbAttribute
  2
WHO?
 70
     0
  0
ATTRIB
  5
439
330
430
100
AcDbEntity
  8
DIM
100
AcDbText
 10
16.60693289316475
 20
-3.562461810322423
 30
0.0
 40
0.08
  1

  7
SCRIPT
 72
     4
 11
16.60693289316475
 21
-3.562461810322423
 31
0.0
100
AcDbAttribute
  2
DATE
 70
     0
  0
ATTRIB
  5
43A
330
430
100
AcDbEntity
  8
DIM
100
AcDbText
 10
17.18448012163775
 20
-3.562461810322423
 30
0.0
 40
0.08
  1

  7
SCRIPT
 72
     4
 11
17.18448012163775
 21
-3.562461810322423
 31
0.0
100
AcDbAttribute
  2
WHO?
 70
     0
  0
ATTRIB
  5
43B
330
430
100
AcDbEntity
  8
DIM
100
AcDbText
 10
17.50277952478979
 20
-3.602461810322423
 30
0.0
 40
0.08
  1
Laura A. Walker
  7
SCRIPT
 11
17.50277952478979
 21
-3.562461810322423
 31
0.0
100
AcDbAttribute
  2
WHO?
 70
     0
 74
     2
  0
SEQEND
  5
43C
330
430
100
AcDbEntity
  8
2060
  0
LINE
  5
43D
330
1ED
100
AcDbEntity
  8
BASE
100
AcDbLine
 10
11.40249755726161
 20
0.4323026024130057
 30
0.0
 11
10.74764496616108
 21
0.6639209371190349
 31
0.0
  0
LINE
  5
43E
330
1ED
100
AcDbEntity
  8
BASE
100
AcDbLine
 10
10.74764496616108
 20
0.4323026024130057
 30
0.0
 11
11.40249755726161
 21
0.6639209371190349
 31
0.0
  0
LINE
  5
43F
330
1ED
100
AcDbEntity
  8
BASE
100
AcDbLine
 10
11.40249755726161
 20
1.755331964451775
 30
0.0
 11
10.74764496616108
 21
1.797891721771486
 31
0.0
  0
LINE
  5
440
330
1ED
100
AcDbEntity
  8
BASE
100
AcDbLine
 10
10.74764496616108
 20
1.781874858943757
 30
0.0
 11
11.40249755726161
 21
1.803245902708705
 31
0.0
  0
LINE
  5
441
330
1ED
100
AcDbEntity
  8
BASE
100
AcDbLine
 10
11.40249755726161
 20
1.718489492912588
 30
0.0
 11
10.74764496616108
 21
1.781874858943757
 31
0.0
  0
LINE
  5
442
330
1ED
100
AcDbEntity
  8
BASE
100
AcDbLine
 10
10.74764496616108
 20
1.615248317233022
 30
0.0
 11
11.40249755726161
 21
1.718489492912588
 31
0.0
  0
LINE
  5
443
330
1ED
100
AcDbEntity
  8
BASE
100
AcDbLine
 10
11.40249755726161
 20
1.475667086318684
 30
0.0
 11
10.74764496616108
 21
1.615248317233022
 31
0.0
  0
LINE
  5
444
330
1ED
100
AcDbEntity
  8
BASE
100
AcDbLine
 10
10.74764496616108
 20
1.304499071579128
 30
0.0
 11
11.40249755726161
 21
1.475667086318684
 31
0.0
  0
LINE
  5
445
330
1ED
100
AcDbEntity
  8
BASE
100
AcDbLine
 10
11.40249755726161
 20
1.107573194462904
 30
0.0
 11
10.74764496616108
 21
1.304499071579128
 31
0.0
  0
LINE
  5
446
330
1ED
100
AcDbEntity
  8
BASE
100
AcDbLine
 10
10.74764496616108
 20
0.8915955295286481
 30
0.0
 11
11.40249755726161
 21
1.107573194462904
 31
0.0
  0
LINE
  5
447
330
1ED
100
AcDbEntity
  8
BASE
100
AcDbLine
 10
11.40249755726161
 20
0.6639209371190349
 30
0.0
 11
10.74764496616108
 21
0.8915955295286481
 31
0.0
  0
LINE
  5
448
330
1ED
100
AcDbEntity
  8
BASE
100
AcDbLine
 10
10.74764496616108
 20
1.755331964451775
 30
0.0
 11
11.40249755726161
 21
1.797891721771486
 31
0.0
  0
LINE
  5
449
330
1ED
100
AcDbEntity
  8
BASE
100
AcDbLine
 10
11.40249755726161
 20
1.671661771303076
 30
0.0
 11
10.74764496616108
 21
1.755331964451775
 31
0.0
  0
LINE
  5
44A
330
1ED
100
AcDbEntity
  8
BASE
100
AcDbLine
 10
10.74764496616108
 20
1.549730430401727
 30
0.0
 11
11.40249755726161
 21
1.671661771303076
 31
0.0
  0
LINE
  5
44B
330
1ED
100
AcDbEntity
  8
BASE
100
AcDbLine
 10
11.40249755726161
 20
1.393690167321605
 30
0.0
 11
10.74764496616108
 21
1.549730430401727
 31
0.0
  0
LINE
  5
44C
330
1ED
100
AcDbEntity
  8
BASE
100
AcDbLine
 10
10.74764496616108
 20
1.208854746072232
 30
0.0
 11
11.40249755726161
 21
1.393690167321605
 31
0.0
  0
LINE
  5
44D
330
1ED
100
AcDbEntity
  8
BASE
100
AcDbLine
 10
11.40249755726161
 20
1.001518515238604
 30
0.0
 11
10.74764496616108
 21
1.208854746072232
 31
0.0
  0
LINE
  5
44E
330
1ED
100
AcDbEntity
  8
BASE
100
AcDbLine
 10
10.74764496616108
 20
0.778742061489357
 30
0.0
 11
11.40249755726161
 21
1.001518515238604
 31
0.0
  0
LINE
  5
44F
330
1ED
100
AcDbEntity
  8
BASE
100
AcDbLine
 10
11.40249755726161
 20
0.5481117697660203
 30
0.0
 11
10.74764496616108
 21
0.778742061489357
 31
0.0
  0
LINE
  5
450
330
1ED
100
AcDbEntity
  8
BASE
100
AcDbLine
 10
11.40249755726161
 20
1.781874858943757
 30
0.0
 11
10.74764496616108
 21
1.803245902708705
 31
0.0
  0
LINE
  5
451
330
1ED
100
AcDbEntity
  8
BASE
100
AcDbLine
 10
10.74764496616108
 20
1.718489492912588
 30
0.0
 11
11.40249755726161
 21
1.781874858943757
 31
0.0
  0
LINE
  5
452
330
1ED
100
AcDbEntity
  8
BASE
100
AcDbLine
 10
11.40249755726161
 20
1.615248317233022
 30
0.0
 11
10.74764496616108
 21
1.718489492912588
 31
0.0
  0
LINE
  5
453
330
1ED
100
AcDbEntity
  8
BASE
100
AcDbLine
 10
10.74764496616108
 20
1.475667086318684
 30
0.0
 11
11.40249755726161
 21
1.615248317233022
 31
0.0
  0
LINE
  5
454
330
1ED
100
AcDbEntity
  8
BASE
100
AcDbLine
 10
11.40249755726161
 20
1.304499071579128
 30
0.0
 11
10.74764496616108
 21
1.475667086318684
 31
0.0
  0
LINE
  5
455
330
1ED
100
AcDbEntity
  8
BASE
100
AcDbLine
 10
10.74764496616108
 20
1.107573194462904
 30
0.0
 11
11.40249755726161
 21
1.304499071579128
 31
0.0
  0
LINE
  5
456
330
1ED
100
AcDbEntity
  8
BASE
100
AcDbLine
 10
11.40249755726161
 20
0.8915955295286481
 30
0.0
 11
10.74764496616108
 21
1.107573194462904
 31
0.0
  0
LINE
  5
457
330
1ED
100
AcDbEntity
  8
BASE
100
AcDbLine
 10
10.74764496616108
 20
0.6639209371190349
 30
0.0
 11
11.40249755726161
 21
0.8915955295286481
 31
0.0
  0
LINE
  5
458
330
1ED
100
AcDbEntity
  8
BASE
100
AcDbLine
 10
11.40249755726161
 20
1.755331964451775
 30
0.0
 11
10.74764496616108
 21
1.797891721771486
 31
0.0
  0
LINE
  5
459
330
1ED
100
AcDbEntity
  8
BASE
100
AcDbLine
 10
10.74764496616108
 20
1.671661771303076
 30
0.0
 11
11.40249755726161
 21
1.755331964451775
 31
0.0
  0
LINE
  5
45A
330
1ED
100
AcDbEntity
  8
BASE
100
AcDbLine
 10
11.40249755726161
 20
1.549730430401727
 30
0.0
 11
10.74764496616108
 21
1.671661771303076
 31
0.0
  0
LINE
  5
45B
330
1ED
100
AcDbEntity
  8
BASE
100
AcDbLine
 10
10.74764496616108
 20
1.393690167321605
 30
0.0
 11
11.40249755726161
 21
1.549730430401727
 31
0.0
  0
LINE
  5
45C
330
1ED
100
AcDbEntity
  8
BASE
100
AcDbLine
 10
11.40249755726161
 20
1.208854746072232
 30
0.0
 11
10.74764496616108
 21
1.393690167321605
 31
0.0
  0
LINE
  5
45D
330
1ED
100
AcDbEntity
  8
BASE
100
AcDbLine
 10
10.74764496616108
 20
1.001518515238604
 30
0.0
 11
11.40249755726161
 21
1.208854746072232
 31
0.0
  0
LINE
  5
45E
330
1ED
100
AcDbEntity
  8
BASE
100
AcDbLine
 10
11.40249755726161
 20
0.778742061489357
 30
0.0
 11
10.74764496616108
 21
1.001518515238604
 31
0.0
  0
LINE
  5
45F
330
1ED
100
AcDbEntity
  8
BASE
100
AcDbLine
 10
10.74764496616108
 20
0.5481117697660203
 30
0.0
 11
11.40249755726161
 21
0.778742061489357
 31
0.0
  0
LINE
  5
460
330
1ED
100
AcDbEntity
  8
BASE
100
AcDbLine
 10
11.40249755726161
 20
1.803245902708705
 30
0.0
 11
10.74764496616108
 21
1.803245902708705
 31
0.0
  0
LINE
  5
461
330
1ED
100
AcDbEntity
  8
BASE
100
AcDbLine
 10
11.40249755726161
 20
-0.7070223631766619
 30
0.0
 11
10.74764496616108
 21
-0.7070223631766619
 31
0.0
  0
LINE
  5
462
330
1ED
100
AcDbEntity
  8
BASE
100
AcDbLine
 10
10.74764496616108
 20
0.5481117697660203
 30
0.0
 11
11.40249755726161
 21
0.3174814780426836
 31
0.0
  0
LINE
  5
463
330
1ED
100
AcDbEntity
  8
BASE
100
AcDbLine
 10
11.40249755726161
 20
0.3174814780426836
 30
0.0
 11
10.74764496616108
 21
0.0947050242934387
 31
0.0
  0
LINE
  5
464
330
1ED
100
AcDbEntity
  8
BASE
100
AcDbLine
 10
10.74764496616108
 20
0.0947050242934387
 30
0.0
 11
11.40249755726161
 21
-0.1126312065401902
 31
0.0
  0
LINE
  5
465
330
1ED
100
AcDbEntity
  8
BASE
100
AcDbLine
 10
11.40249755726161
 20
-0.1126312065401902
 30
0.0
 11
10.74764496616108
 21
-0.2974666277895634
 31
0.0
  0
LINE
  5
466
330
1ED
100
AcDbEntity
  8
BASE
100
AcDbLine
 10
10.74764496616108
 20
-0.2974666277895634
 30
0.0
 11
11.40249755726161
 21
-0.4535068908696869
 31
0.0
  0
LINE
  5
467
330
1ED
100
AcDbEntity
  8
BASE
100
AcDbLine
 10
11.40249755726161
 20
-0.4535068908696869
 30
0.0
 11
10.74764496616108
 21
-0.5754382317710332
 31
0.0
  0
LINE
  5
468
330
1ED
100
AcDbEntity
  8
BASE
100
AcDbLine
 10
10.74764496616108
 20
-0.5754382317710332
 30
0.0
 11
11.40249755726161
 21
-0.6591084249197335
 31
0.0
  0
LINE
  5
469
330
1ED
100
AcDbEntity
  8
BASE
100
AcDbLine
 10
11.40249755726161
 20
-0.6591084249197335
 30
0.0
 11
10.74764496616108
 21
-0.7016681822394438
 31
0.0
  0
LINE
  5
46A
330
1ED
100
AcDbEntity
  8
BASE
100
AcDbLine
 10
10.74764496616108
 20
0.4323026024130057
 30
0.0
 11
11.40249755726161
 21
0.204628010003395
 31
0.0
  0
LINE
  5
46B
330
1ED
100
AcDbEntity
  8
BASE
100
AcDbLine
 10
11.40249755726161
 20
0.204628010003395
 30
0.0
 11
10.74764496616108
 21
-0.0113496549308616
 31
0.0
  0
LINE
  5
46C
330
1ED
100
AcDbEntity
  8
BASE
100
AcDbLine
 10
10.74764496616108
 20
-0.0113496549308616
 30
0.0
 11
11.40249755726161
 21
-0.2082755320470855
 31
0.0
  0
LINE
  5
46D
330
1ED
100
AcDbEntity
  8
BASE
100
AcDbLine
 10
11.40249755726161
 20
-0.2082755320470855
 30
0.0
 11
10.74764496616108
 21
-0.3794435467866419
 31
0.0
  0
LINE
  5
46E
330
1ED
100
AcDbEntity
  8
BASE
100
AcDbLine
 10
10.74764496616108
 20
-0.3794435467866419
 30
0.0
 11
11.40249755726161
 21
-0.5190247777009791
 31
0.0
  0
LINE
  5
46F
330
1ED
100
AcDbEntity
  8
BASE
100
AcDbLine
 10
11.40249755726161
 20
-0.5190247777009791
 30
0.0
 11
10.74764496616108
 21
-0.6222659533805448
 31
0.0
  0
LINE
  5
470
330
1ED
100
AcDbEntity
  8
BASE
100
AcDbLine
 10
10.74764496616108
 20
-0.6222659533805448
 30
0.0
 11
11.40249755726161
 21
-0.6856513194117145
 31
0.0
  0
LINE
  5
471
330
1ED
100
AcDbEntity
  8
BASE
100
AcDbLine
 10
11.40249755726161
 20
-0.6856513194117145
 30
0.0
 11
10.74764496616108
 21
-0.7070223631766619
 31
0.0
  0
LINE
  5
472
330
1ED
100
AcDbEntity
  8
BASE
100
AcDbLine
 10
11.40249755726161
 20
0.5481117697660203
 30
0.0
 11
10.74764496616108
 21
0.3174814780426836
 31
0.0
  0
LINE
  5
473
330
1ED
100
AcDbEntity
  8
BASE
100
AcDbLine
 10
10.74764496616108
 20
0.3174814780426836
 30
0.0
 11
11.40249755726161
 21
0.0947050242934387
 31
0.0
  0
LINE
  5
474
330
1ED
100
AcDbEntity
  8
BASE
100
AcDbLine
 10
11.40249755726161
 20
0.0947050242934387
 30
0.0
 11
10.74764496616108
 21
-0.1126312065401902
 31
0.0
  0
LINE
  5
475
330
1ED
100
AcDbEntity
  8
BASE
100
AcDbLine
 10
10.74764496616108
 20
-0.1126312065401902
 30
0.0
 11
11.40249755726161
 21
-0.2974666277895634
 31
0.0
  0
LINE
  5
476
330
1ED
100
AcDbEntity
  8
BASE
100
AcDbLine
 10
11.40249755726161
 20
-0.2974666277895634
 30
0.0
 11
10.74764496616108
 21
-0.4535068908696869
 31
0.0
  0
LINE
  5
477
330
1ED
100
AcDbEntity
  8
BASE
100
AcDbLine
 10
10.74764496616108
 20
-0.4535068908696869
 30
0.0
 11
11.40249755726161
 21
-0.5754382317710332
 31
0.0
  0
LINE
  5
478
330
1ED
100
AcDbEntity
  8
BASE
100
AcDbLine
 10
11.40249755726161
 20
-0.5754382317710332
 30
0.0
 11
10.74764496616108
 21
-0.6591084249197335
 31
0.0
  0
LINE
  5
479
330
1ED
100
AcDbEntity
  8
BASE
100
AcDbLine
 10
10.74764496616108
 20
-0.6591084249197335
 30
0.0
 11
11.40249755726161
 21
-0.7016681822394438
 31
0.0
  0
LINE
  5
47A
330
1ED
100
AcDbEntity
  8
BASE
100
AcDbLine
 10
11.40249755726161
 20
0.4323026024130057
 30
0.0
 11
10.74764496616108
 21
0.204628010003395
 31
0.0
  0
LINE
  5
47B
330
1ED
100
AcDbEntity
  8
BASE
100
AcDbLine
 10
10.74764496616108
 20
0.204628010003395
 30
0.0
 11
11.40249755726161
 21
-0.0113496549308616
 31
0.0
  0
LINE
  5
47C
330
1ED
100
AcDbEntity
  8
BASE
100
AcDbLine
 10
11.40249755726161
 20
-0.0113496549308616
 30
0.0
 11
10.74764496616108
 21
-0.2082755320470855
 31
0.0
  0
LINE
  5
47D
330
1ED
100
AcDbEntity
  8
BASE
100
AcDbLine
 10
10.74764496616108
 20
-0.2082755320470855
 30
0.0
 11
11.40249755726161
 21
-0.3794435467866419
 31
0.0
  0
LINE
  5
47E
330
1ED
100
AcDbEntity
  8
BASE
100
AcDbLine
 10
11.40249755726161
 20
-0.3794435467866419
 30
0.0
 11
10.74764496616108
 21
-0.5190247777009791
 31
0.0
  0
LINE
  5
47F
330
1ED
100
AcDbEntity
  8
BASE
100
AcDbLine
 10
10.74764496616108
 20
-0.5190247777009791
 30
0.0
 11
11.40249755726161
 21
-0.6222659533805448
 31
0.0
  0
LINE
  5
480
330
1ED
100
AcDbEntity
  8
BASE
100
AcDbLine
 10
11.40249755726161
 20
-0.6222659533805448
 30
0.0
 11
10.74764496616108
 21
-0.6856513194117145
 31
0.0
  0
LINE
  5
481
330
1ED
100
AcDbEntity
  8
BASE
100
AcDbLine
 10
10.74764496616108
 20
-0.6856513194117145
 30
0.0
 11
11.40249755726161
 21
-0.7070223631766619
 31
0.0
  0
LINE
  5
482
330
1ED
100
AcDbEntity
  8
BASE
100
AcDbLine
 10
11.40249755726161
 20
-0.6591084249197335
 30
0.0
 11
10.74764496616108
 21
-0.7016681822394438
 31
0.0
  0
LINE
  5
483
330
1ED
100
AcDbEntity
  8
BASE
100
AcDbLine
 10
10.74764496616108
 20
0.6639209371190376
 30
0.0
 11
11.40249755726161
 21
0.4323026024130057
 31
0.0
  0
LINE
  5
484
330
1ED
100
AcDbEntity
  8
BASE
100
AcDbLine
 10
11.40249755726161
 20
0.6639209371190376
 30
0.0
 11
10.74764496616108
 21
0.4323026024130057
 31
0.0
  0
LINE
  5
485
330
1ED
100
AcDbEntity
  8
2060
100
AcDbLine
 10
9.930382436429844
 20
-0.6070223631766627
 30
0.0
 11
9.930382436429844
 21
0.167635579289831
 31
0.0
  0
LINE
  5
486
330
1ED
100
AcDbEntity
  8
BASE
100
AcDbLine
 10
10.74764496616108
 20
1.803245902708705
 30
0.0
 11
10.74764496616108
 21
-0.7070223631766619
 31
0.0
  0
LINE
  5
487
330
1ED
100
AcDbEntity
  8
BASE
100
AcDbLine
 10
10.52936076912757
 20
1.6722753844886
 30
0.0
 11
10.52936076912757
 21
-0.5760518449565573
 31
0.0
  0
LINE
  5
488
330
1ED
100
AcDbEntity
  8
BASE
100
AcDbLine
 10
10.70398812675438
 20
1.759589063302003
 30
0.0
 11
10.70398812675438
 21
-0.6633655237699619
 31
0.0
  0
LINE
  5
489
330
1ED
100
AcDbEntity
  8
2060
100
AcDbLine
 10
10.68514496616108
 20
-0.7070223631766633
 30
0.0
 11
9.867882436429844
 21
-0.7070223631766633
 31
0.0
  0
SOLID
  5
48A
330
1ED
100
AcDbEntity
  8
2060
100
AcDbTrace
 10
9.913715769763177
 20
-0.6070223631766627
 30
0.0
 11
9.94704910309651
 21
-0.6070223631766627
 31
0.0
 12
9.930382436429844
 22
-0.7070223631766633
 32
0.0
 13
9.930382436429844
 23
-0.7070223631766633
 33
0.0
  0
LINE
  5
48B
330
1ED
100
AcDbEntity
  8
BASE
100
AcDbLine
 10
10.70398812675438
 20
-0.6633655237699619
 30
0.0
 11
10.74764496616108
 21
-0.7070223631766633
 31
0.0
  0
LINE
  5
48C
330
1ED
100
AcDbEntity
  8
BASE
100
AcDbLine
 10
10.70398812675438
 20
-0.6633655237699619
 30
0.0
 11
10.61667444794097
 21
-0.6633655237699619
 31
0.0
  0
ARC
  5
48D
330
1ED
100
AcDbEntity
  8
BASE
100
AcDbCircle
 10
10.61667444794097
 20
-0.5760518449565573
 30
0.0
 40
0.0873136788134041
100
AcDbArc
 50
180.0
 51
270.0
  0
LINE
  5
48E
330
1ED
100
AcDbEntity
  8
2060
100
AcDbLine
 10
10.52936076912757
 20
1.839455613354624
 30
0.0
 11
10.52936076912757
 21
2.496810563935324
 31
0.0
  0
LINE
  5
48F
330
1ED
100
AcDbEntity
  8
2060
100
AcDbLine
 10
9.930382436429844
 20
1.703245902708705
 30
0.0
 11
9.930382436429844
 21
0.9285879602422113
 31
0.0
  0
MTEXT
  5
490
330
1ED
100
AcDbEntity
  8
2060
100
AcDbMText
 10
9.930382436429844
 20
0.5481117697660212
 30
0.0
 40
0.1
 41
0.0
 71
     5
 72
     1
  1
\A1;2.5 REF
 11
0.0000000000000001
 21
1.0
 31
0.0
 73
     1
 44
1.0
  0
LINE
  5
491
330
1ED
100
AcDbEntity
  8
2060
100
AcDbLine
 10
10.50069843176643
 20
1.803245902708705
 30
0.0
 11
9.867882436429844
 21
1.803245902708705
 31
0.0
  0
SOLID
  5
492
330
1ED
100
AcDbEntity
  8
2060
100
AcDbTrace
 10
9.913715769763179
 20
1.703245902708705
 30
0.0
 11
9.94704910309651
 21
1.703245902708705
 31
0.0
 12
9.930382436429844
 22
1.803245902708705
 32
0.0
 13
9.930382436429844
 23
1.803245902708705
 33
0.0
  0
LINE
  5
493
330
1ED
100
AcDbEntity
  8
BASE
100
AcDbLine
 10
10.70398812675438
 20
1.759589063302003
 30
0.0
 11
10.61667444794097
 21
1.759589063302003
 31
0.0
  0
ARC
  5
494
330
1ED
100
AcDbEntity
  8
BASE
100
AcDbCircle
 10
10.61667444794097
 20
1.6722753844886
 30
0.0
 40
0.0873136788134041
100
AcDbArc
 50
90.0
 51
180.0
  0
LINE
  5
495
330
1ED
100
AcDbEntity
  8
BASE
100
AcDbLine
 10
10.70398812675438
 20
1.759589063302003
 30
0.0
 11
10.74764496616108
 21
1.803245902708705
 31
0.0
  0
SOLID
  5
496
330
1ED
100
AcDbEntity
  8
2060
100
AcDbTrace
 10
10.62936076912757
 20
2.45097723060199
 30
0.0
 11
10.62936076912757
 21
2.417643897268657
 31
0.0
 12
10.52936076912757
 22
2.434310563935324
 32
0.0
 13
10.52936076912757
 23
2.434310563935324
 33
0.0
  0
LINE
  5
497
330
1ED
100
AcDbEntity
  8
2060
100
AcDbLine
 10
16.48274301271988
 20
-0.7368882302339772
 30
0.0
 11
16.48274301271988
 21
0.167635579289831
 31
0.0
  0
LINE
  5
498
330
1ED
100
AcDbEntity
  8
BUMPER
100
AcDbLine
 10
15.51950467643115
 20
-0.8368882302339768
 30
0.0
 11
15.51950467643115
 21
1.93311176976602
 31
0.0
  0
LINE
  5
499
330
1ED
100
AcDbEntity
  8
BUMPER
100
AcDbLine
 10
15.23450467643115
 20
-0.8368882302339768
 30
0.0
 11
15.23450467643115
 21
1.93311176976602
 31
0.0
  0
LINE
  5
49A
330
1ED
100
AcDbEntity
  8
BUMPER
100
AcDbLine
 10
15.04450467643115
 20
-0.1868053496500397
 30
0.0
 11
15.04450467643115
 21
0.037487760184276
 31
0.0
  0
LINE
  5
49B
330
1ED
100
AcDbEntity
  8
HEAD
100
AcDbLine
 10
11.92001285312482
 20
-0.476888230233981
 30
0.0
 11
11.92001285312482
 21
1.573111769766023
 31
0.0
  0
LINE
  5
49C
330
1ED
100
AcDbEntity
  8
HEAD
100
AcDbLine
 10
11.89001285312482
 20
-0.5456382302339789
 30
0.0
 11
11.89001285312482
 21
1.641861769766021
 31
0.0
  0
LINE
  5
49D
330
1ED
100
AcDbEntity
  8
HEAD
100
AcDbLine
 10
11.67001285312482
 20
-0.4856382302339784
 30
0.0
 11
11.67001285312482
 21
1.58186176976602
 31
0.0
  0
LINE
  5
49E
330
1ED
100
AcDbEntity
  8
HEAD
100
AcDbLine
 10
11.73001285312482
 20
1.641861769766021
 30
0.0
 11
11.73001285312482
 21
-0.5456382302339789
 31
0.0
  0
LINE
  5
49F
330
1ED
100
AcDbEntity
  8
HEAD
100
AcDbLine
 10
13.03501285312482
 20
-0.4768882302339792
 30
0.0
 11
13.03501285312482
 21
1.573111769766023
 31
0.0
  0
LINE
  5
4A0
330
1ED
100
AcDbEntity
  8
HEAD
100
AcDbLine
 10
13.61251285312482
 20
1.64561176976602
 30
0.0
 11
13.61251285312482
 21
-0.549388230233979
 31
0.0
  0
LINE
  5
4A1
330
1ED
100
AcDbEntity
  8
BUMPER
100
AcDbLine
 10
13.84929065557905
 20
-0.5981460417790663
 30
0.0
 11
13.84929065557905
 21
1.694395390404867
 31
0.0
  0
TEXT
  5
4A2
330
1ED
100
AcDbEntity
  8
HEAD
100
AcDbText
 10
11.98914411166287
 20
0.8093945515473404
 30
0.0
 40
0.1
  1
DUAL GALL
 50
270.0
 41
1.102801816242051
  7
TXT
 72
     5
 11
11.98914411166287
 21
-0.0991040875473024
 31
0.0
100
AcDbText
  0
LINE
  5
4A3
330
1ED
100
AcDbEntity
  8
HEAD
100
AcDbLine
 10
12.34228543823219
 20
0.0079973194175853
 30
0.0
 11
12.38228543823219
 21
-0.0027206482796593
 31
0.0
  0
LINE
  5
4A4
330
1ED
100
AcDbEntity
  8
HEAD
100
AcDbLine
 10
12.34228543823219
 20
0.0079973194175853
 30
0.0
 11
12.34228543823219
 21
-0.0524720132111205
 31
0.0
  0
LINE
  5
4A5
330
1ED
100
AcDbEntity
  8
BASE
100
AcDbLine
 10
11.40249755726161
 20
1.803245902708705
 30
0.0
 11
11.40249755726161
 21
-0.7070223631766633
 31
0.0
  0
LINE
  5
4A6
330
1ED
100
AcDbEntity
  8
BASE
100
AcDbLine
 10
11.62078175429512
 20
-0.5906041144337593
 30
0.0
 11
11.62078175429512
 21
1.6722753844886
 31
0.0
  0
LINE
  5
4A7
330
1ED
100
AcDbEntity
  8
BASE
100
AcDbLine
 10
11.44615439666831
 20
1.759589063302003
 30
0.0
 11
11.44615439666831
 21
-0.6633655237699619
 31
0.0
  0
LINE
  5
4A8
330
1ED
100
AcDbEntity
  8
HEAD
100
AcDbLine
 10
12.54501285312482
 20
1.573198750172539
 30
0.0
 11
12.54501285312482
 21
-0.4769752106404983
 31
0.0
  0
LINE
  5
4A9
330
1ED
100
AcDbEntity
  8
2060
100
AcDbLine
 10
15.58200467643115
 20
-0.8368882302339768
 30
0.0
 11
16.54524301271988
 21
-0.8368882302339768
 31
0.0
  0
ARC
  5
4AA
330
1ED
100
AcDbEntity
  8
HEAD
100
AcDbCircle
 10
14.19001285312482
 20
1.714404873214295
 30
0.0
 40
2.336293103448274
100
AcDbArc
 50
255.6889169302282
 51
261.5080862789356
  0
LINE
  5
4AB
330
1ED
100
AcDbEntity
  8
HEAD
100
AcDbLine
 10
11.92001285312482
 20
-0.476888230233981
 30
0.0
 11
13.03501285312482
 21
-0.476888230233981
 31
0.0
  0
LINE
  5
4AC
330
1ED
100
AcDbEntity
  8
HEAD
100
AcDbLine
 10
12.16228543823219
 20
-0.0042411585735174
 30
0.0
 11
12.34228543823219
 21
-0.0524720132111205
 31
0.0
  0
LINE
  5
4AD
330
1ED
100
AcDbEntity
  8
HEAD
100
AcDbLine
 10
12.16228543823219
 20
-0.0663577293981228
 30
0.0
 11
12.34228543823219
 21
-0.114588584035725
 31
0.0
  0
LINE
  5
4AE
330
1ED
100
AcDbEntity
  8
HEAD
100
AcDbLine
 10
12.20228543823219
 20
-0.2172820366891766
 30
0.0
 11
12.25228543823219
 21
-0.2306794963107333
 31
0.0
  0
LINE
  5
4AF
330
1ED
100
AcDbEntity
  8
HEAD
100
AcDbLine
 10
12.16228543823219
 20
-0.1444474981673274
 30
0.0
 11
12.38228543823219
 21
-0.2033963205021743
 31
0.0
  0
LINE
  5
4B0
330
1ED
100
AcDbEntity
  8
HEAD
100
AcDbLine
 10
12.16228543823219
 20
-0.2726183588409712
 30
0.0
 11
12.38228543823219
 21
-0.3315671811758185
 31
0.0
  0
LINE
  5
4B1
330
1ED
100
AcDbEntity
  8
HEAD
100
AcDbLine
 10
12.16228543823219
 20
-0.3222921606214362
 30
0.0
 11
12.25228543823219
 21
-0.3464075879402375
 31
0.0
  0
LINE
  5
4B2
330
1ED
100
AcDbEntity
  8
HEAD
100
AcDbLine
 10
12.16228543823219
 20
-0.3923977600330226
 30
0.0
 11
12.23688566157338
 21
-0.374766136320404
 31
0.0
  0
LINE
  5
4B3
330
1ED
100
AcDbEntity
  8
HEAD
100
AcDbLine
 10
12.16228543823219
 20
-0.4277647686023643
 30
0.0
 11
12.25705746565282
 21
-0.4053655766010192
 31
0.0
  0
LINE
  5
4B4
330
1ED
100
AcDbEntity
  8
BASE
100
AcDbLine
 10
11.53346807548172
 20
-0.663365523769961
 30
0.0
 11
11.44615439666831
 21
-0.663365523769961
 31
0.0
  0
LINE
  5
4B5
330
1ED
100
AcDbEntity
  8
BASE
100
AcDbLine
 10
11.44615439666831
 20
-0.6633655237699619
 30
0.0
 11
11.40249755726161
 21
-0.7070223631766633
 31
0.0
  0
LINE
  5
4B6
330
1ED
100
AcDbEntity
  8
HEAD
100
AcDbLine
 10
11.73001285312482
 20
-0.5456382302339789
 30
0.0
 11
11.89001285312482
 21
-0.5456382302339789
 31
0.0
  0
ARC
  5
4B7
330
1ED
100
AcDbEntity
  8
HEAD
100
AcDbCircle
 10
11.73001285312482
 20
-0.4856382302339784
 30
0.0
 40
0.06
100
AcDbArc
 50
180.0
 51
270.0
  0
ARC
  5
4B8
330
1ED
100
AcDbEntity
  8
BASE
100
AcDbCircle
 10
11.53346807548172
 20
-0.5760518449565573
 30
0.0
 40
0.0873136788134041
100
AcDbArc
 50
270.0000000000001
 51
0.0
  0
LINE
  5
4B9
330
1ED
100
AcDbEntity
  8
HEAD
100
AcDbLine
 10
11.89001285312482
 20
-0.5456382302339789
 30
0.0
 11
11.92001285312482
 21
-0.4768882302339792
 31
0.0
  0
LINE
  5
4BA
330
1ED
100
AcDbEntity
  8
BASE
100
AcDbLine
 10
11.668914153253
 20
-0.2843882302339784
 30
0.0
 11
11.62078175429512
 21
-0.2843882302339784
 31
0.0
  0
TEXT
  5
4BB
330
1ED
100
AcDbEntity
  8
HEAD
100
AcDbText
 10
11.98914411166287
 20
-0.1196849126224988
 30
0.0
 40
0.1
  1
ON
 50
270.0
 41
0.7879641883651211
  7
TXT
 72
     5
 11
11.98914411166287
 21
-0.2547644877708053
 31
0.0
100
AcDbText
  0
LINE
  5
4BC
330
1ED
100
AcDbEntity
  8
HEAD
100
AcDbLine
 10
12.16228543823219
 20
-0.1444474981673274
 30
0.0
 11
12.16228543823219
 21
-0.2590334016206381
 31
0.0
  0
LINE
  5
4BD
330
1ED
100
AcDbEntity
  8
HEAD
100
AcDbLine
 10
12.20228543823219
 20
-0.2172820366891766
 30
0.0
 11
12.20228543823219
 21
-0.2697513693178832
 31
0.0
  0
TEXT
  5
4BE
330
1ED
100
AcDbEntity
  8
HEAD
100
AcDbText
 10
11.98914411166287
 20
-0.2842983420619527
 30
0.0
 40
0.1
  1
AGE
 50
270.0
 41
0.5317358966473372
  7
TXT
 72
     5
 11
11.98914411166287
 21
-0.4260945811679094
 31
0.0
100
AcDbText
  0
LINE
  5
4BF
330
1ED
100
AcDbEntity
  8
HEAD
100
AcDbLine
 10
12.16228543823219
 20
-0.2590334016206381
 30
0.0
 11
12.20228543823219
 21
-0.2697513693178832
 31
0.0
  0
LINE
  5
4C0
330
1ED
100
AcDbEntity
  8
HEAD
100
AcDbLine
 10
12.16228543823219
 20
-0.2726183588409712
 30
0.0
 11
12.16228543823219
 21
-0.3222921606214362
 31
0.0
  0
LINE
  5
4C1
330
1ED
100
AcDbEntity
  8
HEAD
100
AcDbLine
 10
12.16228543823219
 20
-0.3923977600330226
 30
0.0
 11
12.16228543823219
 21
-0.4277647686023643
 31
0.0
  0
LINE
  5
4C2
330
1ED
100
AcDbEntity
  8
HEAD
100
AcDbLine
 10
12.16228543823219
 20
-0.0042411585735174
 30
0.0
 11
12.16228543823219
 21
-0.0663577293981228
 31
0.0
  0
LINE
  5
4C3
330
1ED
100
AcDbEntity
  8
HEAD
100
AcDbLine
 10
12.38228543823219
 20
-0.2033963205021743
 30
0.0
 11
12.38228543823219
 21
-0.3179822239554855
 31
0.0
  0
LINE
  5
4C4
330
1ED
100
AcDbEntity
  8
HEAD
100
AcDbLine
 10
12.25228543823219
 20
-0.2306794963107333
 30
0.0
 11
12.25228543823219
 21
-0.283148828939439
 31
0.0
  0
LINE
  5
4C5
330
1ED
100
AcDbEntity
  8
HEAD
100
AcDbLine
 10
12.34228543823219
 20
-0.2547949236295341
 30
0.0
 11
12.34228543823219
 21
-0.3072642562582399
 31
0.0
  0
LINE
  5
4C6
330
1ED
100
AcDbEntity
  8
HEAD
100
AcDbLine
 10
12.25228543823219
 20
-0.283148828939439
 30
0.0
 11
12.29228543823219
 21
-0.2938667966366846
 31
0.0
  0
LINE
  5
4C7
330
1ED
100
AcDbEntity
  8
HEAD
100
AcDbLine
 10
12.29228543823219
 20
-0.2413974640079779
 30
0.0
 11
12.29228543823219
 21
-0.2938667966366846
 31
0.0
  0
LINE
  5
4C8
330
1ED
100
AcDbEntity
  8
HEAD
100
AcDbLine
 10
12.29228543823219
 20
-0.2413974640079779
 30
0.0
 11
12.34228543823219
 21
-0.2547949236295341
 31
0.0
  0
LINE
  5
4C9
330
1ED
100
AcDbEntity
  8
HEAD
100
AcDbLine
 10
12.34228543823219
 20
-0.3072642562582399
 30
0.0
 11
12.38228543823219
 21
-0.3179822239554855
 31
0.0
  0
LINE
  5
4CA
330
1ED
100
AcDbEntity
  8
HEAD
100
AcDbLine
 10
12.38228543823219
 20
-0.3315671811758185
 30
0.0
 11
12.38228543823219
 21
-0.3809198689478554
 31
0.0
  0
LINE
  5
4CB
330
1ED
100
AcDbEntity
  8
HEAD
100
AcDbLine
 10
12.25228543823219
 20
-0.3464075879402375
 30
0.0
 11
12.25228543823219
 21
-0.3553023765291607
 31
0.0
  0
LINE
  5
4CC
330
1ED
100
AcDbEntity
  8
HEAD
100
AcDbLine
 10
12.29228543823219
 20
-0.3571255556374826
 30
0.0
 11
12.29228543823219
 21
-0.380919887166479
 31
0.0
  0
ARC
  5
4CD
330
1ED
100
AcDbEntity
  8
HEAD
100
AcDbCircle
 10
12.31728543823219
 20
-0.3809198956128097
 30
0.0
 40
0.0249999999999999
100
AcDbArc
 50
179.9999617361379
 51
0.0000634253838263
  0
LINE
  5
4CE
330
1ED
100
AcDbEntity
  8
HEAD
100
AcDbLine
 10
12.29228543823219
 20
-0.3571255556374826
 30
0.0
 11
12.34228543823219
 21
-0.3705230152590389
 31
0.0
  0
LINE
  5
4CF
330
1ED
100
AcDbEntity
  8
HEAD
100
AcDbLine
 10
12.34228543823218
 20
-0.3809198679382653
 30
0.0
 11
12.34228543823219
 21
-0.3705230152590389
 31
0.0
  0
ARC
  5
4D0
330
1ED
100
AcDbEntity
  8
HEAD
100
AcDbCircle
 10
12.31728543823219
 20
-0.3809198956128097
 30
0.0
 40
0.0649999999999999
100
AcDbArc
 50
202.0915367369638
 51
0.0000634253838263
  0
ARC
  5
4D1
330
1ED
100
AcDbEntity
  8
HEAD
100
AcDbCircle
 10
12.23228543823219
 20
-0.3553023765291612
 30
0.0
 40
0.02
100
AcDbArc
 50
283.2977291993282
 51
0.0000000000020215
  0
LINE
  5
4D2
330
1ED
100
AcDbEntity
  8
HEAD
100
AcDbLine
 10
12.38228543823219
 20
-0.0027206482796593
 30
0.0
 11
12.38228543823219
 21
-0.1857758843616759
 31
0.0
  0
LINE
  5
4D3
330
1ED
100
AcDbEntity
  8
HEAD
100
AcDbLine
 10
12.34228543823219
 20
-0.1750579166644308
 30
0.0
 11
12.38228543823219
 21
-0.1857758843616759
 31
0.0
  0
LINE
  5
4D4
330
1ED
100
AcDbEntity
  8
HEAD
100
AcDbLine
 10
12.34228543823219
 20
-0.114588584035725
 30
0.0
 11
12.34228543823219
 21
-0.1750579166644308
 31
0.0
  0
ARC
  5
4D5
330
1ED
100
AcDbEntity
  8
HEAD
100
AcDbCircle
 10
13.03501285312482
 20
-2.813181333682259
 30
0.0
 40
2.33629310344828
100
AcDbArc
 50
75.6889169302282
 51
90.00000000000003
  0
ARC
  5
4D6
330
1ED
100
AcDbEntity
  8
BUMPER
100
AcDbCircle
 10
15.18405914121636
 20
-0.6134823421399194
 30
0.0
 40
0.1400072302885865
100
AcDbArc
 50
184.6091004205986
 51
231.1145090851901
  0
LINE
  5
4D7
330
1ED
100
AcDbEntity
  8
BUMPER
100
AcDbLine
 10
13.95843584236407
 20
-0.5924016198940576
 30
0.0
 11
15.04450467643115
 21
-0.6247329373061495
 31
0.0
  0
LINE
  5
4D8
330
1ED
100
AcDbEntity
  8
BUMPER
100
AcDbLine
 10
14.02020717027254
 20
-0.6943486612595065
 30
0.0
 11
15.09633129518953
 21
-0.7283041132477051
 31
0.0
  0
ARC
  5
4D9
330
1ED
100
AcDbEntity
  8
BUMPER
100
AcDbCircle
 10
15.18422306879672
 20
-0.4621675189172905
 30
0.0
 40
0.1400072302885865
100
AcDbArc
 50
184.6091004205986
 51
231.1145090851901
  0
LINE
  5
4DA
330
1ED
100
AcDbEntity
  8
BUMPER
100
AcDbLine
 10
13.96094688061157
 20
-0.4403647807673039
 30
0.0
 11
15.04466860401151
 21
-0.4734181140835206
 31
0.0
  0
LINE
  5
4DB
330
1ED
100
AcDbEntity
  8
BUMPER
100
AcDbLine
 10
14.01068276444251
 20
-0.5394068193422968
 30
0.0
 11
15.09633129518953
 21
-0.5711494470763375
 31
0.0
  0
LINE
  5
4DC
330
1ED
100
AcDbEntity
  8
BUMPER
100
AcDbLine
 10
14.01068276444251
 20
-0.3150475602550151
 30
0.0
 11
15.04845341715813
 21
-0.3421224849113527
 31
0.0
  0
LINE
  5
4DD
330
1ED
100
AcDbEntity
  8
BUMPER
100
AcDbLine
 10
14.01068276444251
 20
-0.1597304249937035
 30
0.0
 11
15.04450467643115
 21
-0.186805349650041
 31
0.0
  0
ARC
  5
4DE
330
1ED
100
AcDbEntity
  8
BUMPER
100
AcDbCircle
 10
13.95483808948793
 20
-0.4742609576583768
 30
0.0
 40
0.0334781603662238
100
AcDbArc
 50
78.12617577815095
 51
187.4599984064925
  0
ARC
  5
4DF
330
1ED
100
AcDbEntity
  8
BUMPER
100
AcDbCircle
 10
14.02318276444251
 20
-0.5943929418666896
 30
0.0
 40
0.1
100
AcDbArc
 50
195.7170325643666
 51
268.2948584353896
  0
ARC
  5
4E0
330
1ED
100
AcDbEntity
  8
BUMPER
100
AcDbCircle
 10
14.01365835861249
 20
-0.4394510999494794
 30
0.0
 40
0.1
100
AcDbArc
 50
203.0518886581975
 51
268.2948584353896
  0
ARC
  5
4E1
330
1ED
100
AcDbEntity
  8
BUMPER
100
AcDbCircle
 10
13.85929065557905
 20
-0.5981460417790663
 30
0.0
 40
0.01
100
AcDbArc
 50
180.0
 51
265.3827039306355
  0
ARC
  5
4E2
330
1ED
100
AcDbEntity
  8
BUMPER
100
AcDbCircle
 10
13.95123128696084
 20
-0.616210072910083
 30
0.0
 40
0.0248746468030096
100
AcDbArc
 50
73.16392583028108
 51
192.2351181549603
  0
LINE
  5
4E3
330
1ED
100
AcDbEntity
  8
BUMPER
100
AcDbLine
 10
13.85848565736248
 20
-0.6081135880102764
 30
0.0
 11
13.92649332118587
 21
-0.6136060178241243
 31
0.0
  0
ARC
  5
4E4
330
1ED
100
AcDbEntity
  8
BUMPER
100
AcDbCircle
 10
13.99593105594536
 20
-0.2362453123371937
 30
0.0
 40
0.0779239429750049
100
AcDbArc
 50
79.08753543938907
 51
187.4349570611508
  0
ARC
  5
4E5
330
1ED
100
AcDbEntity
  8
BUMPER
100
AcDbCircle
 10
14.01365835861249
 20
-0.2150918408621978
 30
0.0
 40
0.1
100
AcDbArc
 50
198.2020416901729
 51
268.2948584353896
  0
LINE
  5
4E6
330
1ED
100
AcDbEntity
  8
BUMPER
100
AcDbLine
 10
15.04450467643115
 20
-0.4734131143194338
 30
0.0
 11
15.04450467643115
 21
-0.3420194642127128
 31
0.0
  0
LINE
  5
4E7
330
1ED
100
AcDbEntity
  8
BUMPER
100
AcDbLine
 10
15.23450467643115
 20
-0.8368882302339768
 30
0.0
 11
15.51950467643115
 21
-0.8368882302339768
 31
0.0
  0
ARC
  5
4E8
330
1ED
100
AcDbEntity
  8
BUMPER
100
AcDbCircle
 10
15.23450467643115
 20
-0.6468882302339769
 30
0.0
 40
0.19
100
AcDbArc
 50
205.0151310802963
 51
270.0
  0
LINE
  5
4E9
330
1ED
100
AcDbEntity
  8
BUMPER
100
AcDbLine
 10
15.04450467643115
 20
-0.6247329373061495
 30
0.0
 11
15.04450467643115
 21
-0.5701622618945899
 31
0.0
  0
ARC
  5
4EA
330
1ED
100
AcDbEntity
  8
BUMPER
100
AcDbCircle
 10
15.36254835003193
 20
-0.0874863843028204
 30
0.0
 40
0.3331906889382101
100
AcDbArc
 50
197.342587395097
 51
215.6276651342796
  0
ARC
  5
4EB
330
1ED
100
AcDbEntity
  8
BUMPER
100
AcDbCircle
 10
15.00859386689513
 20
-0.2649981121677447
 30
0.0
 40
0.0868156242750327
100
AcDbArc
 50
297.3309025091432
 51
348.7226092607421
  0
SOLID
  5
4EC
330
1ED
100
AcDbEntity
  8
2060
100
AcDbTrace
 10
16.46607634605321
 20
-0.7368882302339772
 30
0.0
 11
16.49940967938654
 21
-0.7368882302339772
 31
0.0
 12
16.48274301271988
 22
-0.8368882302339768
 32
0.0
 13
16.48274301271988
 23
-0.8368882302339768
 33
0.0
  0
MTEXT
  5
4F2
330
1ED
100
AcDbEntity
  8
2060
100
AcDbMText
 10
16.48274301271988
 20
0.5481117697660229
 30
0.0
 40
0.1
 41
0.0
 71
     5
 72
     1
  1
\A1;2.8 REF
 11
0.0000000000000001
 21
1.0
 31
0.0
 73
     1
 44
1.0
  0
LINE
  5
4F3
330
1ED
100
AcDbEntity
  8
2060
100
AcDbLine
 10
15.58200467643115
 20
1.93311176976602
 30
0.0
 11
16.54524301271988
 21
1.93311176976602
 31
0.0
  0
LINE
  5
4F4
330
1ED
100
AcDbEntity
  8
2060
100
AcDbLine
 10
15.41950467643115
 20
2.434310563935324
 30
0.0
 11
13.33348034182698
 21
2.434310563935324
 31
0.0
  0
ARC
  5
4F5
330
1ED
100
AcDbEntity
  8
HEAD
100
AcDbCircle
 10
14.19001285312482
 20
-0.6181813336822533
 30
0.0
 40
2.336293103448274
100
AcDbArc
 50
98.49191372106442
 51
104.3110830697718
  0
TEXT
  5
4F6
330
1ED
100
AcDbEntity
  8
2060
100
AcDbText
 10
12.1627029711264
 20
1.129782085561
 30
0.0
 40
0.25
  1
0
 50
270.0
 41
0.7844698002537013
  7
COMPLEX
 72
     5
 11
12.1627029711264
 21
0.9990371188520503
 31
0.0
100
AcDbText
  0
TEXT
  5
4F7
330
1ED
100
AcDbEntity
  8
2060
100
AcDbText
 10
12.1627029711264
 20
1.455246001384961
 30
0.0
 40
0.25
  1
2
 50
270.0
 41
0.3605235357964354
  7
COMPLEX
 72
     5
 11
12.1627029711264
 21
1.395158745418888
 31
0.0
100
AcDbText
  0
TEXT
  5
4F8
330
1ED
100
AcDbEntity
  8
2060
100
AcDbText
 10
12.1627029711264
 20
1.533233630742865
 30
0.0
 40
0.25
  1
F
 50
270.0
 41
0.398887340507262
  7
COMPLEX
 72
     5
 11
12.1627029711264
 21
1.47150106614055
 31
0.0
100
AcDbText
  0
TEXT
  5
4F9
330
1ED
100
AcDbEntity
  8
2060
100
AcDbText
 10
12.1627029711264
 20
1.262324837261745
 30
0.0
 40
0.25
  1
6
 50
270.0
 41
0.6853424684096139
  7
COMPLEX
 72
     5
 11
12.1627029711264
 21
1.156259931436448
 31
0.0
100
AcDbText
  0
TEXT
  5
4FA
330
1ED
100
AcDbEntity
  8
2060
100
AcDbText
 10
12.1627029711264
 20
1.376954562821229
 30
0.0
 40
0.25
  1
0
 50
270.0
 41
0.5462658650931367
  7
COMPLEX
 72
     5
 11
12.1627029711264
 21
1.285910251972373
 31
0.0
100
AcDbText
  0
LINE
  5
4FB
330
1ED
100
AcDbEntity
  8
HEAD
100
AcDbLine
 10
11.92001285312482
 20
1.573111769766023
 30
0.0
 11
13.03501285312482
 21
1.573111769766023
 31
0.0
  0
LINE
  5
4FC
330
1ED
100
AcDbEntity
  8
HEAD
100
AcDbLine
 10
12.16228543823219
 20
0.8116334287256243
 30
0.0
 11
12.40228543823219
 21
0.7473256225421557
 31
0.0
  0
LINE
  5
4FD
330
1ED
100
AcDbEntity
  8
HEAD
100
AcDbLine
 10
12.16228543823219
 20
0.7236349533907678
 30
0.0
 11
12.40228543823219
 21
0.6593271472072982
 31
0.0
  0
LINE
  5
4FE
330
1ED
100
AcDbEntity
  8
HEAD
100
AcDbLine
 10
12.16228543823219
 20
0.3549038606822634
 30
0.0
 11
12.38228543823219
 21
0.295955038347417
 31
0.0
  0
LINE
  5
4FF
330
1ED
100
AcDbEntity
  8
HEAD
100
AcDbLine
 10
12.16228543823219
 20
0.2927872898576584
 30
0.0
 11
12.38228543823219
 21
0.233838467522812
 31
0.0
  0
ARC
  5
500
330
1ED
100
AcDbEntity
  8
HEAD
100
AcDbCircle
 10
12.22228543823219
 20
0.1497473644340026
 30
0.0
 40
0.02
100
AcDbArc
 50
179.9999999999996
 51
333.8044242138898
  0
ARC
  5
501
330
1ED
100
AcDbEntity
  8
HEAD
100
AcDbCircle
 10
12.22828543823219
 20
0.1643976658960033
 30
0.0
 40
0.026
100
AcDbArc
 50
92.20422750397379
 51
179.9999999999994
  0
ARC
  5
502
330
1ED
100
AcDbEntity
  8
HEAD
100
AcDbCircle
 10
12.24417225282992
 20
0.1735575324795366
 30
0.0
 40
0.0819016366383692
100
AcDbArc
 50
101.8988234605281
 51
178.9099362692127
  0
ARC
  5
503
330
1ED
100
AcDbEntity
  8
HEAD
100
AcDbCircle
 10
12.22207220415914
 20
0.1153339641081734
 30
0.0
 40
0.065
100
AcDbArc
 50
257.3794005925553
 51
333.8044242138898
  0
LINE
  5
504
330
1ED
100
AcDbEntity
  8
HEAD
100
AcDbLine
 10
12.38228543823219
 20
0.6096585437572007
 30
0.0
 11
12.16228543823219
 21
0.6087630634414519
 31
0.0
  0
LINE
  5
505
330
1ED
100
AcDbEntity
  8
HEAD
100
AcDbLine
 10
12.31728543823219
 20
0.4757949030636706
 30
0.0
 11
12.16228543823219
 21
0.5280556278278344
 31
0.0
  0
LINE
  5
506
330
1ED
100
AcDbEntity
  8
HEAD
100
AcDbLine
 10
12.38228543823219
 20
0.3142954704009231
 30
0.0
 11
12.16228543823219
 21
0.4015433753211895
 31
0.0
  0
LINE
  5
507
330
1ED
100
AcDbEntity
  8
HEAD
100
AcDbLine
 10
12.31728543823219
 20
0.4757949030636706
 30
0.0
 11
12.16228543823219
 21
0.483285604359077
 31
0.0
  0
LINE
  5
508
330
1ED
100
AcDbEntity
  8
HEAD
100
AcDbLine
 10
12.16228543823219
 20
0.483285604359077
 30
0.0
 11
12.16228543823219
 21
0.4015433753211895
 31
0.0
  0
LINE
  5
509
330
1ED
100
AcDbEntity
  8
HEAD
100
AcDbLine
 10
12.16228543823219
 20
0.1751156335935091
 30
0.0
 11
12.16228543823219
 21
0.1139370822483423
 31
0.0
  0
LINE
  5
50A
330
1ED
100
AcDbEntity
  8
HEAD
100
AcDbLine
 10
12.20228543823219
 20
0.1643976658960042
 30
0.0
 11
12.20228543823219
 21
0.1497473644340026
 31
0.0
  0
ARC
  5
50B
330
1ED
100
AcDbEntity
  8
HEAD
100
AcDbCircle
 10
12.22728543823219
 20
0.1139370822483423
 30
0.0
 40
0.065
100
AcDbArc
 50
180.0
 51
252.6205994074383
  0
LINE
  5
50C
330
1ED
100
AcDbEntity
  8
HEAD
100
AcDbLine
 10
12.16228543823219
 20
0.3549038606822634
 30
0.0
 11
12.16228543823219
 21
0.2927872898576584
 31
0.0
  0
LINE
  5
50D
330
1ED
100
AcDbEntity
  8
HEAD
100
AcDbLine
 10
12.16228543823219
 20
0.6087630634414519
 30
0.0
 11
12.16228543823219
 21
0.5280556278278344
 31
0.0
  0
LINE
  5
50E
330
1ED
100
AcDbEntity
  8
HEAD
100
AcDbLine
 10
12.16228543823219
 20
0.8116334287256243
 30
0.0
 11
12.16228543823219
 21
0.7236349533907678
 31
0.0
  0
LINE
  5
50F
330
1ED
100
AcDbEntity
  8
BASE
100
AcDbLine
 10
11.53346807548172
 20
1.759589063302001
 30
0.0
 11
11.44615439666831
 21
1.759589063302001
 31
0.0
  0
LINE
  5
510
330
1ED
100
AcDbEntity
  8
BASE
100
AcDbLine
 10
11.44615439666831
 20
1.759589063302003
 30
0.0
 11
11.40249755726161
 21
1.803245902708705
 31
0.0
  0
TEXT
  5
511
330
1ED
100
AcDbEntity
  8
2060
100
AcDbText
 10
12.01263369140364
 20
1.420538996295785
 30
0.0
 40
0.0587780732262404
  1
/
 50
279.196655891629
  7
SIMPLEX
100
AcDbText
  0
LINE
  5
512
330
1ED
100
AcDbEntity
  8
BASE
100
AcDbLine
 10
11.66451935376573
 20
1.380611769766021
 30
0.0
 11
11.62078175429512
 21
1.380611769766021
 31
0.0
  0
TEXT
  5
513
330
1ED
100
AcDbEntity
  8
2060
100
AcDbText
 10
12.00067136162434
 20
1.269240623212535
 30
0.0
 40
0.08
  1
GPM
 50
270.0
 41
0.6617531143948292
  7
SIMPLEX
 72
     5
 11
12.00067136162434
 21
1.123024696984344
 31
0.0
100
AcDbText
  0
TEXT
  5
514
330
1ED
100
AcDbEntity
  8
2060
100
AcDbText
 10
12.00067136162434
 20
1.376769193963821
 30
0.0
 40
0.08
  1
60
 50
270.0
 41
0.5282987934638749
  7
SIMPLEX
 72
     5
 11
12.00067136162434
 21
1.308341921667548
 31
0.0
100
AcDbText
  0
LINE
  5
515
330
1ED
100
AcDbEntity
  8
HEAD
100
AcDbLine
 10
11.73001285312482
 20
1.641861769766021
 30
0.0
 11
11.89001285312482
 21
1.641861769766021
 31
0.0
  0
ARC
  5
516
330
1ED
100
AcDbEntity
  8
HEAD
100
AcDbCircle
 10
11.73001285312482
 20
1.58186176976602
 30
0.0
 40
0.06
100
AcDbArc
 50
90.0
 51
180.0
  0
ARC
  5
517
330
1ED
100
AcDbEntity
  8
BASE
100
AcDbCircle
 10
11.53346807548172
 20
1.6722753844886
 30
0.0
 40
0.0873136788134041
100
AcDbArc
 50
0.0
 51
89.99999999999998
  0
LINE
  5
518
330
1ED
100
AcDbEntity
  8
HEAD
100
AcDbLine
 10
11.89001285312482
 20
1.641861769766021
 30
0.0
 11
11.92001285312482
 21
1.573111769766021
 31
0.0
  0
TEXT
  5
519
330
1ED
100
AcDbEntity
  8
2060
100
AcDbText
 10
12.00067136162434
 20
1.468718341111937
 30
0.0
 40
0.08
  1
20
 50
270.0
 41
0.330186745914921
  7
SIMPLEX
 72
     5
 11
12.00067136162434
 21
1.425951295926767
 31
0.0
100
AcDbText
  0
LINE
  5
51A
330
1ED
100
AcDbEntity
  8
HEAD
100
AcDbLine
 10
12.38228543823219
 20
0.5066446553583824
 30
0.0
 11
12.38228543823219
 21
0.4225952875543673
 31
0.0
  0
LINE
  5
51B
330
1ED
100
AcDbEntity
  8
HEAD
100
AcDbLine
 10
12.22728543823219
 20
0.2536993666037031
 30
0.0
 11
12.22728543823219
 21
0.1903784280095246
 31
0.0
  0
LINE
  5
51C
330
1ED
100
AcDbEntity
  8
HEAD
100
AcDbLine
 10
12.38228543823219
 20
0.295955038347417
 30
0.0
 11
12.38228543823219
 21
0.233838467522812
 31
0.0
  0
ARC
  5
51D
330
1ED
100
AcDbEntity
  8
HEAD
100
AcDbCircle
 10
12.32249867230525
 20
0.1608941056984161
 30
0.0
 40
0.065
100
AcDbArc
 50
77.37940059255929
 51
153.8044242138896
  0
LINE
  5
51E
330
1ED
100
AcDbEntity
  8
HEAD
100
AcDbLine
 10
12.31728543823219
 20
0.0858496417970667
 30
0.0
 11
12.31728543823219
 21
0.0225287032028891
 31
0.0
  0
LINE
  5
51F
330
1ED
100
AcDbEntity
  8
HEAD
100
AcDbLine
 10
12.38228543823219
 20
0.1622909875582463
 30
0.0
 11
12.38228543823219
 21
0.0932946855666535
 31
0.0
  0
LINE
  5
520
330
1ED
100
AcDbEntity
  8
HEAD
100
AcDbLine
 10
12.34228543823219
 20
0.1264807053725896
 30
0.0
 11
12.34228543823219
 21
0.1118304039105844
 31
0.0
  0
LINE
  5
521
330
1ED
100
AcDbEntity
  8
HEAD
100
AcDbLine
 10
12.30433958905618
 20
0.1353094367283303
 30
0.0
 11
12.28039621398117
 21
0.0866405872020151
 31
0.0
  0
LINE
  5
522
330
1ED
100
AcDbEntity
  8
HEAD
100
AcDbLine
 10
12.26417466248322
 20
0.1895874826045745
 30
0.0
 11
12.2402312874082
 21
0.140918633078261
 31
0.0
  0
ARC
  5
523
330
1ED
100
AcDbEntity
  8
HEAD
100
AcDbCircle
 10
12.31628543823219
 20
0.1118304039105835
 30
0.0
 40
0.026
100
AcDbArc
 50
272.2042275039719
 51
0.0000000000003422
  0
ARC
  5
524
330
1ED
100
AcDbEntity
  8
HEAD
100
AcDbCircle
 10
12.32228543823219
 20
0.1264807053725896
 30
0.0
 40
0.02
100
AcDbArc
 50
0.0
 51
153.8044242138898
  0
ARC
  5
525
330
1ED
100
AcDbEntity
  8
HEAD
100
AcDbCircle
 10
12.3070080915837
 20
0.0972035608900468
 30
0.0
 40
0.0753787650783102
100
AcDbArc
 50
277.8362706495211
 51
357.0275109197058
  0
ARC
  5
526
330
1ED
100
AcDbEntity
  8
HEAD
100
AcDbCircle
 10
12.31728543823219
 20
0.1622909875582463
 30
0.0
 40
0.065
100
AcDbArc
 50
359.9999999999996
 51
72.62059940744331
  0
LINE
  5
527
330
1ED
100
AcDbEntity
  8
HEAD
100
AcDbLine
 10
12.38228543823219
 20
0.3680838705380029
 30
0.0
 11
12.22575780882229
 21
0.4301598147568689
 31
0.0
  0
LINE
  5
528
330
1ED
100
AcDbEntity
  8
HEAD
100
AcDbLine
 10
12.38228543823219
 20
0.4225952875543673
 30
0.0
 11
12.22575780882229
 21
0.4301598147568689
 31
0.0
  0
LINE
  5
529
330
1ED
100
AcDbEntity
  8
HEAD
100
AcDbLine
 10
12.38228543823219
 20
0.3680838705380029
 30
0.0
 11
12.38228543823219
 21
0.3142954704009231
 31
0.0
  0
LINE
  5
52A
330
1ED
100
AcDbEntity
  8
HEAD
100
AcDbLine
 10
12.46228543823219
 20
0.8166589558801202
 30
0.0
 11
12.46228543823219
 21
0.5578399107775987
 31
0.0
  0
LINE
  5
52B
330
1ED
100
AcDbEntity
  8
HEAD
100
AcDbLine
 10
12.38228543823219
 20
0.6096585437572007
 30
0.0
 11
12.38228543823219
 21
0.5596581295621199
 31
0.0
  0
LINE
  5
52C
330
1ED
100
AcDbEntity
  8
HEAD
100
AcDbLine
 10
12.38228543823219
 20
0.5066446553583824
 30
0.0
 11
12.22692837527522
 21
0.5590257695994368
 31
0.0
  0
LINE
  5
52D
330
1ED
100
AcDbEntity
  8
HEAD
100
AcDbLine
 10
12.38228543823219
 20
0.5596581295621199
 30
0.0
 11
12.22692837527522
 21
0.5590257695994368
 31
0.0
  0
LINE
  5
52E
330
1ED
100
AcDbEntity
  8
HEAD
100
AcDbLine
 10
12.40228543823219
 20
0.5739168623234665
 30
0.0
 11
12.46228543823219
 21
0.5578399107775987
 31
0.0
  0
LINE
  5
52F
330
1ED
100
AcDbEntity
  8
HEAD
100
AcDbLine
 10
12.40228543823219
 20
0.6593271472072982
 30
0.0
 11
12.40228543823219
 21
0.5739168623234665
 31
0.0
  0
LINE
  5
530
330
1ED
100
AcDbEntity
  8
HEAD
100
AcDbLine
 10
12.40228543823219
 20
0.8327359074259872
 30
0.0
 11
12.46228543823219
 21
0.8166589558801202
 31
0.0
  0
LINE
  5
531
330
1ED
100
AcDbEntity
  8
HEAD
100
AcDbLine
 10
12.40228543823219
 20
0.8327359074259872
 30
0.0
 11
12.40228543823219
 21
0.7473256225421557
 31
0.0
  0
ARC
  5
532
330
1ED
100
AcDbEntity
  8
HEAD
100
AcDbCircle
 10
13.03501285312482
 20
3.909404873214301
 30
0.0
 40
2.33629310344828
100
AcDbArc
 50
270.0
 51
284.3110830697718
  0
LINE
  5
533
330
1ED
100
AcDbEntity
  8
HEAD
100
AcDbLine
 10
13.61251285312482
 20
1.496589950166386
 30
0.0
 11
13.61251285312482
 21
1.645611769766021
 31
0.0
  0
MTEXT
  5
534
330
1ED
100
AcDbEntity
  8
2060
100
AcDbMText
 10
13.02443272277936
 20
2.434310563935324
 30
0.0
 40
0.1
 41
0.0
 71
     5
 72
     1
  1
\A1;5 REF
 73
     1
 44
1.0
  0
ARC
  5
535
330
1ED
100
AcDbEntity
  8
BUMPER
100
AcDbCircle
 10
15.23450467643115
 20
1.743111769766021
 30
0.0
 40
0.19
100
AcDbArc
 50
90.0
 51
154.9848689197036
  0
LINE
  5
536
330
1ED
100
AcDbEntity
  8
BUMPER
100
AcDbLine
 10
14.02020717027254
 20
1.790572200791551
 30
0.0
 11
15.09633129518953
 21
1.82452765277975
 31
0.0
  0
ARC
  5
537
330
1ED
100
AcDbEntity
  8
BUMPER
100
AcDbCircle
 10
15.00863694816106
 20
0.5481117697660212
 30
0.0
 40
0.0875
100
AcDbArc
 50
270.0
 51
90.00000000000005
  0
LINE
  5
538
330
1ED
100
AcDbEntity
  8
BUMPER
100
AcDbLine
 10
14.01068276444251
 20
1.255953964525746
 30
0.0
 11
15.04450467643115
 21
1.283028889182083
 31
0.0
  0
LINE
  5
539
330
1ED
100
AcDbEntity
  8
BUMPER
100
AcDbLine
 10
14.01068276444251
 20
1.411271099787057
 30
0.0
 11
15.04845341715813
 21
1.438346024443394
 31
0.0
  0
LINE
  5
53A
330
1ED
100
AcDbEntity
  8
BUMPER
100
AcDbLine
 10
14.01068276444251
 20
1.635630358874339
 30
0.0
 11
15.09633129518953
 21
1.667372986608379
 31
0.0
  0
LINE
  5
53B
330
1ED
100
AcDbEntity
  8
BUMPER
100
AcDbLine
 10
13.96094688061157
 20
1.536588320299346
 30
0.0
 11
15.04466860401151
 21
1.569641653615562
 31
0.0
  0
LINE
  5
53C
330
1ED
100
AcDbEntity
  8
BUMPER
100
AcDbLine
 10
13.95843584236407
 20
1.688625159426101
 30
0.0
 11
15.04450467643115
 21
1.720956476838193
 31
0.0
  0
ARC
  5
53D
330
1ED
100
AcDbEntity
  8
BUMPER
100
AcDbCircle
 10
15.00413080597378
 20
0.978010495030122
 30
0.0
 40
0.0902586336251138
100
AcDbArc
 50
285.6932392476571
 51
75.82014617957032
  0
ARC
  5
53E
330
1ED
100
AcDbEntity
  8
BUMPER
100
AcDbCircle
 10
15.18422306879672
 20
1.558391058449332
 30
0.0
 40
0.1400072302885865
100
AcDbArc
 50
128.8854909148099
 51
175.3908995794014
  0
ARC
  5
53F
330
1ED
100
AcDbEntity
  8
BUMPER
100
AcDbCircle
 10
15.18405914121636
 20
1.709705881671963
 30
0.0
 40
0.1400072302885865
100
AcDbArc
 50
128.8854909148099
 51
175.3908995794014
  0
ARC
  5
540
330
1ED
100
AcDbEntity
  8
BUMPER
100
AcDbCircle
 10
15.00413080597378
 20
0.1182130445019203
 30
0.0
 40
0.0902586336251138
100
AcDbArc
 50
284.1798538204297
 51
74.30676075234294
  0
ARC
  5
541
330
1ED
100
AcDbEntity
  8
BUMPER
100
AcDbCircle
 10
14.01068276444251
 20
0.9709560892803974
 30
0.0
 40
0.0875
100
AcDbArc
 50
90.00000000000005
 51
270.0
  0
LINE
  5
542
330
1ED
100
AcDbEntity
  8
BUMPER
100
AcDbLine
 10
14.01068276444251
 20
0.6356117697660207
 30
0.0
 11
15.00863694816106
 21
0.6356117697660207
 31
0.0
  0
LINE
  5
543
330
1ED
100
AcDbEntity
  8
BUMPER
100
AcDbLine
 10
14.01068276444251
 20
0.4606117697660208
 30
0.0
 11
15.00863694816106
 21
0.4606117697660217
 31
0.0
  0
LINE
  5
544
330
1ED
100
AcDbEntity
  8
BUMPER
100
AcDbLine
 10
14.01068276444251
 20
0.883456089280397
 30
0.0
 11
15.02624114728559
 21
0.8905190874707971
 31
0.0
  0
LINE
  5
545
330
1ED
100
AcDbEntity
  8
BUMPER
100
AcDbLine
 10
14.01068276444251
 20
0.0377674502516454
 30
0.0
 11
15.02624114728559
 21
0.0307044520612454
 31
0.0
  0
LINE
  5
546
330
1ED
100
AcDbEntity
  8
BUMPER
100
AcDbLine
 10
14.01068276444251
 20
0.2127674502516452
 30
0.0
 11
15.02624114728559
 21
0.2057044520612452
 31
0.0
  0
ARC
  5
547
330
1ED
100
AcDbEntity
  8
BUMPER
100
AcDbCircle
 10
14.01068276444251
 20
0.5481117697660212
 30
0.0
 40
0.0875
100
AcDbArc
 50
90.00000000000005
 51
270.0
  0
ARC
  5
548
330
1ED
100
AcDbEntity
  8
BUMPER
100
AcDbCircle
 10
14.01068276444251
 20
0.1252674502516449
 30
0.0
 40
0.0875
100
AcDbArc
 50
90.00000000000003
 51
270.0
  0
LINE
  5
549
330
1ED
100
AcDbEntity
  8
BUMPER
100
AcDbLine
 10
14.01068276444251
 20
1.058456089280396
 30
0.0
 11
15.02624114728559
 21
1.065519087470796
 31
0.0
  0
ARC
  5
54A
330
1ED
100
AcDbEntity
  8
BUMPER
100
AcDbCircle
 10
14.01365835861249
 20
1.31131538039424
 30
0.0
 40
0.1
100
AcDbArc
 50
91.70514156461045
 51
161.7979583098271
  0
ARC
  5
54B
330
1ED
100
AcDbEntity
  8
BUMPER
100
AcDbCircle
 10
13.99593105594536
 20
1.332468851869236
 30
0.0
 40
0.0779239429750049
100
AcDbArc
 50
172.5650429388492
 51
280.9124645606109
  0
ARC
  5
54C
330
1ED
100
AcDbEntity
  8
BUMPER
100
AcDbCircle
 10
14.02318276444251
 20
1.690616481398733
 30
0.0
 40
0.1
100
AcDbArc
 50
91.70514156461045
 51
164.2829674356334
  0
ARC
  5
54D
330
1ED
100
AcDbEntity
  8
BUMPER
100
AcDbCircle
 10
14.01365835861249
 20
1.535674639481522
 30
0.0
 40
0.1
100
AcDbArc
 50
91.70514156461045
 51
156.9481113418025
  0
ARC
  5
54E
330
1ED
100
AcDbEntity
  8
BUMPER
100
AcDbCircle
 10
13.95483808948793
 20
1.570484497190419
 30
0.0
 40
0.0334781603662238
100
AcDbArc
 50
172.5400015935075
 51
281.8738242218491
  0
ARC
  5
54F
330
1ED
100
AcDbEntity
  8
BUMPER
100
AcDbCircle
 10
13.85929065557905
 20
1.694395390404867
 30
0.0
 40
0.01
100
AcDbArc
 50
98.72795348780021
 51
180.0
  0
LINE
  5
550
330
1ED
100
AcDbEntity
  8
BUMPER
100
AcDbLine
 10
13.85777322488887
 20
1.704279590124647
 30
0.0
 11
13.92649332118587
 21
1.709829557356168
 31
0.0
  0
ARC
  5
551
330
1ED
100
AcDbEntity
  8
BUMPER
100
AcDbCircle
 10
13.95123128696084
 20
1.712433612442127
 30
0.0
 40
0.0248746468030096
100
AcDbArc
 50
167.7648818450397
 51
286.8360741697189
  0
LINE
  5
552
330
1ED
100
AcDbEntity
  8
BUMPER
100
AcDbLine
 10
15.04450467643115
 20
0.1989383288195645
 30
0.0
 11
15.04450467643115
 21
0.4683010181798935
 31
0.0
  0
LINE
  5
553
330
1ED
100
AcDbEntity
  8
BUMPER
100
AcDbLine
 10
15.04450467643115
 20
0.8972852107124777
 30
0.0
 11
15.04450467643115
 21
0.6279225213521489
 31
0.0
  0
ARC
  5
554
330
1ED
100
AcDbEntity
  8
BUMPER
100
AcDbCircle
 10
15.00859386689513
 20
1.361221651699787
 30
0.0
 40
0.0868156242750327
100
AcDbArc
 50
11.27739073925792
 51
62.66909749085682
  0
LINE
  5
555
330
1ED
100
AcDbEntity
  8
BUMPER
100
AcDbLine
 10
15.04450467643115
 20
1.283028889182082
 30
0.0
 11
15.04450467643115
 21
1.058735779347766
 31
0.0
  0
ARC
  5
556
330
1ED
100
AcDbEntity
  8
BUMPER
100
AcDbCircle
 10
15.36254835003193
 20
1.183709923834863
 30
0.0
 40
0.3331906889382101
100
AcDbArc
 50
144.3723348657204
 51
162.657412604903
  0
LINE
  5
557
330
1ED
100
AcDbEntity
  8
BUMPER
100
AcDbLine
 10
15.04450467643115
 20
1.569636653851476
 30
0.0
 11
15.04450467643115
 21
1.438243003744755
 31
0.0
  0
LINE
  5
558
330
1ED
100
AcDbEntity
  8
BUMPER
100
AcDbLine
 10
15.04450467643115
 20
1.720956476838193
 30
0.0
 11
15.04450467643115
 21
1.666385801426634
 31
0.0
  0
LINE
  5
559
330
1ED
100
AcDbEntity
  8
BUMPER
100
AcDbLine
 10
15.09616736760917
 20
1.81868780983101
 30
0.0
 11
15.09633129518953
 21
1.82452765277975
 31
0.0
  0
LINE
  5
55A
330
1ED
100
AcDbEntity
  8
2060
100
AcDbLine
 10
15.51950467643115
 20
1.99561176976602
 30
0.0
 11
15.51950467643115
 21
2.496810563935324
 31
0.0
  0
LINE
  5
55B
330
1ED
100
AcDbEntity
  8
BUMPER
100
AcDbLine
 10
15.23450467643115
 20
1.93311176976602
 30
0.0
 11
15.51950467643115
 21
1.93311176976602
 31
0.0
  0
SOLID
  5
55C
330
1ED
100
AcDbEntity
  8
2060
100
AcDbTrace
 10
15.41950467643115
 20
2.45097723060199
 30
0.0
 11
15.41950467643115
 21
2.417643897268657
 31
0.0
 12
15.51950467643115
 22
2.434310563935324
 32
0.0
 13
15.51950467643115
 23
2.434310563935324
 33
0.0
  0
SOLID
  5
55D
330
1ED
100
AcDbEntity
  8
2060
100
AcDbTrace
 10
16.46607634605321
 20
1.83311176976602
 30
0.0
 11
16.49940967938654
 21
1.83311176976602
 31
0.0
 12
16.48274301271988
 22
1.93311176976602
 32
0.0
 13
16.48274301271988
 23
1.93311176976602
 33
0.0
  0
LINE
  5
55E
330
1ED
100
AcDbEntity
  8
2060
100
AcDbLine
 10
16.48274301271988
 20
1.83311176976602
 30
0.0
 11
16.48274301271988
 21
0.9285879602422122
 31
0.0
  0
ENDSEC
  0
SECTION
  2
OBJECTS
  0
DICTIONARY
  5
1E2
330
0
100
AcDbDictionary
281
     1
  3
ACAD_COLOR
350
564
  3
ACAD_GROUP
350
1E3
  3
ACAD_LAYOUT
350
3D8
  3
ACAD_MATERIAL
350
563
  3
ACAD_MLINESTYLE
350
1F0
  3
ACAD_PLOTSETTINGS
350
3D7
  3
ACAD_PLOTSTYLENAME
350
3D5
  3
ACAD_TABLESTYLE
350
565
  3
ACDBVARIABLEDICTIONARY
350
205
  0
DICTIONARY
  5
564
102
{ACAD_REACTORS
330
1E2
102
}
330
1E2
100
AcDbDictionary
281
     1
  0
DICTIONARY
  5
1E3
102
{ACAD_REACTORS
330
1E2
102
}
330
1E2
100
AcDbDictionary
281
     1
  0
DICTIONARY
  5
3D8
102
{ACAD_REACTORS
330
1E2
102
}
330
1E2
100
AcDbDictionary
281
     1
  3
Layout1
350
3DA
  3
Model
350
3D9
  0
DICTIONARY
  5
563
102
{ACAD_REACTORS
330
1E2
102
}
330
1E2
100
AcDbDictionary
281
     1
  0
DICTIONARY
  5
1F0
102
{ACAD_REACTORS
330
1E2
102
}
330
1E2
100
AcDbDictionary
281
     1
  3
STANDARD
350
1F1
  0
DICTIONARY
  5
3D7
102
{ACAD_REACTORS
330
1E2
102
}
330
1E2
100
AcDbDictionary
281
     1
  0
ACDBDICTIONARYWDFLT
  5
3D5
102
{ACAD_REACTORS
330
1E2
102
}
330
1E2
100
AcDbDictionary
281
     1
  3
Normal
350
3D6
100
AcDbDictionaryWithDefault
340
3D6
  0
DICTIONARY
  5
565
102
{ACAD_REACTORS
330
1E2
102
}
330
1E2
100
AcDbDictionary
281
     1
  3
Standard
350
566
  0
DICTIONARY
  5
205
102
{ACAD_REACTORS
330
1E2
102
}
330
1E2
100
AcDbDictionary
281
     1
  3
CTABLESTYLE
350
56B
  3
DIMADEC
350
206
  3
DIMASSOC
350
560
  0
LAYOUT
  5
3DA
102
{ACAD_REACTORS
330
3D8
102
}
330
3D8
100
AcDbPlotSettings
  1

  2

  4

  6

 40
0.0
 41
0.0
 42
0.0
 43
0.0
 44
0.0
 45
0.0
 46
0.0
 47
0.0
 48
0.0
 49
0.0
140
0.0
141
0.0
142
1.0
143
1.0
 70
   688
 72
     0
 73
     0
 74
     5
  7
monochrome.ctb
 75
    16
147
1.0
 76
     0
 77
     2
 78
   300
148
0.0
149
0.0
100
AcDbLayout
  1
Layout1
 70
     0
 71
     1
 10
0.0
 20
0.0
 11
12.0
 21
9.0
 12
0.0
 22
0.0
 32
0.0
 14
1.000000000000000E+20
 24
1.000000000000000E+20
 34
1.000000000000000E+20
 15
-1.000000000000000E+20
 25
-1.000000000000000E+20
 35
-1.000000000000000E+20
146
0.0
 13
0.0
 23
0.0
 33
0.0
 16
1.0
 26
0.0
 36
0.0
 17
0.0
 27
1.0
 37
0.0
 76
     0
330
1EA
  0
LAYOUT
  5
3D9
102
{ACAD_REACTORS
330
3D8
102
}
330
3D8
100
AcDbPlotSettings
  1

  2
hpgl.pc3
  4
ANSI_A_(11.00_x_8.50_Inches)
  6

 40
11.5657377243042
 41
9.699920654296875
 42
11.59060668945312
 43
9.737228393554687
 44
279.3999938964844
 45
215.8999938964844
 46
0.0
 47
1.27
 48
-2.59375
 49
-4.012500000000002
140
7.856249999999999
141
3.887499999999999
142
1.0
143
1.035850061204705
 70
 11956
 72
     0
 73
     0
 74
     4
  7
monochrome.ctb
 75
     0
147
0.9653906848612704
 76
     0
 77
     2
 78
   300
148
65.88124999999999
149
101.9175
100
AcDbLayout
  1
Model
 70
     1
 71
     0
 10
0.0
 20
0.0
 11
12.0
 21
9.0
 12
0.0
 22
0.0
 32
0.0
 14
0.0
 24
0.0
 34
0.0
 15
0.0
 25
0.0
 35
0.0
146
0.0
 13
0.0
 23
0.0
 33
0.0
 16
1.0
 26
0.0
 36
0.0
 17
0.0
 27
1.0
 37
0.0
 76
     0
330
1ED
  0
MLINESTYLE
  5
1F1
102
{ACAD_REACTORS
330
1F0
102
}
330
1F0
100
AcDbMlineStyle
  2
STANDARD
 70
     0
  3

 62
   256
 51
90.0
 52
90.0
 71
     2
 49
0.5
 62
   256
  6
BYLAYER
 49
-0.5
 62
   256
  6
BYLAYER
  0
ACDBPLACEHOLDER
  5
3D6
102
{ACAD_REACTORS
330
3D5
102
}
330
3D5
  0
TABLESTYLE
  5
566
102
{ACAD_REACTORS
330
565
102
}
330
565
100
AcDbTableStyle
  3
Standard
 70
     0
 71
     0
 40
0.06
 41
0.06
280
     0
281
     0
  7
STANDARD
140
0.18
170
     2
 62
     0
 63
     7
283
     0
274
    -2
284
     1
 64
     0
275
    -2
285
     1
 65
     0
276
    -2
286
     1
 66
     0
277
    -2
287
     1
 67
     0
278
    -2
288
     1
 68
     0
279
    -2
289
     1
 69
     0
  7
STANDARD
140
0.25
170
     5
 62
     0
 63
     7
283
     0
274
    -2
284
     1
 64
     0
275
    -2
285
     1
 65
     0
276
    -2
286
     1
 66
     0
277
    -2
287
     1
 67
     0
278
    -2
288
     1
 68
     0
279
    -2
289
     1
 69
     0
  7
STANDARD
140
0.18
170
     5
 62
     0
 63
     7
283
     0
274
    -2
284
     1
 64
     0
275
    -2
285
     1
 65
     0
276
    -2
286
     1
 66
     0
277
    -2
287
     1
 67
     0
278
    -2
288
     1
 68
     0
279
    -2
289
     1
 69
     0
  0
DICTIONARYVAR
  5
56B
102
{ACAD_REACTORS
330
205
102
}
330
205
100
DictionaryVariables
280
     0
  1
STANDARD
  0
DICTIONARYVAR
  5
206
102
{ACAD_REACTORS
330
205
102
}
330
205
100
DictionaryVariables
280
     0
  1
0
  0
DICTIONARYVAR
  5
560
102
{ACAD_REACTORS
330
205
102
}
330
205
100
DictionaryVariables
280
     0
  1
0
  0
ENDSEC
  0
EOF
