  0
SECTION
  2
HEADER
  9
$ACADVER
  1
AC1018
  9
$ACADMAINTVER
 70
    39
  9
$DWGCODEPAGE
  3
ANSI_1252
  9
$INSBASE
 10
0.0
 20
0.0
 30
0.0
  9
$EXTMIN
 10
-6.84375
 20
-3.981250000000002
 30
0.0
  9
$EXTMAX
 10
3.606249999999999
 20
3.918749999999999
 30
1.0
  9
$LIMMIN
 10
-7.09375
 20
-4.1875
  9
$LIMMAX
 10
3.90625
 20
4.25
  9
$ORTHOMODE
 70
     0
  9
$REGENMODE
 70
     1
  9
$FILLMODE
 70
     1
  9
$QTEXTMODE
 70
     0
  9
$MIRRTEXT
 70
     0
  9
$LTSCALE
 40
0.2
  9
$ATTMODE
 70
     1
  9
$TEXTSIZE
 40
0.08
  9
$TRACEWID
 40
0.05
  9
$TEXTSTYLE
  7
STANDARD
  9
$CLAYER
  8
DIM
  9
$CELTYPE
  6
ByLayer
  9
$CECOLOR
 62
   256
  9
$CELTSCALE
 40
1.0
  9
$DISPSILH
 70
     0
  9
$DIMSCALE
 40
1.0
  9
$DIMASZ
 40
0.1
  9
$DIMEXO
 40
0.0625
  9
$DIMDLI
 40
0.375
  9
$DIMRND
 40
0.0
  9
$DIMDLE
 40
0.0
  9
$DIMEXE
 40
0.0625
  9
$DIMTP
 40
0.0
  9
$DIMTM
 40
0.0
  9
$DIMTXT
 40
0.1
  9
$DIMCEN
 40
0.09
  9
$DIMTSZ
 40
0.0
  9
$DIMTOL
 70
     0
  9
$DIMLIM
 70
     0
  9
$DIMTIH
 70
     1
  9
$DIMTOH
 70
     1
  9
$DIMSE1
 70
     0
  9
$DIMSE2
 70
     0
  9
$DIMTAD
 70
     0
  9
$DIMZIN
 70
     4
  9
$DIMBLK
  1

  9
$DIMASO
 70
     0
  9
$DIMSHO
 70
     1
  9
$DIMPOST
  1

  9
$DIMAPOST
  1

  9
$DIMALT
 70
     0
  9
$DIMALTD
 70
     2
  9
$DIMALTF
 40
25.4
  9
$DIMLFAC
 40
1.0
  9
$DIMTOFL
 70
     0
  9
$DIMTVP
 40
0.0
  9
$DIMTIX
 70
     1
  9
$DIMSOXD
 70
     0
  9
$DIMSAH
 70
     0
  9
$DIMBLK1
  1

  9
$DIMBLK2
  1

  9
$DIMSTYLE
  2
Standard
  9
$DIMCLRD
 70
     0
  9
$DIMCLRE
 70
     0
  9
$DIMCLRT
 70
     0
  9
$DIMTFAC
 40
1.0
  9
$DIMGAP
 40
0.09
  9
$DIMJUST
 70
     0
  9
$DIMSD1
 70
     0
  9
$DIMSD2
 70
     0
  9
$DIMTOLJ
 70
     1
  9
$DIMTZIN
 70
     4
  9
$DIMALTZ
 70
     4
  9
$DIMALTTZ
 70
     4
  9
$DIMUPT
 70
     0
  9
$DIMDEC
 70
     3
  9
$DIMTDEC
 70
     3
  9
$DIMALTU
 70
     2
  9
$DIMALTTD
 70
     2
  9
$DIMTXSTY
  7
STANDARD
  9
$DIMAUNIT
 70
     0
  9
$DIMADEC
 70
     0
  9
$DIMALTRND
 40
0.0
  9
$DIMAZIN
 70
     0
  9
$DIMDSEP
 70
    46
  9
$DIMATFIT
 70
     3
  9
$DIMFRAC
 70
     0
  9
$DIMLDRBLK
  1

  9
$DIMLUNIT
 70
     2
  9
$DIMLWD
 70
    -2
  9
$DIMLWE
 70
    -2
  9
$DIMTMOVE
 70
     2
  9
$LUNITS
 70
     2
  9
$LUPREC
 70
     3
  9
$SKETCHINC
 40
0.1
  9
$FILLETRAD
 40
0.125
  9
$AUNITS
 70
     0
  9
$AUPREC
 70
     0
  9
$MENU
  1
acad
  9
$ELEVATION
 40
0.0
  9
$PELEVATION
 40
0.0
  9
$THICKNESS
 40
0.0
  9
$LIMCHECK
 70
     0
  9
$CHAMFERA
 40
0.0
  9
$CHAMFERB
 40
0.0
  9
$CHAMFERC
 40
0.0
  9
$CHAMFERD
 40
0.0
  9
$SKPOLY
 70
     0
  9
$TDCREATE
 40
2447699.683623958
  9
$TDUCREATE
 40
2447699.891957292
  9
$TDUPDATE
 40
2453297.594437743
  9
$TDUUPDATE
 40
2453297.802771077
  9
$TDINDWG
 40
0.0272081019
  9
$TDUSRTIMER
 40
0.0272081019
  9
$USRTIMER
 70
     1
  9
$ANGBASE
 50
0.0
  9
$ANGDIR
 70
     0
  9
$PDMODE
 70
     0
  9
$PDSIZE
 40
0.0
  9
$PLINEWID
 40
0.0
  9
$SPLFRAME
 70
     0
  9
$SPLINETYPE
 70
     6
  9
$SPLINESEGS
 70
     8
  9
$HANDSEED
  5
418
  9
$SURFTAB1
 70
     6
  9
$SURFTAB2
 70
     6
  9
$SURFTYPE
 70
     6
  9
$SURFU
 70
     6
  9
$SURFV
 70
     6
  9
$UCSBASE
  2

  9
$UCSNAME
  2

  9
$UCSORG
 10
0.0
 20
0.0
 30
0.0
  9
$UCSXDIR
 10
1.0
 20
0.0
 30
0.0
  9
$UCSYDIR
 10
0.0
 20
1.0
 30
0.0
  9
$UCSORTHOREF
  2

  9
$UCSORTHOVIEW
 70
     0
  9
$UCSORGTOP
 10
0.0
 20
0.0
 30
0.0
  9
$UCSORGBOTTOM
 10
0.0
 20
0.0
 30
0.0
  9
$UCSORGLEFT
 10
0.0
 20
0.0
 30
0.0
  9
$UCSORGRIGHT
 10
0.0
 20
0.0
 30
0.0
  9
$UCSORGFRONT
 10
0.0
 20
0.0
 30
0.0
  9
$UCSORGBACK
 10
0.0
 20
0.0
 30
0.0
  9
$PUCSBASE
  2

  9
$PUCSNAME
  2

  9
$PUCSORG
 10
0.0
 20
0.0
 30
0.0
  9
$PUCSXDIR
 10
1.0
 20
0.0
 30
0.0
  9
$PUCSYDIR
 10
0.0
 20
1.0
 30
0.0
  9
$PUCSORTHOREF
  2

  9
$PUCSORTHOVIEW
 70
     0
  9
$PUCSORGTOP
 10
0.0
 20
0.0
 30
0.0
  9
$PUCSORGBOTTOM
 10
0.0
 20
0.0
 30
0.0
  9
$PUCSORGLEFT
 10
0.0
 20
0.0
 30
0.0
  9
$PUCSORGRIGHT
 10
0.0
 20
0.0
 30
0.0
  9
$PUCSORGFRONT
 10
0.0
 20
0.0
 30
0.0
  9
$PUCSORGBACK
 10
0.0
 20
0.0
 30
0.0
  9
$USERI1
 70
     0
  9
$USERI2
 70
     0
  9
$USERI3
 70
     0
  9
$USERI4
 70
     0
  9
$USERI5
 70
     0
  9
$USERR1
 40
0.0
  9
$USERR2
 40
0.0
  9
$USERR3
 40
0.0
  9
$USERR4
 40
0.0
  9
$USERR5
 40
0.0
  9
$WORLDVIEW
 70
     1
  9
$SHADEDGE
 70
     3
  9
$SHADEDIF
 70
    70
  9
$TILEMODE
 70
     1
  9
$MAXACTVP
 70
    16
  9
$PINSBASE
 10
0.0
 20
0.0
 30
0.0
  9
$PLIMCHECK
 70
     0
  9
$PEXTMIN
 10
1.000000000000000E+20
 20
1.000000000000000E+20
 30
1.000000000000000E+20
  9
$PEXTMAX
 10
-1.000000000000000E+20
 20
-1.000000000000000E+20
 30
-1.000000000000000E+20
  9
$PLIMMIN
 10
0.0
 20
0.0
  9
$PLIMMAX
 10
12.0
 20
9.0
  9
$UNITMODE
 70
     0
  9
$VISRETAIN
 70
     0
  9
$PLINEGEN
 70
     1
  9
$PSLTSCALE
 70
     0
  9
$TREEDEPTH
 70
  3020
  9
$CMLSTYLE
  2
Standard
  9
$CMLJUST
 70
     0
  9
$CMLSCALE
 40
1.0
  9
$PROXYGRAPHICS
 70
     0
  9
$MEASUREMENT
 70
     0
  9
$CELWEIGHT
370
    -1
  9
$ENDCAPS
280
     0
  9
$JOINSTYLE
280
     0
  9
$LWDISPLAY
290
     0
  9
$INSUNITS
 70
     0
  9
$HYPERLINKBASE
  1

  9
$STYLESHEET
  1
monochrome.ctb
  9
$XEDIT
290
     1
  9
$CEPSNTYPE
380
     0
  9
$PSTYLEMODE
290
     1
  9
$FINGERPRINTGUID
  2
{23ACB7E4-4E77-11D3-9C30-006008208A1C}
  9
$VERSIONGUID
  2
{EF3EC601-B227-11D3-92C5-0050DA2B1973}
  9
$EXTNAMES
290
     1
  9
$PSVPSCALE
 40
0.0
  9
$OLESTARTUP
290
     0
  9
$SORTENTS
280
   127
  9
$INDEXCTL
280
     0
  9
$HIDETEXT
280
     0
  9
$XCLIPFRAME
290
     0
  9
$HALOGAP
280
     0
  9
$OBSCOLOR
 70
   257
  9
$OBSLTYPE
280
     0
  9
$INTERSECTIONDISPLAY
280
     0
  9
$INTERSECTIONCOLOR
 70
   257
  9
$DIMASSOC
280
     0
  9
$PROJECTNAME
  1

  0
ENDSEC
  0
SECTION
  2
CLASSES
  0
CLASS
  1
ACDBDICTIONARYWDFLT
  2
AcDbDictionaryWithDefault
  3
ObjectDBX Classes
 90
        0
 91
        1
280
     0
281
     0
  0
CLASS
  1
TABLESTYLE
  2
AcDbTableStyle
  3
ObjectDBX Classes
 90
     2047
 91
        1
280
     0
281
     0
  0
CLASS
  1
DICTIONARYVAR
  2
AcDbDictionaryVar
  3
ObjectDBX Classes
 90
        0
 91
        1
280
     0
281
     0
  0
ENDSEC
  0
SECTION
  2
TABLES
  0
TABLE
  2
VPORT
  5
8
330
0
100
AcDbSymbolTable
 70
     2
  0
VPORT
  5
417
330
8
100
AcDbSymbolTableRecord
100
AcDbViewportTableRecord
  2
*Active
 70
     0
 10
0.0
 20
0.0
 11
1.0
 21
1.0
 12
-1.618507359671354
 22
0.4571718273598684
 13
0.0
 23
0.0
 14
0.03125
 24
0.03125
 15
0.125
 25
0.125
 16
0.0
 26
0.0
 36
1.0
 17
0.0
 27
0.0
 37
0.0
 40
8.960622613278818
 41
1.551499348109517
 42
50.0
 43
0.0
 44
0.0
 50
0.0
 51
0.0
 71
     0
 72
  7500
 73
     1
 74
     0
 75
     0
 76
     0
 77
     0
 78
     0
281
     0
 65
     1
110
0.0
120
0.0
130
0.0
111
1.0
121
0.0
131
0.0
112
0.0
122
1.0
132
0.0
 79
     0
146
0.0
  0
ENDTAB
  0
TABLE
  2
LTYPE
  5
5
330
0
100
AcDbSymbolTable
 70
     4
  0
LTYPE
  5
13
330
5
100
AcDbSymbolTableRecord
100
AcDbLinetypeTableRecord
  2
ByBlock
 70
     0
  3

 72
    65
 73
     0
 40
0.0
  0
LTYPE
  5
14
330
5
100
AcDbSymbolTableRecord
100
AcDbLinetypeTableRecord
  2
ByLayer
 70
     0
  3

 72
    65
 73
     0
 40
0.0
  0
LTYPE
  5
15
330
5
100
AcDbSymbolTableRecord
100
AcDbLinetypeTableRecord
  2
CONTINUOUS
 70
     0
  3
Solid line
 72
    65
 73
     0
 40
0.0
  0
LTYPE
  5
210
330
5
100
AcDbSymbolTableRecord
100
AcDbLinetypeTableRecord
  2
CENTER
 70
     0
  3
Center ____ _ ____ _ ____ _ ____ _ ____ _ ____
 72
    65
 73
     4
 40
2.0
 49
1.25
 74
     0
 49
-0.25
 74
     0
 49
0.25
 74
     0
 49
-0.25
 74
     0
  0
LTYPE
  5
211
330
5
100
AcDbSymbolTableRecord
100
AcDbLinetypeTableRecord
  2
HIDDEN
 70
     0
  3
Hidden __ __ __ __ __ __ __ __ __ __ __ __ __ _
 72
    65
 73
     2
 40
0.375
 49
0.25
 74
     0
 49
-0.125
 74
     0
  0
LTYPE
  5
212
330
5
100
AcDbSymbolTableRecord
100
AcDbLinetypeTableRecord
  2
PHANTOM
 70
     0
  3
Phantom ______  __  __  ______  __  __  ______
 72
    65
 73
     6
 40
2.5
 49
1.25
 74
     0
 49
-0.25
 74
     0
 49
0.25
 74
     0
 49
-0.25
 74
     0
 49
0.25
 74
     0
 49
-0.25
 74
     0
  0
ENDTAB
  0
TABLE
  2
LAYER
  5
2
330
0
100
AcDbSymbolTable
 70
    10
  0
LAYER
  5
10
330
2
100
AcDbSymbolTableRecord
100
AcDbLayerTableRecord
  2
0
 70
     0
 62
    15
  6
CONTINUOUS
370
    -3
390
F
  0
LAYER
  5
2A
330
2
100
AcDbSymbolTableRecord
100
AcDbLayerTableRecord
  2
1
 70
     0
 62
    15
  6
CONTINUOUS
370
    -3
390
F
  0
LAYER
  5
2B
330
2
100
AcDbSymbolTableRecord
100
AcDbLayerTableRecord
  2
8
 70
     0
 62
    15
  6
CONTINUOUS
370
    -3
390
F
  0
LAYER
  5
2C
330
2
100
AcDbSymbolTableRecord
100
AcDbLayerTableRecord
  2
PART
 70
     0
 62
     1
  6
CONTINUOUS
370
    -3
390
F
  0
LAYER
  5
2D
330
2
100
AcDbSymbolTableRecord
100
AcDbLayerTableRecord
  2
DIM
 70
     0
 62
     2
  6
CONTINUOUS
370
    -3
390
F
  0
LAYER
  5
213
330
2
100
AcDbSymbolTableRecord
100
AcDbLayerTableRecord
  2
CENTER
 70
     0
 62
     5
  6
CENTER
370
    -3
390
F
  0
LAYER
  5
214
330
2
100
AcDbSymbolTableRecord
100
AcDbLayerTableRecord
  2
HIDDEN
 70
     0
 62
     3
  6
HIDDEN
370
    -3
390
F
  0
LAYER
  5
215
330
2
100
AcDbSymbolTableRecord
100
AcDbLayerTableRecord
  2
PHANTOM
 70
     0
 62
     6
  6
PHANTOM
370
    -3
390
F
  0
LAYER
  5
216
330
2
100
AcDbSymbolTableRecord
100
AcDbLayerTableRecord
  2
TRIM
 70
     0
 62
     1
  6
CONTINUOUS
370
    -3
390
F
  0
LAYER
  5
217
330
2
100
AcDbSymbolTableRecord
100
AcDbLayerTableRecord
  2
SOLID
 70
     0
 62
     5
  6
CONTINUOUS
370
    -3
390
F
  0
ENDTAB
  0
TABLE
  2
STYLE
  5
3
330
0
100
AcDbSymbolTable
 70
     5
  0
STYLE
  5
11
330
3
100
AcDbSymbolTableRecord
100
AcDbTextStyleTableRecord
  2
STANDARD
 70
     0
 40
0.0
 41
1.0
 50
0.0
 71
     0
 42
0.08
  3
C:\ACADWIN\FONTS\SIMPLEX.SHX
  4

  0
STYLE
  5
218
330
3
100
AcDbSymbolTableRecord
100
AcDbTextStyleTableRecord
  2

 70
     1
 40
0.0
 41
1.0
 50
0.0
 71
     0
 42
0.2
  3
ltypeshp.shx
  4

  0
STYLE
  5
219
330
3
100
AcDbSymbolTableRecord
100
AcDbTextStyleTableRecord
  2
ROMAND
 70
     0
 40
0.0
 41
1.0
 50
0.0
 71
     0
 42
0.1
  3
romand.shx
  4

  0
STYLE
  5
21A
330
3
100
AcDbSymbolTableRecord
100
AcDbTextStyleTableRecord
  2
SIMPLEX
 70
     0
 40
0.0
 41
1.0
 50
0.0
 71
     0
 42
0.2
  3
SIMPLEX.shx
  4

  0
STYLE
  5
21B
330
3
100
AcDbSymbolTableRecord
100
AcDbTextStyleTableRecord
  2
SCRIPT
 70
     0
 40
0.0
 41
0.95
 50
0.0
 71
     0
 42
0.09
  3
scripts.shx
  4

  0
ENDTAB
  0
TABLE
  2
VIEW
  5
6
330
0
100
AcDbSymbolTable
 70
     0
  0
ENDTAB
  0
TABLE
  2
UCS
  5
7
330
0
100
AcDbSymbolTable
 70
     0
  0
ENDTAB
  0
TABLE
  2
APPID
  5
9
330
0
100
AcDbSymbolTable
 70
     2
  0
APPID
  5
12
330
9
100
AcDbSymbolTableRecord
100
AcDbRegAppTableRecord
  2
ACAD
 70
     0
  0
APPID
  5
413
330
9
100
AcDbSymbolTableRecord
100
AcDbRegAppTableRecord
  2
DCO15
 70
     0
  0
ENDTAB
  0
TABLE
  2
DIMSTYLE
  5
A
330
0
100
AcDbSymbolTable
 70
     2
100
AcDbDimStyleTable
 71
     0
  0
DIMSTYLE
105
E8
330
A
100
AcDbSymbolTableRecord
100
AcDbDimStyleTableRecord
  2
Standard
 70
     0
340
11
  0
DIMSTYLE
105
2B2
330
A
100
AcDbSymbolTableRecord
100
AcDbDimStyleTableRecord
  2
STDANG
 70
     0
 41
0.1
 43
0.375
 44
0.0625
 73
     0
 74
     0
 78
     5
140
0.1
141
0.05
147
0.075
271
     3
272
     2
284
     5
340
11
  0
ENDTAB
  0
TABLE
  2
BLOCK_RECORD
  5
1
330
0
100
AcDbSymbolTable
 70
    23
  0
BLOCK_RECORD
  5
1E
330
1
100
AcDbSymbolTableRecord
100
AcDbBlockTableRecord
  2
*Model_Space
340
21
  0
BLOCK_RECORD
  5
1A
330
1
100
AcDbSymbolTableRecord
100
AcDbBlockTableRecord
  2
*Paper_Space
340
1D
  0
BLOCK_RECORD
  5
22
330
1
100
AcDbSymbolTableRecord
100
AcDbBlockTableRecord
  2
1_5_THD
340
0
102
{BLKREFS
331
D5
102
}
  0
BLOCK_RECORD
  5
23
330
1
100
AcDbSymbolTableRecord
100
AcDbBlockTableRecord
  2
THREADS
340
0
102
{BLKREFS
331
33
102
}
  0
BLOCK_RECORD
  5
24
330
1
100
AcDbSymbolTableRecord
100
AcDbBlockTableRecord
  2
LTHREAD
340
0
102
{BLKREFS
331
65
331
66
331
67
331
68
331
69
102
}
  0
BLOCK_RECORD
  5
25
330
1
100
AcDbSymbolTableRecord
100
AcDbBlockTableRecord
  2
UTHREAD
340
0
102
{BLKREFS
331
6A
331
6B
331
6C
331
6D
102
}
  0
BLOCK_RECORD
  5
26
330
1
100
AcDbSymbolTableRecord
100
AcDbBlockTableRecord
  2
1_083_KN
340
0
102
{BLKREFS
331
A6
331
A7
331
A8
331
A9
102
}
  0
BLOCK_RECORD
  5
27
330
1
100
AcDbSymbolTableRecord
100
AcDbBlockTableRecord
  2
PART_FOR_SCALE
340
0
  0
BLOCK_RECORD
  5
28
330
1
100
AcDbSymbolTableRecord
100
AcDbBlockTableRecord
  2
TB_A
340
0
  0
BLOCK_RECORD
  5
EB
330
1
100
AcDbSymbolTableRecord
100
AcDbBlockTableRecord
  2
A$C435B465C
340
0
  0
BLOCK_RECORD
  5
162
330
1
100
AcDbSymbolTableRecord
100
AcDbBlockTableRecord
  2
A$C4FB65283
340
0
102
{BLKREFS
331
21D
331
173
102
}
  0
BLOCK_RECORD
  5
166
330
1
100
AcDbSymbolTableRecord
100
AcDbBlockTableRecord
  2
A$C2BBE0097
340
0
  0
BLOCK_RECORD
  5
16A
330
1
100
AcDbSymbolTableRecord
100
AcDbBlockTableRecord
  2
A$C10236829
340
0
  0
BLOCK_RECORD
  5
16E
330
1
100
AcDbSymbolTableRecord
100
AcDbBlockTableRecord
  2
A$C794932C0
340
0
  0
BLOCK_RECORD
  5
172
330
1
100
AcDbSymbolTableRecord
100
AcDbBlockTableRecord
  2
TEST
340
0
  0
BLOCK_RECORD
  5
1F0
330
1
100
AcDbSymbolTableRecord
100
AcDbBlockTableRecord
  2
A$C56887695
340
0
  0
BLOCK_RECORD
  5
1F4
330
1
100
AcDbSymbolTableRecord
100
AcDbBlockTableRecord
  2
A$C406F4052
340
0
  0
BLOCK_RECORD
  5
1F8
330
1
100
AcDbSymbolTableRecord
100
AcDbBlockTableRecord
  2
A$C217D2A32
340
0
  0
BLOCK_RECORD
  5
1FC
330
1
100
AcDbSymbolTableRecord
100
AcDbBlockTableRecord
  2
A$C26835032
340
0
  0
BLOCK_RECORD
  5
200
330
1
100
AcDbSymbolTableRecord
100
AcDbBlockTableRecord
  2
A$C11730435
340
0
  0
BLOCK_RECORD
  5
204
330
1
100
AcDbSymbolTableRecord
100
AcDbBlockTableRecord
  2
A$C740A492C
340
0
  0
BLOCK_RECORD
  5
208
330
1
100
AcDbSymbolTableRecord
100
AcDbBlockTableRecord
  2
A$C251463E3
340
0
  0
BLOCK_RECORD
  5
20C
330
1
100
AcDbSymbolTableRecord
100
AcDbBlockTableRecord
  2
A$C46507260
340
0
  0
BLOCK_RECORD
  5
21C
330
1
100
AcDbSymbolTableRecord
100
AcDbBlockTableRecord
  2
tft_aprlist
340
0
102
{BLKREFS
331
2A5
102
}
  0
BLOCK_RECORD
  5
2B3
330
1
100
AcDbSymbolTableRecord
100
AcDbBlockTableRecord
  2
rvsn_blk
340
0
102
{BLKREFS
331
2B9
102
}
  0
ENDTAB
  0
ENDSEC
  0
SECTION
  2
BLOCKS
  0
BLOCK
  5
30
330
1E
100
AcDbEntity
  8
0
100
AcDbBlockBegin
  2
*Model_Space
 70
     0
 10
0.0
 20
0.0
 30
0.0
  3
*Model_Space
  1

  0
ENDBLK
  5
31
330
1E
100
AcDbEntity
  8
0
100
AcDbBlockEnd
  0
BLOCK
  5
2E
330
1A
100
AcDbEntity
 67
     1
  8
0
100
AcDbBlockBegin
  2
*Paper_Space
 70
     0
 10
0.0
 20
0.0
 30
0.0
  3
*Paper_Space
  1

  0
ENDBLK
  5
2F
330
1A
100
AcDbEntity
 67
     1
  8
0
100
AcDbBlockEnd
  0
BLOCK
  5
32
330
22
100
AcDbEntity
  8
0
100
AcDbBlockBegin
  2
1_5_THD
 70
     0
 10
7.211106625702896
 20
11.88977079547028
 30
0.0
  3
1_5_THD
  1

  0
INSERT
  5
33
330
22
100
AcDbEntity
  8
1
100
AcDbBlockReference
  2
THREADS
 10
6.45797118105362
 20
11.98910860912914
 30
0.0
  0
ENDBLK
  5
34
330
22
100
AcDbEntity
  8
0
100
AcDbBlockEnd
  0
BLOCK
  5
35
330
23
100
AcDbEntity
  8
0
100
AcDbBlockBegin
  2
THREADS
 70
     0
 10
0.0
 20
0.0
 30
0.0
  3
THREADS
  1

  0
LINE
  5
36
330
23
100
AcDbEntity
  8
8
100
AcDbLine
 10
0.7158136846958059
 20
0.752566162819345
 30
0.0
 11
0.7584159814292769
 21
0.7525661628193492
 31
0.0
  0
LINE
  5
37
330
23
100
AcDbEntity
  8
8
100
AcDbLine
 10
0.7070426236036211
 20
0.8109225040291439
 30
0.0
 11
0.7571629727018222
 21
0.8109225040291478
 31
0.0
  0
LINE
  5
38
330
23
100
AcDbEntity
  8
8
100
AcDbLine
 10
0.7007775799663449
 20
0.856101606901247
 30
0.0
 11
0.7559099639743671
 21
0.856101606901252
 31
0.0
  0
LINE
  5
39
330
23
100
AcDbEntity
  8
8
100
AcDbLine
 10
0.6995245712388901
 20
0.8881034714356529
 30
0.0
 11
0.7596689901567321
 21
0.8881034714356569
 31
0.0
  0
LINE
  5
3A
330
23
100
AcDbEntity
  8
8
100
AcDbLine
 10
0.669586612715058
 20
-0.687203997458954
 30
0.0
 11
0.7583712311175871
 21
-0.687203997458958
 31
0.0
  0
LINE
  5
3B
330
23
100
AcDbEntity
  8
8
100
AcDbLine
 10
0.6765229110277561
 20
-0.7538969588415822
 30
0.0
 11
0.7555967117925079
 21
-0.7538969588415871
 31
0.0
  0
LINE
  5
3C
330
23
100
AcDbEntity
  8
8
100
AcDbLine
 10
0.686233728665532
 20
-0.8039166798785529
 30
0.0
 11
0.756983971455048
 21
-0.8039166798785569
 31
0.0
  0
LINE
  5
3D
330
23
100
AcDbEntity
  8
8
100
AcDbLine
 10
0.686233728665537
 20
-0.843515625699489
 30
0.0
 11
0.7583712311175921
 21
-0.8435156256994938
 31
0.0
  0
LINE
  5
3E
330
23
100
AcDbEntity
  8
8
100
AcDbLine
 10
0.6917827673156911
 20
-0.8789462614340099
 30
0.0
 11
0.7611457504426661
 21
-0.8789462614340139
 31
0.0
  0
LINE
  5
3F
330
23
100
AcDbEntity
  8
8
100
AcDbLine
 10
0.0180369912090277
 20
-0.9197329515268799
 30
0.0
 11
0.0098924344805694
 21
-0.82883689931991
 31
0.0
  0
LINE
  5
40
330
23
100
AcDbEntity
  8
8
100
AcDbLine
 10
0.0354896127700089
 20
-0.8795289284353358
 30
0.0
 11
0.0110559425846352
 21
-0.6680208069537322
 31
0.0
  0
LINE
  5
41
330
23
100
AcDbEntity
  8
8
100
AcDbLine
 10
0.0
 20
1.0
 30
0.0
 11
0.063
 21
0.9
 31
0.0
  0
ARC
  5
42
330
23
100
AcDbEntity
  8
8
100
AcDbCircle
 10
-7.86795137948449
 20
-0.0014970059877035
 30
0.0
 40
7.930951379484494
100
AcDbArc
 50
359.9999999999976
 51
7.245787157733447
  0
ARC
  5
43
330
23
100
AcDbEntity
  8
8
100
AcDbCircle
 10
-6.361914635671944
 20
-0.0014970059876956
 30
0.0
 40
6.486914635671949
100
AcDbArc
 50
359.999999999997
 51
8.001694553329734
  0
ARC
  5
44
330
23
100
AcDbEntity
  8
8
100
AcDbCircle
 10
-6.513121037424265
 20
-0.0014970059879978
 30
0.0
 40
6.553121037424265
100
AcDbArc
 50
1.112454486611709
 51
1.91860701573888
  0
ARC
  5
45
330
23
100
AcDbEntity
  8
8
100
AcDbCircle
 10
-6.533121037424264
 20
-0.0014970059879978
 30
0.0
 40
6.553121037424265
100
AcDbArc
 50
0.9922683364223324
 51
2.122931576107509
  0
ARC
  5
46
330
23
100
AcDbEntity
  8
8
100
AcDbCircle
 10
-7.855025114649393
 20
-0.0014970059877035
 30
0.0
 40
7.930951379484494
100
AcDbArc
 50
4.782510714946833
 51
6.992158281480229
  0
ARC
  5
47
330
23
100
AcDbEntity
  8
8
100
AcDbCircle
 10
-7.839025114649393
 20
-0.0014970059877035
 30
0.0
 40
7.930951379484494
100
AcDbArc
 50
4.660348153781231
 51
6.74549873761748
  0
ARC
  5
48
330
23
100
AcDbEntity
  8
8
100
AcDbCircle
 10
-7.823025114649392
 20
-0.0014970059877035
 30
0.0
 40
7.930951379484494
100
AcDbArc
 50
359.9999999999976
 51
1.631205317494628
  0
ARC
  5
49
330
23
100
AcDbEntity
  8
8
100
AcDbCircle
 10
-7.823025114649392
 20
-0.0014970059877035
 30
0.0
 40
7.930951379484494
100
AcDbArc
 50
4.559653057975153
 51
6.480436305895688
  0
ARC
  5
4A
330
23
100
AcDbEntity
  8
8
100
AcDbCircle
 10
-7.839025114649393
 20
-0.0014970059877035
 30
0.0
 40
7.930951379484494
100
AcDbArc
 50
359.9999999999976
 51
1.490736231492747
  0
ARC
  5
4B
330
23
100
AcDbEntity
  8
8
100
AcDbCircle
 10
-7.855025114649393
 20
-0.0014970059877035
 30
0.0
 40
7.930951379484494
100
AcDbArc
 50
359.9999999999976
 51
1.406309056588886
  0
LINE
  5
4C
330
23
100
AcDbEntity
  8
8
100
AcDbLine
 10
0.0634138072675787
 20
-0.900504940483098
 30
0.0
 11
-0.0005791384560193
 21
-0.996644995702009
 31
0.0
  0
LINE
  5
4D
330
23
100
AcDbEntity
  8
8
100
AcDbLine
 10
0.0
 20
-1.0
 30
0.0
 11
0.0
 21
1.0
 31
0.0
  0
ARC
  5
4E
330
23
100
AcDbEntity
  8
8
100
AcDbCircle
 10
-7.214025114649393
 20
-0.0014970059877035
 30
0.0
 40
7.930951379484494
100
AcDbArc
 50
0.53239311777313
 51
1.490736231492747
  0
ARC
  5
4F
330
23
100
AcDbEntity
  8
8
100
AcDbCircle
 10
-7.230025114649393
 20
-0.0014970059877035
 30
0.0
 40
7.930951379484494
100
AcDbArc
 50
1.075625496311169
 51
1.406309056588886
  0
ARC
  5
50
330
23
100
AcDbEntity
  8
8
100
AcDbCircle
 10
-7.24295137948449
 20
-0.0014970059877035
 30
0.0
 40
7.930951379484494
100
AcDbArc
 50
1.548924595817252
 51
7.245787157733441
  0
LINE
  5
51
330
23
100
AcDbEntity
  8
8
100
AcDbLine
 10
0.7531354446492759
 20
-0.0993378136588635
 30
0.0
 11
0.685144804414278
 21
0.212882057975124
 31
0.0
  0
LINE
  5
52
330
23
100
AcDbEntity
  8
8
100
AcDbLine
 10
0.7531354446492759
 20
-0.099337813658864
 30
0.0
 11
0.7505697601121059
 21
0.0028081937275633
 31
0.0
  0
LINE
  5
53
330
23
100
AcDbEntity
  8
8
100
AcDbLine
 10
0.623568375522205
 20
-0.0993378136588635
 30
0.0
 11
0.7531354446492759
 21
-0.099337813658864
 31
0.0
  0
LINE
  5
54
330
23
100
AcDbEntity
  8
8
100
AcDbLine
 10
0.685144804414278
 20
0.210954774816889
 30
0.0
 11
0.623568375522205
 21
-0.0993378136588635
 31
0.0
  0
LINE
  5
55
330
23
100
AcDbEntity
  8
8
100
AcDbLine
 10
0.5629999999999999
 20
0.9
 30
0.0
 11
0.625
 21
1.0
 31
0.0
  0
LINE
  5
56
330
23
100
AcDbEntity
  8
8
100
AcDbLine
 10
0.625
 20
1.0
 30
0.0
 11
0.6879999999999999
 21
0.9
 31
0.0
  0
ARC
  5
57
330
23
100
AcDbEntity
  8
8
100
AcDbCircle
 10
-5.736914635671944
 20
-0.0014970059876956
 30
0.0
 40
6.486914635671949
100
AcDbArc
 50
359.999999999997
 51
8.001694553329734
  0
ARC
  5
58
330
23
100
AcDbEntity
  8
8
100
AcDbCircle
 10
-5.908121037424264
 20
-0.0014970059879978
 30
0.0
 40
6.553121037424265
100
AcDbArc
 50
5.523088342364762
 51
7.598543086781068
  0
ARC
  5
59
330
23
100
AcDbEntity
  8
8
100
AcDbCircle
 10
-5.888121037424265
 20
-0.0014970059879978
 30
0.0
 40
6.553121037424265
100
AcDbArc
 50
5.745560238120096
 51
7.427616024773199
  0
ARC
  5
5A
330
23
100
AcDbEntity
  8
8
100
AcDbCircle
 10
-5.888121037424265
 20
-0.0014970059879978
 30
0.0
 40
6.553121037424265
100
AcDbArc
 50
1.112454486611709
 51
1.91860701573888
  0
ARC
  5
5B
330
23
100
AcDbEntity
  8
8
100
AcDbCircle
 10
-5.908121037424264
 20
-0.0014970059879978
 30
0.0
 40
6.553121037424265
100
AcDbArc
 50
0.9922683364223324
 51
2.122931576107509
  0
ARC
  5
5C
330
23
100
AcDbEntity
  8
8
100
AcDbCircle
 10
-7.230025114649393
 20
-0.0014970059877035
 30
0.0
 40
7.930951379484494
100
AcDbArc
 50
4.782510714946833
 51
6.992158281480229
  0
ARC
  5
5D
330
23
100
AcDbEntity
  8
8
100
AcDbCircle
 10
-7.214025114649393
 20
-0.0014970059877035
 30
0.0
 40
7.930951379484494
100
AcDbArc
 50
4.660348153781231
 51
6.74549873761748
  0
ARC
  5
5E
330
23
100
AcDbEntity
  8
8
100
AcDbCircle
 10
-7.198025114649392
 20
-0.0014970059877035
 30
0.0
 40
7.930951379484494
100
AcDbArc
 50
359.9999999999976
 51
1.631205317494628
  0
ARC
  5
5F
330
23
100
AcDbEntity
  8
8
100
AcDbCircle
 10
-7.198025114649392
 20
-0.0014970059877035
 30
0.0
 40
7.930951379484494
100
AcDbArc
 50
4.559653057975153
 51
6.480436305895688
  0
ARC
  5
60
330
23
100
AcDbEntity
  8
8
100
AcDbCircle
 10
7.060820772061111
 20
0.0029874758825671
 30
0.0
 40
6.438132486002221
100
AcDbArc
 50
180.0000000000067
 51
188.0595512382494
  0
LINE
  5
61
330
23
100
AcDbEntity
  8
8
100
AcDbLine
 10
0.6226882860588851
 20
0.045813500479329
 30
0.0
 11
0.6226882860588901
 21
0.0029874758818152
 31
0.0
  0
LINE
  5
62
330
23
100
AcDbEntity
  8
8
100
AcDbLine
 10
0.7666798723222371
 20
-0.8993844270189709
 30
0.0
 11
0.6903955076531511
 21
-0.8997878118660809
 31
0.0
  0
LINE
  5
63
330
23
100
AcDbEntity
  8
8
100
AcDbLine
 10
0.766679872322237
 20
0.9045077885499001
 30
0.0
 11
0.6869646504231931
 21
0.9045077885499049
 31
0.0
  0
LINE
  5
64
330
23
100
AcDbEntity
  8
8
100
AcDbLine
 10
0.7666798723222371
 20
-0.8993844270189709
 30
0.0
 11
0.766679872322237
 21
0.9045077885499001
 31
0.0
  0
INSERT
  5
65
330
23
100
AcDbEntity
  8
8
100
AcDbBlockReference
  2
LTHREAD
 10
0.625
 20
0.0
 30
0.0
 41
-1.0
 42
-1.0
  0
INSERT
  5
66
330
23
100
AcDbEntity
  8
8
100
AcDbBlockReference
  2
LTHREAD
 10
0.5
 20
0.0
 30
0.0
 41
-1.0
 42
-1.0
  0
INSERT
  5
67
330
23
100
AcDbEntity
  8
8
100
AcDbBlockReference
  2
LTHREAD
 10
0.375
 20
0.0
 30
0.0
 41
-1.0
 42
-1.0
  0
INSERT
  5
68
330
23
100
AcDbEntity
  8
8
100
AcDbBlockReference
  2
LTHREAD
 10
0.25
 20
0.0
 30
0.0
 41
-1.0
 42
-1.0
  0
INSERT
  5
69
330
23
100
AcDbEntity
  8
8
100
AcDbBlockReference
  2
LTHREAD
 10
0.125
 20
0.0
 30
0.0
 41
-1.0
 42
-1.0
  0
INSERT
  5
6A
330
23
100
AcDbEntity
  8
8
100
AcDbBlockReference
  2
UTHREAD
 10
0.5
 20
0.0
 30
0.0
  0
INSERT
  5
6B
330
23
100
AcDbEntity
  8
8
100
AcDbBlockReference
  2
UTHREAD
 10
0.375
 20
0.0
 30
0.0
  0
INSERT
  5
6C
330
23
100
AcDbEntity
  8
8
100
AcDbBlockReference
  2
UTHREAD
 10
0.25
 20
0.0
 30
0.0
  0
INSERT
  5
6D
330
23
100
AcDbEntity
  8
8
100
AcDbBlockReference
  2
UTHREAD
 10
0.125
 20
0.0
 30
0.0
  0
ENDBLK
  5
6E
330
23
100
AcDbEntity
  8
0
100
AcDbBlockEnd
  0
BLOCK
  5
6F
330
24
100
AcDbEntity
  8
0
100
AcDbBlockBegin
  2
LTHREAD
 70
     0
 10
0.0
 20
0.0
 30
0.0
  3
LTHREAD
  1

  0
ARC
  5
70
330
24
100
AcDbEntity
  8
8
100
AcDbCircle
 10
-6.463275046936756
 20
-0.0014970059879897
 30
0.0
 40
6.553121037424265
100
AcDbArc
 50
5.813955562877063
 51
7.427616024773199
  0
ARC
  5
71
330
24
100
AcDbEntity
  8
8
100
AcDbCircle
 10
-7.898456872538295
 20
-0.0014970059876955
 30
0.0
 40
7.930951379484494
100
AcDbArc
 50
4.739185709759917
 51
6.74549873761748
  0
ARC
  5
72
330
24
100
AcDbEntity
  8
8
100
AcDbCircle
 10
-7.88186526337346
 20
-0.0014970059876992
 30
0.0
 40
7.930951379484494
100
AcDbArc
 50
4.862997057016173
 51
6.992158281480229
  0
ARC
  5
73
330
24
100
AcDbEntity
  8
8
100
AcDbCircle
 10
-7.884025114649393
 20
-0.0014970059877035
 30
0.0
 40
7.930951379484494
100
AcDbArc
 50
359.9999999999976
 51
1.406309056588886
  0
ARC
  5
74
330
24
100
AcDbEntity
  8
8
100
AcDbCircle
 10
-7.899525114649392
 20
-0.0014970059877035
 30
0.0
 40
7.930951379484494
100
AcDbArc
 50
359.9999999999976
 51
1.2693200970643
  0
ARC
  5
75
330
24
100
AcDbEntity
  8
8
100
AcDbCircle
 10
-7.920799942144082
 20
0.0013832371293206
 30
0.0
 40
7.930951379484494
100
AcDbArc
 50
4.559653057975153
 51
6.480436305895688
  0
ARC
  5
76
330
24
100
AcDbEntity
  8
8
100
AcDbCircle
 10
-7.915025114649392
 20
-0.0014970059877035
 30
0.0
 40
7.930951379484494
100
AcDbArc
 50
359.9999999999976
 51
1.088508492734469
  0
ARC
  5
77
330
24
100
AcDbEntity
  8
8
100
AcDbCircle
 10
-6.445890554071157
 20
-0.0014970059879929
 30
0.0
 40
6.553121037424265
100
AcDbArc
 50
5.523088342364762
 51
7.185199042295979
  0
ARC
  5
78
330
24
100
AcDbEntity
  8
8
100
AcDbCircle
 10
-6.361914635671944
 20
-0.0014970059876956
 30
0.0
 40
6.486914635671949
100
AcDbArc
 50
359.999999999997
 51
8.001694553329734
  0
ARC
  5
79
330
24
100
AcDbEntity
  8
8
100
AcDbCircle
 10
-7.86795137948449
 20
-0.0014970059877035
 30
0.0
 40
7.930951379484494
100
AcDbArc
 50
359.9999999999976
 51
7.245787157733447
  0
LINE
  5
7A
330
24
100
AcDbEntity
  8
8
100
AcDbLine
 10
0.0
 20
1.0
 30
0.0
 11
0.063
 21
0.9
 31
0.0
  0
LINE
  5
7B
330
24
100
AcDbEntity
  8
8
100
AcDbLine
 10
-0.0620000000000001
 20
0.9
 30
0.0
 11
0.0
 21
1.0
 31
0.0
  0
ENDBLK
  5
7C
330
24
100
AcDbEntity
  8
0
100
AcDbBlockEnd
  0
BLOCK
  5
7D
330
25
100
AcDbEntity
  8
0
100
AcDbBlockBegin
  2
UTHREAD
 70
     0
 10
0.0
 20
0.0
 30
0.0
  3
UTHREAD
  1

  0
ARC
  5
7E
330
25
100
AcDbEntity
  8
8
100
AcDbCircle
 10
-7.855025114649393
 20
-0.0014970059877035
 30
0.0
 40
7.930951379484494
100
AcDbArc
 50
359.9999999999976
 51
1.406309056588886
  0
ARC
  5
7F
330
25
100
AcDbEntity
  8
8
100
AcDbCircle
 10
-7.839025114649393
 20
-0.0014970059877035
 30
0.0
 40
7.930951379484494
100
AcDbArc
 50
359.9999999999976
 51
1.490736231492747
  0
ARC
  5
80
330
25
100
AcDbEntity
  8
8
100
AcDbCircle
 10
-7.823025114649392
 20
-0.0014970059877035
 30
0.0
 40
7.930951379484494
100
AcDbArc
 50
4.559653057975153
 51
6.480436305895688
  0
ARC
  5
81
330
25
100
AcDbEntity
  8
8
100
AcDbCircle
 10
-7.823025114649392
 20
-0.0014970059877035
 30
0.0
 40
7.930951379484494
100
AcDbArc
 50
359.9999999999976
 51
1.631205317494628
  0
ARC
  5
82
330
25
100
AcDbEntity
  8
8
100
AcDbCircle
 10
-7.839025114649393
 20
-0.0014970059877035
 30
0.0
 40
7.930951379484494
100
AcDbArc
 50
4.660348153781231
 51
6.74549873761748
  0
ARC
  5
83
330
25
100
AcDbEntity
  8
8
100
AcDbCircle
 10
-7.855025114649393
 20
-0.0014970059877035
 30
0.0
 40
7.930951379484494
100
AcDbArc
 50
4.782510714946833
 51
6.992158281480229
  0
ARC
  5
84
330
25
100
AcDbEntity
  8
8
100
AcDbCircle
 10
-6.533121037424264
 20
-0.0014970059879978
 30
0.0
 40
6.553121037424265
100
AcDbArc
 50
0.9922683364223324
 51
2.122931576107509
  0
ARC
  5
85
330
25
100
AcDbEntity
  8
8
100
AcDbCircle
 10
-6.513121037424265
 20
-0.0014970059879978
 30
0.0
 40
6.553121037424265
100
AcDbArc
 50
1.112454486611709
 51
1.91860701573888
  0
ARC
  5
86
330
25
100
AcDbEntity
  8
8
100
AcDbCircle
 10
-6.513121037424265
 20
-0.0014970059879978
 30
0.0
 40
6.553121037424265
100
AcDbArc
 50
5.745560238120096
 51
7.427616024773199
  0
ARC
  5
87
330
25
100
AcDbEntity
  8
8
100
AcDbCircle
 10
-6.533121037424264
 20
-0.0014970059879978
 30
0.0
 40
6.553121037424265
100
AcDbArc
 50
5.523088342364762
 51
7.598543086781068
  0
ARC
  5
88
330
25
100
AcDbEntity
  8
8
100
AcDbCircle
 10
-6.361914635671944
 20
-0.0014970059876956
 30
0.0
 40
6.486914635671949
100
AcDbArc
 50
359.999999999997
 51
8.001694553329734
  0
ARC
  5
89
330
25
100
AcDbEntity
  8
8
100
AcDbCircle
 10
-7.86795137948449
 20
-0.0014970059877035
 30
0.0
 40
7.930951379484494
100
AcDbArc
 50
359.9999999999976
 51
7.245787157733447
  0
LINE
  5
8A
330
25
100
AcDbEntity
  8
8
100
AcDbLine
 10
0.0
 20
1.0
 30
0.0
 11
0.063
 21
0.9
 31
0.0
  0
LINE
  5
8B
330
25
100
AcDbEntity
  8
8
100
AcDbLine
 10
-0.062
 20
0.9
 30
0.0
 11
0.0
 21
1.0
 31
0.0
  0
ENDBLK
  5
8C
330
25
100
AcDbEntity
  8
0
100
AcDbBlockEnd
  0
BLOCK
  5
8D
330
26
100
AcDbEntity
  8
0
100
AcDbBlockBegin
  2
1_083_KN
 70
     0
 10
10.0
 20
10.0
 30
0.0
  3
1_083_KN
  1

  0
LINE
  5
8E
330
26
100
AcDbEntity
  8
8
100
AcDbLine
 10
8.957718578443035
 20
10.87404697785374
 30
0.0
 11
10.00115091717957
 21
10.14040797693612
 31
0.0
  0
LINE
  5
8F
330
26
100
AcDbEntity
  8
8
100
AcDbLine
 10
10.00115091717957
 20
10.00245876308836
 30
0.0
 11
8.957718578443035
 21
10.73609776400598
 31
0.0
  0
LINE
  5
90
330
26
100
AcDbEntity
  8
8
100
AcDbLine
 10
8.957718578443035
 20
10.59187813134697
 30
0.0
 11
9.785726514505181
 21
10.00472853979367
 31
0.0
  0
LINE
  5
91
330
26
100
AcDbEntity
  8
8
100
AcDbLine
 10
8.957718578443035
 20
10.29716844721766
 30
0.0
 11
9.383673590515291
 21
10.00279825621556
 31
0.0
  0
LINE
  5
92
330
26
100
AcDbEntity
  8
8
100
AcDbLine
 10
9.169900483070136
 20
10.0014232436763
 30
0.0
 11
8.957718578443035
 21
10.14040797693612
 31
0.0
  0
LINE
  5
93
330
26
100
AcDbEntity
  8
8
100
AcDbLine
 10
9.591724203661451
 20
10.00188809634005
 30
0.0
 11
8.957718578443035
 21
10.44765849868795
 31
0.0
  0
LINE
  5
94
330
26
100
AcDbEntity
  8
8
100
AcDbLine
 10
9.032845706832063
 20
11.73936477380793
 30
0.0
 11
10.00173020487921
 21
11.54255519855179
 31
0.0
  0
LINE
  5
95
330
26
100
AcDbEntity
  8
8
100
AcDbLine
 10
10.00173020487921
 20
11.60580594257273
 30
0.0
 11
9.153883858125496
 21
11.73936477380793
 31
0.0
  0
LINE
  5
96
330
26
100
AcDbEntity
  8
8
100
AcDbLine
 10
9.998722983933308
 20
11.70519996889135
 30
0.0
 11
9.688979226506395
 21
11.73682534090182
 31
0.0
  0
LINE
  5
97
330
26
100
AcDbEntity
  8
8
100
AcDbLine
 10
10.00173020487921
 20
11.66453877630646
 30
0.0
 11
9.328112712999354
 21
11.73682534090182
 31
0.0
  0
LINE
  5
98
330
26
100
AcDbEntity
  8
8
100
AcDbLine
 10
10.00173020487921
 20
11.461232813382
 30
0.0
 11
8.958224536654638
 21
11.73230743061461
 31
0.0
  0
LINE
  5
99
330
26
100
AcDbEntity
  8
8
100
AcDbLine
 10
8.958224536654638
 20
11.70519996889135
 30
0.0
 11
10.00173020487921
 21
11.36635669735059
 31
0.0
  0
LINE
  5
9A
330
26
100
AcDbEntity
  8
8
100
AcDbLine
 10
10.00173020487921
 20
11.2579268504575
 30
0.0
 11
8.958224536654638
 21
11.66453877630646
 31
0.0
  0
LINE
  5
9B
330
26
100
AcDbEntity
  8
8
100
AcDbLine
 10
8.958224536654638
 20
11.60580594257273
 30
0.0
 11
10.00173020487921
 21
11.13594327270283
 31
0.0
  0
LINE
  5
9C
330
26
100
AcDbEntity
  8
8
100
AcDbLine
 10
10.00173020487921
 20
11.01395969494816
 30
0.0
 11
8.958224536654638
 21
11.54255519855179
 31
0.0
  0
LINE
  5
9D
330
26
100
AcDbEntity
  8
8
100
AcDbLine
 10
8.958224536654638
 20
11.461232813382
 30
0.0
 11
10.00173020487921
 21
10.87390447604464
 31
0.0
  0
LINE
  5
9E
330
26
100
AcDbEntity
  8
8
100
AcDbLine
 10
9.998722983933308
 20
10.73836716742833
 30
0.0
 11
8.958224536654638
 21
11.36635669735059
 31
0.0
  0
LINE
  5
9F
330
26
100
AcDbEntity
  8
8
100
AcDbLine
 10
10.00173020487921
 20
10.5892761279504
 30
0.0
 11
8.958224536654638
 21
11.2579268504575
 31
0.0
  0
LINE
  5
A0
330
26
100
AcDbEntity
  8
8
100
AcDbLine
 10
10.00173020487921
 20
10.44922090904689
 30
0.0
 11
8.958224536654638
 21
11.13594327270283
 31
0.0
  0
LINE
  5
A1
330
26
100
AcDbEntity
  8
8
100
AcDbLine
 10
10.00173020487921
 20
10.29561195928174
 30
0.0
 11
8.958224536654638
 21
11.00944178466094
 31
0.0
  0
ENDBLK
  5
A2
330
26
100
AcDbEntity
  8
0
100
AcDbBlockEnd
  0
BLOCK
  5
A3
330
27
100
AcDbEntity
  8
0
100
AcDbBlockBegin
  2
PART_FOR_SCALE
 70
     0
 10
0.0
 20
0.0
 30
0.0
  3
PART_FOR_SCALE
  1

  0
LINE
  5
A4
330
27
100
AcDbEntity
  8
0
100
AcDbLine
 10
-0.7531354446492759
 20
-0.9444493036771007
 30
0.0
 11
-0.7531354446492759
 21
-0.7895060765170836
 31
0.0
  0
LINE
  5
A5
330
27
100
AcDbEntity
  8
0
100
AcDbLine
 10
-0.7531354446492759
 20
0.9444493036771007
 30
0.0
 11
-0.7531354446492759
 21
0.8537426627149269
 31
0.0
  0
INSERT
  5
A6
330
27
100
AcDbEntity
  8
0
100
AcDbBlockReference
  2
1_083_KN
 10
-3.625
 20
0.0
 30
0.0
 41
-1.0
  0
INSERT
  5
A7
330
27
100
AcDbEntity
  8
0
100
AcDbBlockReference
  2
1_083_KN
 10
-2.57987817020781
 20
0.0
 30
0.0
  0
INSERT
  5
A8
330
27
100
AcDbEntity
  8
0
100
AcDbBlockReference
  2
1_083_KN
 10
-2.57987817020781
 20
0.0
 30
0.0
 42
-1.0
  0
INSERT
  5
A9
330
27
100
AcDbEntity
  8
0
100
AcDbBlockReference
  2
1_083_KN
 10
-3.625
 20
0.0
 30
0.0
 41
-1.0
 42
-1.0
  0
LINE
  5
AA
330
27
100
AcDbEntity
  8
0
100
AcDbLine
 10
-3.626150917179568
 20
0.0024587630883612
 30
0.0
 11
-3.626150917179568
 21
1.743628013202537
 31
0.0
  0
LINE
  5
AB
330
27
100
AcDbEntity
  8
0
100
AcDbLine
 10
-3.626150917179568
 20
1.743628013202537
 30
0.0
 11
-2.578077952218995
 21
1.743628013202537
 31
0.0
  0
LINE
  5
AC
330
27
100
AcDbEntity
  8
0
100
AcDbLine
 10
-2.578077952218995
 20
1.743628013202537
 30
0.0
 11
-2.578077952218995
 21
0.0
 31
0.0
  0
LINE
  5
AD
330
27
100
AcDbEntity
  8
0
100
AcDbLine
 10
-2.578077952218995
 20
-1.743628013202537
 30
0.0
 11
-2.578077952218995
 21
0.0
 31
0.0
  0
LINE
  5
AE
330
27
100
AcDbEntity
  8
0
100
AcDbLine
 10
-3.626150917179568
 20
-1.743628013202537
 30
0.0
 11
-2.578077952218995
 21
-1.743628013202537
 31
0.0
  0
LINE
  5
AF
330
27
100
AcDbEntity
  8
0
100
AcDbLine
 10
-3.626150917179568
 20
-0.0024587630883612
 30
0.0
 11
-3.626150917179568
 21
-1.743628013202537
 31
0.0
  0
LINE
  5
B0
330
27
100
AcDbEntity
  8
0
100
AcDbLine
 10
-3.75
 20
0.0
 30
0.0
 11
-3.75
 21
1.580199968891349
 31
0.0
  0
LINE
  5
B1
330
27
100
AcDbEntity
  8
0
100
AcDbLine
 10
-3.621653633553171
 20
1.705199968891349
 30
0.0
 11
-3.625
 21
1.705199968891349
 31
0.0
  0
ARC
  5
B2
330
27
100
AcDbEntity
  8
0
100
AcDbCircle
 10
-3.625
 20
1.580199968891349
 30
0.0
 40
0.125
100
AcDbArc
 50
90.0
 51
180.0
  0
ARC
  5
B3
330
27
100
AcDbEntity
  8
0
100
AcDbCircle
 10
-3.625
 20
1.540199968891349
 30
0.0
 40
0.125
100
AcDbArc
 50
90.0
 51
180.0
  0
ARC
  5
B4
330
27
100
AcDbEntity
  8
0
100
AcDbCircle
 10
-3.625
 20
1.460199968891349
 30
0.0
 40
0.125
100
AcDbArc
 50
90.0
 51
180.0
  0
ARC
  5
B5
330
27
100
AcDbEntity
  8
0
100
AcDbCircle
 10
-3.625
 20
1.340199968891349
 30
0.0
 40
0.125
100
AcDbArc
 50
90.0
 51
180.0
  0
ARC
  5
B6
330
27
100
AcDbEntity
  8
0
100
AcDbCircle
 10
-3.625
 20
-1.340199968891349
 30
0.0
 40
0.125
100
AcDbArc
 50
180.0
 51
270.0
  0
ARC
  5
B7
330
27
100
AcDbEntity
  8
0
100
AcDbCircle
 10
-3.625
 20
-1.460199968891349
 30
0.0
 40
0.125
100
AcDbArc
 50
180.0
 51
270.0
  0
ARC
  5
B8
330
27
100
AcDbEntity
  8
0
100
AcDbCircle
 10
-3.625
 20
-1.540199968891349
 30
0.0
 40
0.125
100
AcDbArc
 50
180.0
 51
270.0
  0
ARC
  5
B9
330
27
100
AcDbEntity
  8
0
100
AcDbCircle
 10
-3.625
 20
-1.580199968891349
 30
0.0
 40
0.125
100
AcDbArc
 50
180.0
 51
270.0
  0
LINE
  5
BA
330
27
100
AcDbEntity
  8
0
100
AcDbLine
 10
-3.621653633553171
 20
-1.705199968891349
 30
0.0
 11
-3.625
 21
-1.705199968891349
 31
0.0
  0
LINE
  5
BB
330
27
100
AcDbEntity
  8
0
100
AcDbLine
 10
-3.75
 20
0.0
 30
0.0
 11
-3.75
 21
-1.580199968891349
 31
0.0
  0
LINE
  5
BC
330
27
100
AcDbEntity
  8
0
100
AcDbLine
 10
-2.578077952218996
 20
1.705199968891349
 30
0.0
 11
-0.8500165628562927
 21
1.306245561775255
 31
0.0
  0
LINE
  5
BD
330
27
100
AcDbEntity
  8
0
100
AcDbLine
 10
-0.753135444649276
 20
1.099337813658863
 30
0.0
 11
-0.7531354446492759
 21
1.1844493036771
 31
0.0
  0
ARC
  5
BE
330
27
100
AcDbEntity
  8
0
100
AcDbCircle
 10
-0.8781354446492757
 20
1.1844493036771
 30
0.0
 40
0.125
100
AcDbArc
 50
0.0
 51
77.0
  0
LINE
  5
BF
330
27
100
AcDbEntity
  8
0
100
AcDbLine
 10
-0.8500165628562927
 20
1.306245561775255
 30
0.0
 11
-0.8500165628562927
 21
0.0
 31
0.0
  0
ARC
  5
C0
330
27
100
AcDbEntity
  8
0
100
AcDbCircle
 10
-0.8781354446492757
 20
1.1444493036771
 30
0.0
 40
0.125
100
AcDbArc
 50
0.0
 51
77.0
  0
ARC
  5
C1
330
27
100
AcDbEntity
  8
0
100
AcDbCircle
 10
-0.8781354446492757
 20
1.0644493036771
 30
0.0
 40
0.125
100
AcDbArc
 50
0.0
 51
77.0
  0
ARC
  5
C2
330
27
100
AcDbEntity
  8
0
100
AcDbCircle
 10
-0.8781354446492757
 20
0.9444493036771007
 30
0.0
 40
0.125
100
AcDbArc
 50
0.0
 51
77.0
  0
LINE
  5
C3
330
27
100
AcDbEntity
  8
0
100
AcDbLine
 10
-0.8500165628562927
 20
1.266245561775255
 30
0.0
 11
-1.824386627641527
 21
1.49119661611912
 31
0.0
  0
LINE
  5
C4
330
27
100
AcDbEntity
  8
0
100
AcDbLine
 10
-0.8500165628562927
 20
1.186245561775255
 30
0.0
 11
-1.580794111445218
 21
1.354958852533154
 31
0.0
  0
LINE
  5
C5
330
27
100
AcDbEntity
  8
0
100
AcDbLine
 10
-0.8500165628562927
 20
1.066245561775255
 30
0.0
 11
-1.33720159524891
 21
1.178721088947187
 31
0.0
  0
ARC
  5
C6
330
27
100
AcDbEntity
  8
0
100
AcDbCircle
 10
-0.8781354446492757
 20
-0.9444493036771007
 30
0.0
 40
0.125
100
AcDbArc
 50
283.0
 51
0.0
  0
ARC
  5
C7
330
27
100
AcDbEntity
  8
0
100
AcDbCircle
 10
-0.8781354446492757
 20
-1.0644493036771
 30
0.0
 40
0.125
100
AcDbArc
 50
283.0
 51
0.0
  0
ARC
  5
C8
330
27
100
AcDbEntity
  8
0
100
AcDbCircle
 10
-0.8781354446492757
 20
-1.1444493036771
 30
0.0
 40
0.125
100
AcDbArc
 50
283.0
 51
0.0
  0
ARC
  5
C9
330
27
100
AcDbEntity
  8
0
100
AcDbCircle
 10
-0.8781354446492757
 20
-1.1844493036771
 30
0.0
 40
0.125
100
AcDbArc
 50
283.0
 51
0.0
  0
LINE
  5
CA
330
27
100
AcDbEntity
  8
0
100
AcDbLine
 10
-2.578077952218996
 20
-1.705199968891349
 30
0.0
 11
-0.8500165628562927
 21
-1.306245561775255
 31
0.0
  0
LINE
  5
CB
330
27
100
AcDbEntity
  8
0
100
AcDbLine
 10
-0.8500165628562927
 20
-1.306245561775255
 30
0.0
 11
-0.8500165628562927
 21
0.0
 31
0.0
  0
LINE
  5
CC
330
27
100
AcDbEntity
  8
0
100
AcDbLine
 10
-0.7531354446492759
 20
-1.1844493036771
 30
0.0
 11
-0.7531354446492759
 21
-0.8979190414922255
 31
0.0
  0
LINE
  5
CD
330
27
100
AcDbEntity
  8
0
100
AcDbLine
 10
-2.578077952218996
 20
-1.665199968891349
 30
0.0
 11
-1.398805905840717
 21
-1.392943564699055
 31
0.0
  0
LINE
  5
CE
330
27
100
AcDbEntity
  8
0
100
AcDbLine
 10
-2.578077952218996
 20
-1.585199968891349
 30
0.0
 11
-1.706401801598479
 21
-1.383957672750297
 31
0.0
  0
LINE
  5
CF
330
27
100
AcDbEntity
  8
0
100
AcDbLine
 10
-2.578077952218996
 20
-1.465199968891349
 30
0.0
 11
-1.983610140813218
 21
-1.327956260589725
 31
0.0
  0
LINE
  5
D0
330
27
100
AcDbEntity
  8
0
100
AcDbLine
 10
-2.452489062848721
 20
0.382015527149226
 30
0.0
 11
-1.931072252766319
 21
0.3584758379762982
 31
0.0
  0
LINE
  5
D1
330
27
100
AcDbEntity
  8
0
100
AcDbLine
 10
-2.347466102520067
 20
0.3137984687297215
 30
0.0
 11
-1.97897805253211
 21
0.2945823959354945
 31
0.0
  0
LINE
  5
D2
330
27
100
AcDbEntity
  8
0
100
AcDbLine
 10
-2.490679230240958
 20
0.2319379986263157
 30
0.0
 11
-1.902328772906844
 21
0.203306050162918
 31
0.0
  0
LINE
  5
D3
330
27
100
AcDbEntity
  8
0
100
AcDbLine
 10
-1.745970966092321
 20
-0.4365891738848294
 30
0.0
 11
-1.08154273691962
 21
-0.408245466513345
 31
0.0
  0
LINE
  5
D4
330
27
100
AcDbEntity
  8
0
100
AcDbLine
 10
-1.612305380219489
 20
-0.5184496439882349
 30
0.0
 11
-1.13902969663857
 21
-0.490394177708664
 31
0.0
  0
INSERT
  5
D5
330
27
100
AcDbEntity
  8
0
100
AcDbBlockReference
  2
1_5_THD
 10
0.0
 20
-0.08775
 30
0.0
 42
0.88
  0
LINE
  5
D6
330
27
100
AcDbEntity
  8
0
100
AcDbLine
 10
-0.7531354446492759
 20
1.0644493036771
 30
0.0
 11
-0.7531354446492759
 21
0.9444493036771007
 31
0.0
  0
LINE
  5
D7
330
27
100
AcDbEntity
  8
0
100
AcDbLine
 10
-3.754999999999999
 20
0.0
 30
0.0
 11
-3.755
 21
1.580199968891349
 31
0.0
  0
LINE
  5
D8
330
27
100
AcDbEntity
  8
0
100
AcDbLine
 10
-3.754999999999999
 20
0.0
 30
0.0
 11
-3.755
 21
-1.580199968891349
 31
0.0
  0
ENDBLK
  5
D9
330
27
100
AcDbEntity
  8
0
100
AcDbBlockEnd
  0
BLOCK
  5
DA
330
28
100
AcDbEntity
  8
0
100
AcDbBlockBegin
  2
TB_A
 70
     0
 10
0.0
 20
0.0
 30
0.0
  3
TB_A
  1

  0
LINE
  5
DB
330
28
100
AcDbEntity
  8
PART
100
AcDbLine
 10
0.0
 20
-3.95
 30
0.0
 11
10.5
 21
-3.95
 31
0.0
  0
LINE
  5
DC
330
28
100
AcDbEntity
  8
PART
100
AcDbLine
 10
10.5
 20
3.95
 30
0.0
 11
0.0
 21
3.95
 31
0.0
  0
LINE
  5
DD
330
28
100
AcDbEntity
  8
PART
100
AcDbLine
 10
0.0
 20
3.95
 30
0.0
 11
0.0
 21
-3.95
 31
0.0
  0
LINE
  5
DE
330
28
100
AcDbEntity
  8
DIM
100
AcDbLine
 10
0.0
 20
-3.95
 30
0.0
 11
-0.075
 21
-3.95
 31
0.0
  0
LINE
  5
DF
330
28
100
AcDbEntity
  8
PART
100
AcDbLine
 10
10.5
 20
-3.95
 30
0.0
 11
10.5
 21
3.95
 31
0.0
  0
ENDBLK
  5
E0
330
28
100
AcDbEntity
  8
0
100
AcDbBlockEnd
  0
BLOCK
  5
160
330
EB
100
AcDbEntity
  8
0
100
AcDbBlockBegin
  2
A$C435B465C
 70
     0
 10
0.0
 20
0.0
 30
0.0
  3
A$C435B465C
  1

  0
LINE
  5
EC
330
EB
100
AcDbEntity
  8
TRIM
100
AcDbLine
 10
10.41999999853406
 20
7.86999999827346
 30
0.0
 11
0.0299999985340644
 21
7.86999999827346
 31
0.0
  0
LINE
  5
ED
330
EB
100
AcDbEntity
  8
TRIM
100
AcDbLine
 10
-0.0000000014659345
 20
7.899999998273461
 30
0.0
 11
10.44999999853406
 21
7.899999998273461
 31
0.0
  0
LINE
  5
EE
330
EB
100
AcDbEntity
  8
TRIM
100
AcDbLine
 10
0.0299999985340644
 20
7.86999999827346
 30
0.0
 11
0.0299999985340652
 21
0.9877074628274646
 31
0.0
  0
LINE
  5
EF
330
EB
100
AcDbEntity
  8
TRIM
100
AcDbLine
 10
-0.0000000014659349
 20
7.899999998273461
 30
0.0
 11
-0.0000000014659349
 21
-0.000000001726538
 31
0.0
  0
LINE
  5
F0
330
EB
100
AcDbEntity
  8
TRIM
100
AcDbLine
 10
10.41999999853406
 20
2.432499998273461
 30
0.0
 11
10.41999999853406
 21
7.869999998273458
 31
0.0
  0
LINE
  5
F1
330
EB
100
AcDbEntity
  8
TRIM
100
AcDbLine
 10
10.44999999853406
 20
-0.0000000017265407
 30
0.0
 11
10.44999999853406
 21
7.899999998273459
 31
0.0
  0
SOLID
  5
F2
330
EB
100
AcDbEntity
  8
SOLID
 62
     1
100
AcDbTrace
 10
8.850645714660327
 20
1.336824719979944
 30
0.0
 11
8.953204583077742
 21
1.529709898068546
 31
0.0
 12
8.844321504076491
 22
1.344775342338473
 32
0.0
 13
8.947606642518891
 23
1.539026435684056
 33
0.0
  0
SOLID
  5
F3
330
EB
100
AcDbEntity
  8
SOLID
 62
     1
100
AcDbTrace
 10
8.743633161575985
 20
1.330656234914544
 30
0.0
 11
8.928899857892716
 21
1.55144848583807
 31
0.0
 12
8.835889223298043
 22
1.355376172149846
 32
0.0
 13
8.94014272177376
 23
1.55144848583807
 33
0.0
  0
SOLID
  5
F4
330
EB
100
AcDbEntity
  8
SOLID
 62
     1
100
AcDbTrace
 10
8.775982480684099
 20
1.551448485838069
 30
0.0
 11
9.123139625704464
 21
1.644468962492971
 31
0.0
 12
9.073679760929408
 22
1.551448485838069
 32
0.0
 13
9.073679760929408
 23
1.551448485838069
 33
0.0
  0
SOLID
  5
F5
330
EB
100
AcDbEntity
  8
SOLID
 62
     1
100
AcDbTrace
 10
8.816585180362723
 20
1.57518819906379
 30
0.0
 11
9.147519865140669
 21
1.663861880597488
 31
0.0
 12
8.834870359939877
 22
1.589732887642179
 32
0.0
 13
9.165805044717822
 23
1.678406569175877
 33
0.0
  0
LINE
  5
F6
330
EB
100
AcDbEntity
  8
TRIM
100
AcDbLine
 10
10.41999999853406
 20
2.402499998273461
 30
0.0
 11
8.026999998534064
 21
2.402499998273462
 31
0.0
  0
TEXT
  5
F7
330
EB
100
AcDbEntity
  8
TRIM
100
AcDbText
 10
8.093749998534065
 20
2.232876334230538
 30
0.0
 40
0.1
  1
TASK FORCE TIPS, INC.
 51
10.0
  7
ROMAND
100
AcDbText
  0
TEXT
  5
F8
330
EB
100
AcDbEntity
  8
TRIM
100
AcDbText
 10
8.128853318574009
 20
1.795200536343402
 30
0.0
 40
0.09
  1
219-462-6161
  7
SIMPLEX
100
AcDbText
  0
TEXT
  5
F9
330
EB
100
AcDbEntity
  8
TRIM
 62
     2
100
AcDbText
 10
8.128853318574009
 20
1.945864616217594
 30
0.0
 40
0.09
  1
VALPARAISO, IN 46383
  7
SIMPLEX
100
AcDbText
  0
TEXT
  5
FA
330
EB
100
AcDbEntity
  8
TRIM
 62
     2
100
AcDbText
 10
8.128853318574009
 20
2.090582801482295
 30
0.0
 40
0.09
  1
2800 E. EVANS AVE.
  7
SIMPLEX
100
AcDbText
  0
LINE
  5
FB
330
EB
100
AcDbEntity
  8
TRIM
100
AcDbLine
 10
10.41999999853406
 20
2.432499998273461
 30
0.0
 11
7.996999998534068
 21
2.432499998273462
 31
0.0
  0
LINE
  5
FC
330
EB
100
AcDbEntity
  8
TRIM
100
AcDbLine
 10
8.026999998534062
 20
1.224315403424987
 30
0.0
 11
8.026999998534064
 21
2.402499998273462
 31
0.0
  0
LINE
  5
FD
330
EB
100
AcDbEntity
  8
TRIM
100
AcDbLine
 10
7.996999998534064
 20
0.6684716413094636
 30
0.0
 11
7.996999998534068
 21
2.432499998273462
 31
0.0
  0
SOLID
  5
FE
330
EB
100
AcDbEntity
  8
SOLID
 62
     1
100
AcDbTrace
 10
8.043289409296239
 20
1.529709898068546
 30
0.0
 11
8.307257975069029
 21
1.529709898068546
 31
0.0
 12
8.114055538205608
 22
1.539026435684056
 32
0.0
 13
8.327237354460679
 23
1.539026435684056
 33
0.0
  0
SOLID
  5
FF
330
EB
100
AcDbEntity
  8
SOLID
 62
     1
100
AcDbTrace
 10
8.043289409296239
 20
1.529709898068546
 30
0.0
 11
8.598232940785159
 21
1.678406569175877
 31
0.0
 12
8.114055538205608
 22
1.539026435684056
 32
0.0
 13
8.579947761208007
 23
1.663861880597489
 33
0.0
  0
SOLID
  5
100
330
EB
100
AcDbEntity
  8
SOLID
 62
     1
100
AcDbTrace
 10
8.168609830666147
 20
1.330656234914544
 30
0.0
 11
8.353876526982878
 21
1.551448485838069
 31
0.0
 12
8.260865892388205
 22
1.355376172149845
 32
0.0
 13
8.365119390863922
 23
1.551448485838069
 33
0.0
  0
SOLID
  5
101
330
EB
100
AcDbEntity
  8
SOLID
 62
     1
100
AcDbTrace
 10
8.107639476921409
 20
1.29181383575286
 30
0.0
 11
8.307257975069029
 21
1.529709898068546
 31
0.0
 12
8.133769628526296
 22
1.308460578250724
 32
0.0
 13
8.327237354460679
 23
1.539026435684056
 33
0.0
  0
SOLID
  5
102
330
EB
100
AcDbEntity
  8
SOLID
 62
     1
100
AcDbTrace
 10
8.269298173166653
 20
1.344775342338473
 30
0.0
 11
8.372583311609053
 21
1.539026435684056
 31
0.0
 12
8.275622383750489
 22
1.336824719979944
 32
0.0
 13
8.378181252167903
 23
1.529709898068546
 33
0.0
  0
SOLID
  5
103
330
EB
100
AcDbEntity
  8
SOLID
 62
     1
100
AcDbTrace
 10
8.519123822871026
 20
1.446010323780124
 30
0.0
 11
8.389737606638517
 21
1.29181383575286
 31
0.0
 12
8.53420778556849
 22
1.449492730963093
 32
0.0
 13
8.415867758243402
 23
1.308460578250724
 33
0.0
  0
SOLID
  5
104
330
EB
100
AcDbEntity
  8
SOLID
 62
     1
100
AcDbTrace
 10
8.557720513467595
 20
1.336824719979944
 30
0.0
 11
8.597274694021209
 21
1.411215314162212
 31
0.0
 12
8.551396302883759
 22
1.344775342338473
 32
0.0
 13
8.593127360178915
 23
1.423260046220356
 33
0.0
  0
SOLID
  5
105
330
EB
100
AcDbEntity
  8
SOLID
 62
     1
100
AcDbTrace
 10
8.902260685370517
 20
1.539026435684056
 30
0.0
 11
8.708792959436136
 21
1.308460578250725
 31
0.0
 12
8.882281305978867
 22
1.529709898068546
 32
0.0
 13
8.682662807831249
 23
1.29181383575286
 33
0.0
  0
SOLID
  5
106
330
EB
100
AcDbEntity
  8
SOLID
 62
     1
100
AcDbTrace
 10
8.450707960383251
 20
1.330656234914544
 30
0.0
 11
8.554319735831773
 21
1.454135940540385
 31
0.0
 12
8.54296402210531
 22
1.355376172149845
 32
0.0
 13
8.587597581722521
 23
1.439319688964547
 33
0.0
  0
SOLID
  5
107
330
EB
100
AcDbEntity
  8
SOLID
 62
     1
100
AcDbTrace
 10
8.389737606638517
 20
1.29181383575286
 30
0.0
 11
8.557720513467595
 21
1.336824719979944
 31
0.0
 12
8.415867758243402
 22
1.308460578250724
 32
0.0
 13
8.551396302883759
 23
1.344775342338473
 33
0.0
  0
SOLID
  5
108
330
EB
100
AcDbEntity
  8
SOLID
 62
     1
100
AcDbTrace
 10
8.107639476921409
 20
1.29181383575286
 30
0.0
 11
8.275622383750489
 21
1.336824719979944
 31
0.0
 12
8.133769628526296
 22
1.308460578250724
 32
0.0
 13
8.269298173166653
 23
1.344775342338473
 33
0.0
  0
SOLID
  5
109
330
EB
100
AcDbEntity
  8
SOLID
 62
     1
100
AcDbTrace
 10
8.682662807831249
 20
1.29181383575286
 30
0.0
 11
8.850645714660327
 21
1.336824719979944
 31
0.0
 12
8.708792959436136
 22
1.308460578250725
 32
0.0
 13
8.844321504076491
 23
1.344775342338473
 33
0.0
  0
SOLID
  5
10A
330
EB
100
AcDbEntity
  8
SOLID
 62
     1
100
AcDbTrace
 10
8.208410376751436
 20
1.551448485838069
 30
0.0
 11
8.555567521771804
 21
1.644468962492971
 31
0.0
 12
8.506107656996745
 22
1.551448485838069
 32
0.0
 13
8.506107656996745
 23
1.551448485838069
 33
0.0
  0
SOLID
  5
10B
330
EB
100
AcDbEntity
  8
SOLID
 62
     1
100
AcDbTrace
 10
8.372583311609053
 20
1.539026435684056
 30
0.0
 11
8.609335484177783
 21
1.539026435684056
 31
0.0
 12
8.378181252167903
 22
1.529709898068546
 32
0.0
 13
8.589356104786135
 23
1.529709898068546
 33
0.0
  0
SOLID
  5
10C
330
EB
100
AcDbEntity
  8
SOLID
 62
     1
100
AcDbTrace
 10
8.572168427478533
 20
1.509226421888862
 30
0.0
 11
8.457090830046876
 21
1.473629191620975
 31
0.0
 12
8.577542130581782
 22
1.501136592315402
 32
0.0
 13
8.483530452159383
 23
1.472055733491771
 33
0.0
  0
SOLID
  5
10D
330
EB
100
AcDbEntity
  8
SOLID
 62
     1
100
AcDbTrace
 10
8.457090830046876
 20
1.473629191620975
 30
0.0
 11
8.519123822871026
 21
1.446010323780124
 31
0.0
 12
8.483530452159383
 22
1.472055733491771
 32
0.0
 13
8.53420778556849
 23
1.449492730963093
 33
0.0
  0
SOLID
  5
10E
330
EB
100
AcDbEntity
  8
SOLID
 62
     1
100
AcDbTrace
 10
8.492196428717766
 20
1.551448485838069
 30
0.0
 11
8.839353573738133
 21
1.644468962492971
 31
0.0
 12
8.789893708963075
 22
1.551448485838069
 32
0.0
 13
8.789893708963075
 23
1.551448485838069
 33
0.0
  0
SOLID
  5
10F
330
EB
100
AcDbEntity
  8
SOLID
 62
     1
100
AcDbTrace
 10
8.710751962356022
 20
1.539026435684056
 30
0.0
 11
8.902260685370517
 21
1.539026435684056
 31
0.0
 12
8.71634990291487
 22
1.529709898068546
 32
0.0
 13
8.882281305978867
 23
1.529709898068546
 33
0.0
  0
SOLID
  5
110
330
EB
100
AcDbEntity
  8
SOLID
 62
     1
100
AcDbTrace
 10
8.551084307973546
 20
1.589732887642179
 30
0.0
 11
8.88201899275149
 21
1.678406569175877
 31
0.0
 12
8.532799128396392
 22
1.575188199063791
 32
0.0
 13
8.863733813174338
 23
1.663861880597489
 33
0.0
  0
SOLID
  5
111
330
EB
100
AcDbEntity
  8
SOLID
 62
     1
100
AcDbTrace
 10
8.532799128396392
 20
1.575188199063791
 30
0.0
 11
8.579947761208007
 21
1.663861880597489
 31
0.0
 12
8.551084307973546
 22
1.589732887642179
 32
0.0
 13
8.598232940785159
 23
1.678406569175877
 33
0.0
  0
SOLID
  5
112
330
EB
100
AcDbEntity
  8
SOLID
 62
     1
100
AcDbTrace
 10
8.593127360178915
 20
1.423260046220356
 30
0.0
 11
8.638464998265758
 21
1.403074429219956
 31
0.0
 12
8.597274694021209
 22
1.411215314162212
 32
0.0
 13
8.642612332108052
 23
1.391029697161812
 33
0.0
  0
SOLID
  5
113
330
EB
100
AcDbEntity
  8
SOLID
 62
     1
100
AcDbTrace
 10
8.518783281642729
 20
1.4699577893195
 30
0.0
 11
8.687749358113208
 21
1.522224472547337
 31
0.0
 12
8.632935219809365
 22
1.419134071964148
 32
0.0
 13
8.632935219809365
 23
1.419134071964148
 33
0.0
  0
SOLID
  5
114
330
EB
100
AcDbEntity
  8
SOLID
 62
     1
100
AcDbTrace
 10
8.584707068052781
 20
1.490350152884122
 30
0.0
 11
8.635974656699984
 21
1.551448485838069
 31
0.0
 12
8.620641230585929
 22
1.501465753893571
 32
0.0
 13
8.647217520581028
 23
1.551448485838069
 33
0.0
  0
SOLID
  5
115
330
EB
100
AcDbEntity
  8
SOLID
 62
     1
100
AcDbTrace
 10
8.589356104786135
 20
1.529709898068546
 30
0.0
 11
8.572168427478533
 21
1.509226421888862
 31
0.0
 12
8.609335484177783
 22
1.539026435684056
 32
0.0
 13
8.577542130581782
 23
1.501136592315402
 33
0.0
  0
SOLID
  5
116
330
EB
100
AcDbEntity
  8
SOLID
 62
     1
100
AcDbTrace
 10
8.638464998265758
 20
1.403074429219956
 30
0.0
 11
8.710751962356022
 21
1.539026435684056
 31
0.0
 12
8.642612332108052
 22
1.391029697161812
 32
0.0
 13
8.71634990291487
 23
1.529709898068546
 33
0.0
  0
SOLID
  5
117
330
EB
100
AcDbEntity
  8
SOLID
 62
     1
100
AcDbTrace
 10
8.645754237745254
 20
1.522236807647912
 30
0.0
 11
8.70003121496035
 21
1.539026435684056
 31
0.0
 12
8.654681441326159
 22
1.539026435684056
 32
0.0
 13
8.654681441326159
 23
1.539026435684056
 33
0.0
  0
SOLID
  5
118
330
EB
100
AcDbEntity
  8
SOLID
 62
     1
100
AcDbTrace
 10
8.816585180362723
 20
1.57518819906379
 30
0.0
 11
8.863733813174338
 21
1.663861880597489
 31
0.0
 12
8.834870359939877
 22
1.589732887642179
 32
0.0
 13
8.88201899275149
 23
1.678406569175877
 33
0.0
  0
LINE
  5
119
330
EB
100
AcDbEntity
  8
TRIM
100
AcDbLine
 10
10.41999999853406
 20
1.780339596352224
 30
0.0
 11
10.41999999853406
 21
2.402499998273461
 31
0.0
  0
LINE
  5
11A
330
EB
100
AcDbEntity
  8
TRIM
100
AcDbLine
 10
9.212094455479999
 20
1.750339596352224
 30
0.0
 11
9.212094455480064
 21
0.3543154034249878
 31
0.0
  0
LINE
  5
11B
330
EB
100
AcDbEntity
  8
TRIM
100
AcDbLine
 10
10.41999999853406
 20
0.3543154034249873
 30
0.0
 11
10.41999999853406
 21
1.750339596352224
 31
0.0
  0
LINE
  5
11C
330
EB
100
AcDbEntity
  8
TRIM
100
AcDbLine
 10
9.212094455479999
 20
1.750339596352224
 30
0.0
 11
10.41999999853406
 21
1.750339596352224
 31
0.0
  0
LINE
  5
11D
330
EB
100
AcDbEntity
  8
TRIM
100
AcDbLine
 10
9.182094455479997
 20
1.780339596352224
 30
0.0
 11
10.41999999853406
 21
1.780339596352224
 31
0.0
  0
TEXT
  5
11E
330
EB
100
AcDbEntity
  8
DIM
100
AcDbText
 10
9.571579664239893
 20
1.615565403424988
 30
0.0
 40
0.09
  1
DATE
 41
0.9
 72
     1
 11
9.714293949954178
 21
1.615565403424988
 31
0.0
100
AcDbText
  0
LINE
  5
11F
330
EB
100
AcDbEntity
  8
TRIM
100
AcDbLine
 10
9.994468264419049
 20
1.584315403424988
 30
0.0
 11
9.434119635489306
 21
1.584315403424988
 31
0.0
  0
LINE
  5
120
330
EB
100
AcDbEntity
  8
TRIM
100
AcDbLine
 10
10.41999999853406
 20
1.404315403424988
 30
0.0
 11
9.212094455480011
 21
1.404315403424988
 31
0.0
  0
LINE
  5
121
330
EB
100
AcDbEntity
  8
TRIM
100
AcDbLine
 10
9.434119635489306
 20
1.750339596352224
 30
0.0
 11
9.434119635489302
 21
0.6843154034249875
 31
0.0
  0
LINE
  5
122
330
EB
100
AcDbEntity
  8
TRIM
100
AcDbLine
 10
9.182094455479997
 20
1.780339596352224
 30
0.0
 11
9.182094455480022
 21
1.224315403424987
 31
0.0
  0
TEXT
  5
123
330
EB
100
AcDbEntity
  8
DIM
100
AcDbText
 10
9.227107045484656
 20
1.615565403424988
 30
0.0
 40
0.09
  1
REV
 41
0.8
 72
     1
 11
9.323107045484656
 21
1.615565403424988
 31
0.0
100
AcDbText
  0
LINE
  5
124
330
EB
100
AcDbEntity
  8
TRIM
100
AcDbLine
 10
9.434119635489306
 20
1.584315403424988
 30
0.0
 11
9.212094455480006
 21
1.584315403424988
 31
0.0
  0
SOLID
  5
125
330
EB
100
AcDbEntity
  8
SOLID
 62
     1
100
AcDbTrace
 10
9.086741622233388
 20
1.529709898068546
 30
0.0
 11
9.165805044717822
 21
1.678406569175877
 31
0.0
 12
9.081143681674539
 22
1.539026435684056
 32
0.0
 13
9.147519865140669
 23
1.663861880597488
 33
0.0
  0
SOLID
  5
126
330
EB
100
AcDbEntity
  8
SOLID
 62
     1
100
AcDbTrace
 10
8.953204583077742
 20
1.529709898068546
 30
0.0
 11
9.086741622233388
 21
1.529709898068546
 31
0.0
 12
8.947606642518891
 22
1.539026435684056
 32
0.0
 13
9.081143681674539
 23
1.539026435684056
 33
0.0
  0
LINE
  5
127
330
EB
100
AcDbEntity
  8
TRIM
100
AcDbLine
 10
9.994468264419047
 20
1.750339596352224
 30
0.0
 11
9.994468264419047
 21
0.684315403424987
 31
0.0
  0
TEXT
  5
128
330
EB
100
AcDbEntity
  8
DIM
100
AcDbText
 10
10.0105817160691
 20
1.615565403424988
 30
0.0
 40
0.09
  1
INITIALS
 41
0.8
 72
     1
 11
10.21115314464053
 21
1.615565403424988
 31
0.0
100
AcDbText
  0
LINE
  5
129
330
EB
100
AcDbEntity
  8
TRIM
100
AcDbLine
 10
10.41999999853406
 20
1.584315403424988
 30
0.0
 11
9.994468264419049
 21
1.584315403424988
 31
0.0
  0
LINE
  5
12A
330
EB
100
AcDbEntity
  8
TRIM
100
AcDbLine
 10
0.0299999985341133
 20
0.3492358197914696
 30
0.0
 11
7.996999998534064
 21
0.3492358197914633
 31
0.0
  0
LINE
  5
12B
330
EB
100
AcDbEntity
  8
TRIM
100
AcDbLine
 10
0.0299999985340644
 20
0.6384716413094696
 30
0.0
 11
7.996999998534064
 21
0.6384716413094634
 31
0.0
  0
LINE
  5
12C
330
EB
100
AcDbEntity
  8
TRIM
100
AcDbLine
 10
-0.0000000014659349
 20
-0.000000001726538
 30
0.0
 11
10.44999999853406
 21
-0.0000000017265371
 31
0.0
  0
LINE
  5
12D
330
EB
100
AcDbEntity
  8
TRIM
100
AcDbLine
 10
0.0299999985340644
 20
0.3192358197914693
 30
0.0
 11
7.996999998534064
 21
0.3192358197914626
 31
0.0
  0
LINE
  5
12E
330
EB
100
AcDbEntity
  8
TRIM
100
AcDbLine
 10
0.0299999985341133
 20
0.0299999982734693
 30
0.0
 11
7.996999998534064
 21
0.0299999982734627
 31
0.0
  0
LINE
  5
12F
330
EB
100
AcDbEntity
  8
TRIM
100
AcDbLine
 10
0.0299999985340652
 20
0.9877074628274646
 30
0.0
 11
4.123749998534062
 21
0.9877074628274638
 31
0.0
  0
LINE
  5
130
330
EB
100
AcDbEntity
  8
TRIM
100
AcDbLine
 10
0.0299999985341142
 20
0.9577074628274647
 30
0.0
 11
3.312499998534065
 21
0.9577074628274647
 31
0.0
  0
LINE
  5
131
330
EB
100
AcDbEntity
  8
TRIM
100
AcDbLine
 10
0.0299999985340644
 20
0.6684716413094645
 30
0.0
 11
3.312499998534113
 21
0.6684716413094645
 31
0.0
  0
TEXT
  5
132
330
EB
100
AcDbEntity
  8
TRIM
100
AcDbText
 10
0.1075473542991792
 20
0.4200287859488796
 30
0.0
 40
0.14
  1
DESCRIPTION:
 41
0.9
  7
SIMPLEX
100
AcDbText
  0
TEXT
  5
133
330
EB
100
AcDbEntity
  8
TRIM
100
AcDbText
 10
0.1075473542991792
 20
0.1075287859488796
 30
0.0
 40
0.14
  1
EXTRA DESC:
 41
0.9
  7
SIMPLEX
100
AcDbText
  0
TEXT
  5
134
330
EB
100
AcDbEntity
  8
TRIM
100
AcDbText
 10
0.1101805216547635
 20
0.7431394110287762
 30
0.0
 40
0.14
  1
PART NUMBER:
 41
0.8
  7
SIMPLEX
100
AcDbText
  0
LINE
  5
135
330
EB
100
AcDbEntity
  8
TRIM
100
AcDbLine
 10
0.0299999985340644
 20
0.6384716413094696
 30
0.0
 11
0.0299999985341133
 21
0.3492358197914696
 31
0.0
  0
LINE
  5
136
330
EB
100
AcDbEntity
  8
TRIM
100
AcDbLine
 10
0.0299999985340644
 20
0.3192358197914693
 30
0.0
 11
0.0299999985341133
 21
0.0299999982734693
 31
0.0
  0
LINE
  5
137
330
EB
100
AcDbEntity
  8
TRIM
100
AcDbLine
 10
0.0299999985340653
 20
0.9577074628274653
 30
0.0
 11
0.0299999985340644
 21
0.6684716413094645
 31
0.0
  0
LINE
  5
138
330
EB
100
AcDbEntity
  8
TRIM
100
AcDbLine
 10
3.342499998534066
 20
0.9577074628274647
 30
0.0
 11
4.093749998534065
 21
0.9577074628274647
 31
0.0
  0
TEXT
  5
139
330
EB
100
AcDbEntity
  8
DIM
 62
     1
100
AcDbText
 10
3.539702379486445
 20
0.8537499982734622
 30
0.0
 40
0.08
  1
SHEET
 72
     1
 11
3.718749998534065
 21
0.8537499982734622
 31
0.0
100
AcDbText
  0
LINE
  5
13A
330
EB
100
AcDbEntity
  8
TRIM
100
AcDbLine
 10
3.342499998534066
 20
0.9577074628274647
 30
0.0
 11
3.342499998534113
 21
0.6684716413094672
 31
0.0
  0
LINE
  5
13B
330
EB
100
AcDbEntity
  8
TRIM
100
AcDbLine
 10
3.312499998534065
 20
0.9577074628274644
 30
0.0
 11
3.312499998534113
 21
0.6684716413094645
 31
0.0
  0
LINE
  5
13C
330
EB
100
AcDbEntity
  8
TRIM
100
AcDbLine
 10
4.123749998534062
 20
0.9877074628274638
 30
0.0
 11
4.123749998534114
 21
0.6684716413094672
 31
0.0
  0
LINE
  5
13D
330
EB
100
AcDbEntity
  8
TRIM
100
AcDbLine
 10
4.093749998534065
 20
0.9577074628274647
 30
0.0
 11
4.093749998534113
 21
0.6684716413094645
 31
0.0
  0
LINE
  5
13E
330
EB
100
AcDbEntity
  8
TRIM
100
AcDbLine
 10
4.123749998534114
 20
0.6684716413094663
 30
0.0
 11
7.996999998534064
 21
0.6684716413094632
 31
0.0
  0
LINE
  5
13F
330
EB
100
AcDbEntity
  8
TRIM
100
AcDbLine
 10
9.182094455480024
 20
1.224315403424987
 30
0.0
 11
8.026999998534062
 21
1.224315403424987
 31
0.0
  0
TEXT
  5
140
330
EB
100
AcDbEntity
  8
DIM
100
AcDbText
 10
8.043249998534063
 20
0.2653392262302923
 30
0.0
 40
0.056
  1
DIMENSIONS IN 'INCHES' UNLESS SPECIFIED OTHERWISE
100
AcDbText
  0
LINE
  5
141
330
EB
100
AcDbEntity
  8
TRIM
100
AcDbLine
 10
9.182094455480005
 20
1.044315403424988
 30
0.0
 11
8.026999998534051
 21
1.044315403424987
 31
0.0
  0
LINE
  5
142
330
EB
100
AcDbEntity
  8
TRIM
100
AcDbLine
 10
9.182094455480024
 20
1.194315403424987
 30
0.0
 11
8.026999998534066
 21
1.194315403424987
 31
0.0
  0
LINE
  5
143
330
EB
100
AcDbEntity
  8
TRIM
100
AcDbLine
 10
8.026999998534064
 20
0.0749999982734631
 30
0.0
 11
10.41999999853406
 21
0.0749999982734622
 31
0.0
  0
LINE
  5
144
330
EB
100
AcDbEntity
  8
TRIM
100
AcDbLine
 10
8.026999998534064
 20
0.2249999982734629
 30
0.0
 11
10.41999999853406
 21
0.2249999982734625
 31
0.0
  0
TEXT
  5
145
330
EB
100
AcDbEntity
  8
TRIM
100
AcDbText
 10
8.074563651603105
 20
0.5810145276027239
 30
0.0
 40
0.07
  1
PRINT APPROVED
 41
1.058889550608496
  7
SIMPLEX
 72
     5
 11
9.02403461531539
 21
0.5810145276027239
 31
0.0
100
AcDbText
  0
LINE
  5
146
330
EB
100
AcDbEntity
  8
TRIM
100
AcDbLine
 10
9.182094455480063
 20
0.3543154034249878
 30
0.0
 11
8.026999998534064
 21
0.3543154034249878
 31
0.0
  0
LINE
  5
147
330
EB
100
AcDbEntity
  8
TRIM
 62
     2
100
AcDbLine
 10
9.182094455480012
 20
0.8643154034249874
 30
0.0
 11
8.026999998534064
 21
0.8643154034249874
 31
0.0
  0
LINE
  5
148
330
EB
100
AcDbEntity
  8
TRIM
100
AcDbLine
 10
9.182094455480017
 20
0.6843154034249875
 30
0.0
 11
8.026999998534064
 21
0.684315403424987
 31
0.0
  0
LINE
  5
149
330
EB
100
AcDbEntity
  8
TRIM
 62
     2
100
AcDbLine
 10
9.182094455480024
 20
0.5457609724770878
 30
0.0
 11
8.026999998534064
 21
0.5457609724770878
 31
0.0
  0
LINE
  5
14A
330
EB
100
AcDbEntity
  8
TRIM
100
AcDbLine
 10
9.182094455480031
 20
0.3543154034249873
 30
0.0
 11
8.026999998534064
 21
0.3543154034249873
 31
0.0
  0
LINE
  5
14B
330
EB
100
AcDbEntity
  8
TRIM
100
AcDbLine
 10
7.996999998534064
 20
0.3492358197914598
 30
0.0
 11
7.996999998534064
 21
0.6384716413094598
 31
0.0
  0
LINE
  5
14C
330
EB
100
AcDbEntity
  8
TRIM
100
AcDbLine
 10
8.026999998534064
 20
0.3543154034249878
 30
0.0
 11
8.026999998534064
 21
0.864315403424988
 31
0.0
  0
TEXT
  5
14D
330
EB
100
AcDbEntity
  8
TRIM
100
AcDbText
 10
8.062499998534065
 20
0.1099999982734623
 30
0.0
 40
0.08
  1
FILE:
  7
SIMPLEX
100
AcDbText
  0
LINE
  5
14E
330
EB
100
AcDbEntity
  8
TRIM
100
AcDbLine
 10
8.026999998534064
 20
0.0749999982734653
 30
0.0
 11
8.099999998534064
 21
0.0749999982734648
 31
0.0
  0
LINE
  5
14F
330
EB
100
AcDbEntity
  8
TRIM
100
AcDbLine
 10
8.026999998534064
 20
0.0749999982734622
 30
0.0
 11
8.026999998534064
 21
0.2249999982734629
 31
0.0
  0
LINE
  5
150
330
EB
100
AcDbEntity
  8
TRIM
100
AcDbLine
 10
7.996999998534064
 20
0.0299999982734596
 30
0.0
 11
7.996999998534064
 21
0.3192358197914595
 31
0.0
  0
TEXT
  5
151
330
EB
100
AcDbEntity
  8
TRIM
100
AcDbText
 10
8.074563651603092
 20
0.8995689585506237
 30
0.0
 40
0.07
  1
PRINT DRAWN
 41
1.047995828933662
  7
SIMPLEX
 72
     5
 11
8.811654051286435
 21
0.8995689585506237
 31
0.0
100
AcDbText
  0
TEXT
  5
152
330
EB
100
AcDbEntity
  8
TRIM
100
AcDbText
 10
8.074583587926003
 20
1.067921744520258
 30
0.0
 40
0.09
  1
SCALE:
  7
SIMPLEX
100
AcDbText
  0
LINE
  5
153
330
EB
100
AcDbEntity
  8
TRIM
100
AcDbLine
 10
8.026999998534064
 20
0.864315403424988
 30
0.0
 11
8.026999998534064
 21
1.194315403424987
 31
0.0
  0
LINE
  5
154
330
EB
100
AcDbEntity
  8
TRIM
100
AcDbLine
 10
10.41999999853406
 20
0.3543154034249873
 30
0.0
 11
9.212094455480064
 21
0.3543154034249878
 31
0.0
  0
LINE
  5
155
330
EB
100
AcDbEntity
  8
TRIM
100
AcDbLine
 10
10.41999999853406
 20
0.0749999982734622
 30
0.0
 11
10.41999999853406
 21
0.2249999982734625
 31
0.0
  0
LINE
  5
156
330
EB
100
AcDbEntity
  8
TRIM
100
AcDbLine
 10
10.41999999853406
 20
0.684315403424987
 30
0.0
 11
9.212094455480039
 21
0.6843154034249875
 31
0.0
  0
LINE
  5
157
330
EB
100
AcDbEntity
  8
TRIM
100
AcDbLine
 10
10.41999999853406
 20
0.8643154034249874
 30
0.0
 11
9.212094455480032
 21
0.8643154034249874
 31
0.0
  0
LINE
  5
158
330
EB
100
AcDbEntity
  8
TRIM
100
AcDbLine
 10
10.41999999853406
 20
1.044315403424987
 30
0.0
 11
9.212094455480025
 21
1.044315403424988
 31
0.0
  0
LINE
  5
159
330
EB
100
AcDbEntity
  8
TRIM
100
AcDbLine
 10
10.41999999853406
 20
1.224315403424987
 30
0.0
 11
9.212094455480018
 21
1.224315403424987
 31
0.0
  0
TEXT
  5
15A
330
EB
100
AcDbEntity
  8
TRIM
100
AcDbText
 10
9.277645854177304
 20
0.5810145276027239
 30
0.0
 40
0.07
  1
DESIGN ENGINEER
  7
SIMPLEX
100
AcDbText
  0
LINE
  5
15B
330
EB
100
AcDbEntity
  8
TRIM
 62
     2
100
AcDbLine
 10
10.41418891242604
 20
0.5457609724770874
 30
0.0
 11
9.212094455480064
 21
0.5457609724770878
 31
0.0
  0
LINE
  5
15C
330
EB
100
AcDbEntity
  8
TRIM
100
AcDbLine
 10
9.182094455480024
 20
1.194315403424987
 30
0.0
 11
9.182094455480063
 21
0.3543154034249878
 31
0.0
  0
LINE
  5
15D
330
EB
100
AcDbEntity
  8
TRIM
 62
     2
100
AcDbLine
 10
8.736598446570452
 20
0.5457609724770878
 30
0.0
 11
8.73659844657045
 21
0.3543154034249878
 31
0.0
  0
LINE
  5
15E
330
EB
100
AcDbEntity
  8
TRIM
 62
     2
100
AcDbLine
 10
8.736598446570452
 20
0.8643154034249874
 30
0.0
 11
8.736598446570452
 21
0.6843154034249875
 31
0.0
  0
LINE
  5
15F
330
EB
100
AcDbEntity
  8
TRIM
100
AcDbLine
 10
3.342499998534113
 20
0.6684716413094672
 30
0.0
 11
4.093749998534113
 21
0.6684716413094663
 31
0.0
  0
ENDBLK
  5
161
330
EB
100
AcDbEntity
  8
0
100
AcDbBlockEnd
  0
BLOCK
  5
164
330
162
100
AcDbEntity
  8
0
100
AcDbBlockBegin
  2
A$C4FB65283
 70
     2
 10
0.0
 20
0.0
 30
0.0
  3
A$C4FB65283
  1

  0
ATTDEF
  5
163
330
162
100
AcDbEntity
  8
DIM
100
AcDbText
 10
0.0000000025669991
 20
0.0433333427455174
 30
0.0
 40
0.13
  1

  7
SIMPLEX
100
AcDbAttributeDefinition
  3
PART_#
  2
PART_#
 70
     0
  0
ENDBLK
  5
165
330
162
100
AcDbEntity
  8
0
100
AcDbBlockEnd
  0
BLOCK
  5
168
330
166
100
AcDbEntity
  8
0
100
AcDbBlockBegin
  2
A$C2BBE0097
 70
     2
 10
0.0
 20
0.0
 30
0.0
  3
A$C2BBE0097
  1

  0
ATTDEF
  5
167
330
166
100
AcDbEntity
  8
DIM
100
AcDbText
 10
0.0000000025669991
 20
0.0123809372330444
 30
0.0
 40
0.13
  1

  7
SIMPLEX
100
AcDbAttributeDefinition
  3
PART_DESCRIPTION
  2
PART_DESCRIPTION
 70
     0
  0
ENDBLK
  5
169
330
166
100
AcDbEntity
  8
0
100
AcDbBlockEnd
  0
BLOCK
  5
16C
330
16A
100
AcDbEntity
  8
0
100
AcDbBlockBegin
  2
A$C10236829
 70
     2
 10
0.0
 20
0.0
 30
0.0
  3
A$C10236829
  1

  0
ATTDEF
  5
16B
330
16A
100
AcDbEntity
  8
DIM
100
AcDbText
 10
0.0000000025669991
 20
0.0123809528212267
 30
0.0
 40
0.13
  1

  7
SIMPLEX
100
AcDbAttributeDefinition
  3
EXTRA_DESCRIPTION
  2
EXTRA_DESCRIPTION
 70
     0
  0
ENDBLK
  5
16D
330
16A
100
AcDbEntity
  8
0
100
AcDbBlockEnd
  0
BLOCK
  5
170
330
16E
100
AcDbEntity
  8
0
100
AcDbBlockBegin
  2
A$C794932C0
 70
     2
 10
0.0
 20
0.0
 30
0.0
  3
A$C794932C0
  1

  0
ATTDEF
  5
16F
330
16E
100
AcDbEntity
  8
DIM
100
AcDbText
 10
0.2238095347306626
 20
0.0499999881906419
 30
0.0
 40
0.1
  1

  7
SIMPLEX
 72
     4
 11
0.2238095347306626
 21
0.0499999881906419
 31
0.0
100
AcDbAttributeDefinition
  3
SHEET
  2
SHEET
 70
     0
  0
ENDBLK
  5
171
330
16E
100
AcDbEntity
  8
0
100
AcDbBlockEnd
  0
BLOCK
  5
1EE
330
172
100
AcDbEntity
  8
0
100
AcDbBlockBegin
  2
TEST
 70
     2
 10
0.0
 20
0.0
 30
0.0
  3
TEST
  1

  0
INSERT
  5
173
330
172
100
AcDbEntity
  8
DIM
100
AcDbBlockReference
 66
     1
  2
A$C4FB65283
 10
0.9375
 20
-0.9375
 30
0.0
  0
ATTRIB
  5
174
330
173
100
AcDbEntity
  8
DIM
100
AcDbText
 10
0.937500002566999
 20
-0.8941666572544825
 30
0.0
 40
0.13
  1

  7
SIMPLEX
100
AcDbAttribute
  2
PART_#
 70
     0
  0
SEQEND
  5
175
330
173
100
AcDbEntity
  8
DIM
  0
LINE
  5
176
330
172
100
AcDbEntity
  8
TRIM
100
AcDbLine
 10
10.66999999853406
 20
8.11999999827346
 30
0.0
 11
0.2799999985340644
 21
8.11999999827346
 31
0.0
  0
LINE
  5
177
330
172
100
AcDbEntity
  8
TRIM
100
AcDbLine
 10
0.2499999985340655
 20
8.149999998273461
 30
0.0
 11
10.69999999853406
 21
8.149999998273461
 31
0.0
  0
LINE
  5
178
330
172
100
AcDbEntity
  8
TRIM
100
AcDbLine
 10
0.2799999985340644
 20
8.11999999827346
 30
0.0
 11
0.2799999985340651
 21
1.237707462827464
 31
0.0
  0
LINE
  5
179
330
172
100
AcDbEntity
  8
TRIM
100
AcDbLine
 10
0.2499999985340651
 20
8.149999998273461
 30
0.0
 11
0.2499999985340651
 21
0.249999998273462
 31
0.0
  0
LINE
  5
17A
330
172
100
AcDbEntity
  8
TRIM
100
AcDbLine
 10
10.66999999853406
 20
2.682499998273461
 30
0.0
 11
10.66999999853406
 21
8.119999998273458
 31
0.0
  0
LINE
  5
17B
330
172
100
AcDbEntity
  8
TRIM
100
AcDbLine
 10
10.69999999853406
 20
0.2499999982734593
 30
0.0
 11
10.69999999853406
 21
8.149999998273459
 31
0.0
  0
SOLID
  5
17C
330
172
100
AcDbEntity
  8
SOLID
 62
     1
100
AcDbTrace
 10
9.100645714660327
 20
1.586824719979944
 30
0.0
 11
9.203204583077742
 21
1.779709898068546
 31
0.0
 12
9.094321504076491
 22
1.594775342338473
 32
0.0
 13
9.197606642518891
 23
1.789026435684056
 33
0.0
  0
SOLID
  5
17D
330
172
100
AcDbEntity
  8
SOLID
 62
     1
100
AcDbTrace
 10
8.993633161575985
 20
1.580656234914544
 30
0.0
 11
9.178899857892716
 21
1.80144848583807
 31
0.0
 12
9.085889223298043
 22
1.605376172149846
 32
0.0
 13
9.19014272177376
 23
1.80144848583807
 33
0.0
  0
SOLID
  5
17E
330
172
100
AcDbEntity
  8
SOLID
 62
     1
100
AcDbTrace
 10
9.025982480684099
 20
1.801448485838069
 30
0.0
 11
9.373139625704464
 21
1.894468962492971
 31
0.0
 12
9.323679760929408
 22
1.801448485838069
 32
0.0
 13
9.323679760929408
 23
1.801448485838069
 33
0.0
  0
SOLID
  5
17F
330
172
100
AcDbEntity
  8
SOLID
 62
     1
100
AcDbTrace
 10
9.066585180362723
 20
1.82518819906379
 30
0.0
 11
9.397519865140669
 21
1.913861880597488
 31
0.0
 12
9.084870359939877
 22
1.839732887642179
 32
0.0
 13
9.415805044717822
 23
1.928406569175877
 33
0.0
  0
LINE
  5
180
330
172
100
AcDbEntity
  8
TRIM
100
AcDbLine
 10
10.66999999853406
 20
2.652499998273461
 30
0.0
 11
8.276999998534064
 21
2.652499998273462
 31
0.0
  0
TEXT
  5
181
330
172
100
AcDbEntity
  8
TRIM
100
AcDbText
 10
8.343749998534065
 20
2.482876334230538
 30
0.0
 40
0.1
  1
TASK FORCE TIPS, INC.
 51
10.0
  7
ROMAND
100
AcDbText
  0
TEXT
  5
182
330
172
100
AcDbEntity
  8
TRIM
100
AcDbText
 10
8.378853318574009
 20
2.045200536343402
 30
0.0
 40
0.09
  1
219-462-6161
  7
SIMPLEX
100
AcDbText
  0
TEXT
  5
183
330
172
100
AcDbEntity
  8
TRIM
 62
     2
100
AcDbText
 10
8.378853318574009
 20
2.195864616217594
 30
0.0
 40
0.09
  1
VALPARAISO, IN 46383
  7
SIMPLEX
100
AcDbText
  0
TEXT
  5
184
330
172
100
AcDbEntity
  8
TRIM
 62
     2
100
AcDbText
 10
8.378853318574009
 20
2.340582801482295
 30
0.0
 40
0.09
  1
2800 E. EVANS AVE.
  7
SIMPLEX
100
AcDbText
  0
LINE
  5
185
330
172
100
AcDbEntity
  8
TRIM
100
AcDbLine
 10
10.66999999853406
 20
2.682499998273461
 30
0.0
 11
8.246999998534068
 21
2.682499998273462
 31
0.0
  0
LINE
  5
186
330
172
100
AcDbEntity
  8
TRIM
100
AcDbLine
 10
8.276999998534062
 20
1.474315403424987
 30
0.0
 11
8.276999998534064
 21
2.652499998273462
 31
0.0
  0
LINE
  5
187
330
172
100
AcDbEntity
  8
TRIM
100
AcDbLine
 10
8.246999998534064
 20
0.9184716413094635
 30
0.0
 11
8.246999998534068
 21
2.682499998273462
 31
0.0
  0
SOLID
  5
188
330
172
100
AcDbEntity
  8
SOLID
 62
     1
100
AcDbTrace
 10
8.293289409296239
 20
1.779709898068546
 30
0.0
 11
8.557257975069029
 21
1.779709898068546
 31
0.0
 12
8.364055538205608
 22
1.789026435684056
 32
0.0
 13
8.577237354460679
 23
1.789026435684056
 33
0.0
  0
SOLID
  5
189
330
172
100
AcDbEntity
  8
SOLID
 62
     1
100
AcDbTrace
 10
8.293289409296239
 20
1.779709898068546
 30
0.0
 11
8.848232940785159
 21
1.928406569175877
 31
0.0
 12
8.364055538205608
 22
1.789026435684056
 32
0.0
 13
8.829947761208007
 23
1.913861880597489
 33
0.0
  0
SOLID
  5
18A
330
172
100
AcDbEntity
  8
SOLID
 62
     1
100
AcDbTrace
 10
8.418609830666147
 20
1.580656234914544
 30
0.0
 11
8.603876526982878
 21
1.801448485838069
 31
0.0
 12
8.510865892388205
 22
1.605376172149845
 32
0.0
 13
8.615119390863922
 23
1.801448485838069
 33
0.0
  0
SOLID
  5
18B
330
172
100
AcDbEntity
  8
SOLID
 62
     1
100
AcDbTrace
 10
8.357639476921409
 20
1.54181383575286
 30
0.0
 11
8.557257975069029
 21
1.779709898068546
 31
0.0
 12
8.383769628526296
 22
1.558460578250724
 32
0.0
 13
8.577237354460679
 23
1.789026435684056
 33
0.0
  0
SOLID
  5
18C
330
172
100
AcDbEntity
  8
SOLID
 62
     1
100
AcDbTrace
 10
8.519298173166653
 20
1.594775342338473
 30
0.0
 11
8.622583311609053
 21
1.789026435684056
 31
0.0
 12
8.525622383750489
 22
1.586824719979944
 32
0.0
 13
8.628181252167903
 23
1.779709898068546
 33
0.0
  0
SOLID
  5
18D
330
172
100
AcDbEntity
  8
SOLID
 62
     1
100
AcDbTrace
 10
8.769123822871026
 20
1.696010323780124
 30
0.0
 11
8.639737606638517
 21
1.54181383575286
 31
0.0
 12
8.78420778556849
 22
1.699492730963093
 32
0.0
 13
8.665867758243402
 23
1.558460578250724
 33
0.0
  0
SOLID
  5
18E
330
172
100
AcDbEntity
  8
SOLID
 62
     1
100
AcDbTrace
 10
8.807720513467595
 20
1.586824719979944
 30
0.0
 11
8.847274694021209
 21
1.661215314162212
 31
0.0
 12
8.801396302883759
 22
1.594775342338473
 32
0.0
 13
8.843127360178915
 23
1.673260046220356
 33
0.0
  0
SOLID
  5
18F
330
172
100
AcDbEntity
  8
SOLID
 62
     1
100
AcDbTrace
 10
9.152260685370517
 20
1.789026435684056
 30
0.0
 11
8.958792959436136
 21
1.558460578250725
 31
0.0
 12
9.132281305978867
 22
1.779709898068546
 32
0.0
 13
8.932662807831249
 23
1.54181383575286
 33
0.0
  0
SOLID
  5
190
330
172
100
AcDbEntity
  8
SOLID
 62
     1
100
AcDbTrace
 10
8.700707960383251
 20
1.580656234914544
 30
0.0
 11
8.804319735831773
 21
1.704135940540385
 31
0.0
 12
8.79296402210531
 22
1.605376172149845
 32
0.0
 13
8.837597581722521
 23
1.689319688964547
 33
0.0
  0
SOLID
  5
191
330
172
100
AcDbEntity
  8
SOLID
 62
     1
100
AcDbTrace
 10
8.639737606638517
 20
1.54181383575286
 30
0.0
 11
8.807720513467595
 21
1.586824719979944
 31
0.0
 12
8.665867758243402
 22
1.558460578250724
 32
0.0
 13
8.801396302883759
 23
1.594775342338473
 33
0.0
  0
SOLID
  5
192
330
172
100
AcDbEntity
  8
SOLID
 62
     1
100
AcDbTrace
 10
8.357639476921409
 20
1.54181383575286
 30
0.0
 11
8.525622383750489
 21
1.586824719979944
 31
0.0
 12
8.383769628526296
 22
1.558460578250724
 32
0.0
 13
8.519298173166653
 23
1.594775342338473
 33
0.0
  0
SOLID
  5
193
330
172
100
AcDbEntity
  8
SOLID
 62
     1
100
AcDbTrace
 10
8.932662807831249
 20
1.54181383575286
 30
0.0
 11
9.100645714660327
 21
1.586824719979944
 31
0.0
 12
8.958792959436136
 22
1.558460578250725
 32
0.0
 13
9.094321504076491
 23
1.594775342338473
 33
0.0
  0
SOLID
  5
194
330
172
100
AcDbEntity
  8
SOLID
 62
     1
100
AcDbTrace
 10
8.458410376751436
 20
1.801448485838069
 30
0.0
 11
8.805567521771804
 21
1.894468962492971
 31
0.0
 12
8.756107656996745
 22
1.801448485838069
 32
0.0
 13
8.756107656996745
 23
1.801448485838069
 33
0.0
  0
SOLID
  5
195
330
172
100
AcDbEntity
  8
SOLID
 62
     1
100
AcDbTrace
 10
8.622583311609053
 20
1.789026435684056
 30
0.0
 11
8.859335484177783
 21
1.789026435684056
 31
0.0
 12
8.628181252167903
 22
1.779709898068546
 32
0.0
 13
8.839356104786135
 23
1.779709898068546
 33
0.0
  0
SOLID
  5
196
330
172
100
AcDbEntity
  8
SOLID
 62
     1
100
AcDbTrace
 10
8.822168427478533
 20
1.759226421888862
 30
0.0
 11
8.707090830046876
 21
1.723629191620975
 31
0.0
 12
8.827542130581782
 22
1.751136592315402
 32
0.0
 13
8.733530452159383
 23
1.722055733491771
 33
0.0
  0
SOLID
  5
197
330
172
100
AcDbEntity
  8
SOLID
 62
     1
100
AcDbTrace
 10
8.707090830046876
 20
1.723629191620975
 30
0.0
 11
8.769123822871026
 21
1.696010323780124
 31
0.0
 12
8.733530452159383
 22
1.722055733491771
 32
0.0
 13
8.78420778556849
 23
1.699492730963093
 33
0.0
  0
SOLID
  5
198
330
172
100
AcDbEntity
  8
SOLID
 62
     1
100
AcDbTrace
 10
8.742196428717766
 20
1.801448485838069
 30
0.0
 11
9.089353573738133
 21
1.894468962492971
 31
0.0
 12
9.039893708963075
 22
1.801448485838069
 32
0.0
 13
9.039893708963075
 23
1.801448485838069
 33
0.0
  0
SOLID
  5
199
330
172
100
AcDbEntity
  8
SOLID
 62
     1
100
AcDbTrace
 10
8.960751962356022
 20
1.789026435684056
 30
0.0
 11
9.152260685370517
 21
1.789026435684056
 31
0.0
 12
8.96634990291487
 22
1.779709898068546
 32
0.0
 13
9.132281305978867
 23
1.779709898068546
 33
0.0
  0
SOLID
  5
19A
330
172
100
AcDbEntity
  8
SOLID
 62
     1
100
AcDbTrace
 10
8.801084307973546
 20
1.839732887642179
 30
0.0
 11
9.13201899275149
 21
1.928406569175877
 31
0.0
 12
8.782799128396392
 22
1.825188199063791
 32
0.0
 13
9.113733813174338
 23
1.913861880597489
 33
0.0
  0
SOLID
  5
19B
330
172
100
AcDbEntity
  8
SOLID
 62
     1
100
AcDbTrace
 10
8.782799128396392
 20
1.825188199063791
 30
0.0
 11
8.829947761208007
 21
1.913861880597489
 31
0.0
 12
8.801084307973546
 22
1.839732887642179
 32
0.0
 13
8.848232940785159
 23
1.928406569175877
 33
0.0
  0
SOLID
  5
19C
330
172
100
AcDbEntity
  8
SOLID
 62
     1
100
AcDbTrace
 10
8.843127360178915
 20
1.673260046220356
 30
0.0
 11
8.888464998265758
 21
1.653074429219956
 31
0.0
 12
8.847274694021209
 22
1.661215314162212
 32
0.0
 13
8.892612332108052
 23
1.641029697161812
 33
0.0
  0
SOLID
  5
19D
330
172
100
AcDbEntity
  8
SOLID
 62
     1
100
AcDbTrace
 10
8.768783281642729
 20
1.7199577893195
 30
0.0
 11
8.937749358113208
 21
1.772224472547337
 31
0.0
 12
8.882935219809365
 22
1.669134071964148
 32
0.0
 13
8.882935219809365
 23
1.669134071964148
 33
0.0
  0
SOLID
  5
19E
330
172
100
AcDbEntity
  8
SOLID
 62
     1
100
AcDbTrace
 10
8.834707068052781
 20
1.740350152884122
 30
0.0
 11
8.885974656699984
 21
1.801448485838069
 31
0.0
 12
8.870641230585929
 22
1.751465753893571
 32
0.0
 13
8.897217520581028
 23
1.801448485838069
 33
0.0
  0
SOLID
  5
19F
330
172
100
AcDbEntity
  8
SOLID
 62
     1
100
AcDbTrace
 10
8.839356104786135
 20
1.779709898068546
 30
0.0
 11
8.822168427478533
 21
1.759226421888862
 31
0.0
 12
8.859335484177783
 22
1.789026435684056
 32
0.0
 13
8.827542130581782
 23
1.751136592315402
 33
0.0
  0
SOLID
  5
1A0
330
172
100
AcDbEntity
  8
SOLID
 62
     1
100
AcDbTrace
 10
8.888464998265758
 20
1.653074429219956
 30
0.0
 11
8.960751962356022
 21
1.789026435684056
 31
0.0
 12
8.892612332108052
 22
1.641029697161812
 32
0.0
 13
8.96634990291487
 23
1.779709898068546
 33
0.0
  0
SOLID
  5
1A1
330
172
100
AcDbEntity
  8
SOLID
 62
     1
100
AcDbTrace
 10
8.895754237745254
 20
1.772236807647912
 30
0.0
 11
8.95003121496035
 21
1.789026435684056
 31
0.0
 12
8.904681441326159
 22
1.789026435684056
 32
0.0
 13
8.904681441326159
 23
1.789026435684056
 33
0.0
  0
SOLID
  5
1A2
330
172
100
AcDbEntity
  8
SOLID
 62
     1
100
AcDbTrace
 10
9.066585180362723
 20
1.82518819906379
 30
0.0
 11
9.113733813174338
 21
1.913861880597489
 31
0.0
 12
9.084870359939877
 22
1.839732887642179
 32
0.0
 13
9.13201899275149
 23
1.928406569175877
 33
0.0
  0
LINE
  5
1A3
330
172
100
AcDbEntity
  8
TRIM
100
AcDbLine
 10
10.66999999853406
 20
2.030339596352224
 30
0.0
 11
10.66999999853406
 21
2.652499998273461
 31
0.0
  0
LINE
  5
1A4
330
172
100
AcDbEntity
  8
TRIM
100
AcDbLine
 10
9.462094455479999
 20
2.000339596352224
 30
0.0
 11
9.462094455480064
 21
0.6043154034249878
 31
0.0
  0
LINE
  5
1A5
330
172
100
AcDbEntity
  8
TRIM
100
AcDbLine
 10
10.66999999853406
 20
0.6043154034249874
 30
0.0
 11
10.66999999853406
 21
2.000339596352224
 31
0.0
  0
LINE
  5
1A6
330
172
100
AcDbEntity
  8
TRIM
100
AcDbLine
 10
9.462094455479999
 20
2.000339596352224
 30
0.0
 11
10.66999999853406
 21
2.000339596352224
 31
0.0
  0
LINE
  5
1A7
330
172
100
AcDbEntity
  8
TRIM
100
AcDbLine
 10
9.432094455479997
 20
2.030339596352224
 30
0.0
 11
10.66999999853406
 21
2.030339596352224
 31
0.0
  0
TEXT
  5
1A8
330
172
100
AcDbEntity
  8
DIM
100
AcDbText
 10
9.821579664239893
 20
1.865565403424988
 30
0.0
 40
0.09
  1
DATE
 41
0.9
 72
     1
 11
9.964293949954178
 21
1.865565403424988
 31
0.0
100
AcDbText
  0
LINE
  5
1A9
330
172
100
AcDbEntity
  8
TRIM
100
AcDbLine
 10
10.24446826441905
 20
1.834315403424988
 30
0.0
 11
9.684119635489306
 21
1.834315403424988
 31
0.0
  0
LINE
  5
1AA
330
172
100
AcDbEntity
  8
TRIM
100
AcDbLine
 10
10.66999999853406
 20
1.654315403424988
 30
0.0
 11
9.462094455480011
 21
1.654315403424988
 31
0.0
  0
LINE
  5
1AB
330
172
100
AcDbEntity
  8
TRIM
100
AcDbLine
 10
9.684119635489306
 20
2.000339596352224
 30
0.0
 11
9.684119635489302
 21
0.9343154034249874
 31
0.0
  0
LINE
  5
1AC
330
172
100
AcDbEntity
  8
TRIM
100
AcDbLine
 10
9.432094455479997
 20
2.030339596352224
 30
0.0
 11
9.432094455480022
 21
1.474315403424987
 31
0.0
  0
TEXT
  5
1AD
330
172
100
AcDbEntity
  8
DIM
100
AcDbText
 10
9.477107045484656
 20
1.865565403424988
 30
0.0
 40
0.09
  1
REV
 41
0.8
 72
     1
 11
9.573107045484656
 21
1.865565403424988
 31
0.0
100
AcDbText
  0
LINE
  5
1AE
330
172
100
AcDbEntity
  8
TRIM
100
AcDbLine
 10
9.684119635489306
 20
1.834315403424988
 30
0.0
 11
9.462094455480006
 21
1.834315403424988
 31
0.0
  0
SOLID
  5
1AF
330
172
100
AcDbEntity
  8
SOLID
 62
     1
100
AcDbTrace
 10
9.336741622233388
 20
1.779709898068546
 30
0.0
 11
9.415805044717822
 21
1.928406569175877
 31
0.0
 12
9.331143681674539
 22
1.789026435684056
 32
0.0
 13
9.397519865140669
 23
1.913861880597488
 33
0.0
  0
SOLID
  5
1B0
330
172
100
AcDbEntity
  8
SOLID
 62
     1
100
AcDbTrace
 10
9.203204583077742
 20
1.779709898068546
 30
0.0
 11
9.336741622233388
 21
1.779709898068546
 31
0.0
 12
9.197606642518891
 22
1.789026435684056
 32
0.0
 13
9.331143681674539
 23
1.789026435684056
 33
0.0
  0
LINE
  5
1B1
330
172
100
AcDbEntity
  8
TRIM
100
AcDbLine
 10
10.24446826441905
 20
2.000339596352224
 30
0.0
 11
10.24446826441905
 21
0.934315403424987
 31
0.0
  0
TEXT
  5
1B2
330
172
100
AcDbEntity
  8
DIM
100
AcDbText
 10
10.2605817160691
 20
1.865565403424988
 30
0.0
 40
0.09
  1
INITIALS
 41
0.8
 72
     1
 11
10.46115314464053
 21
1.865565403424988
 31
0.0
100
AcDbText
  0
LINE
  5
1B3
330
172
100
AcDbEntity
  8
TRIM
100
AcDbLine
 10
10.66999999853406
 20
1.834315403424988
 30
0.0
 11
10.24446826441905
 21
1.834315403424988
 31
0.0
  0
LINE
  5
1B4
330
172
100
AcDbEntity
  8
TRIM
100
AcDbLine
 10
0.2799999985341133
 20
0.5992358197914696
 30
0.0
 11
8.246999998534064
 21
0.5992358197914634
 31
0.0
  0
LINE
  5
1B5
330
172
100
AcDbEntity
  8
TRIM
100
AcDbLine
 10
0.2799999985340644
 20
0.8884716413094695
 30
0.0
 11
8.246999998534064
 21
0.8884716413094633
 31
0.0
  0
LINE
  5
1B6
330
172
100
AcDbEntity
  8
TRIM
100
AcDbLine
 10
0.2499999985340651
 20
0.249999998273462
 30
0.0
 11
10.69999999853406
 21
0.2499999982734629
 31
0.0
  0
LINE
  5
1B7
330
172
100
AcDbEntity
  8
TRIM
100
AcDbLine
 10
0.2799999985340644
 20
0.5692358197914693
 30
0.0
 11
8.246999998534064
 21
0.5692358197914627
 31
0.0
  0
LINE
  5
1B8
330
172
100
AcDbEntity
  8
TRIM
100
AcDbLine
 10
0.2799999985341133
 20
0.2799999982734693
 30
0.0
 11
8.246999998534064
 21
0.2799999982734627
 31
0.0
  0
LINE
  5
1B9
330
172
100
AcDbEntity
  8
TRIM
100
AcDbLine
 10
0.2799999985340651
 20
1.237707462827464
 30
0.0
 11
4.373749998534062
 21
1.237707462827463
 31
0.0
  0
LINE
  5
1BA
330
172
100
AcDbEntity
  8
TRIM
100
AcDbLine
 10
0.2799999985341142
 20
1.207707462827464
 30
0.0
 11
3.562499998534065
 21
1.207707462827464
 31
0.0
  0
LINE
  5
1BB
330
172
100
AcDbEntity
  8
TRIM
100
AcDbLine
 10
0.2799999985340644
 20
0.9184716413094644
 30
0.0
 11
3.562499998534113
 21
0.9184716413094644
 31
0.0
  0
TEXT
  5
1BC
330
172
100
AcDbEntity
  8
TRIM
100
AcDbText
 10
0.3575473542991792
 20
0.6700287859488796
 30
0.0
 40
0.14
  1
DESCRIPTION:
 41
0.9
  7
SIMPLEX
100
AcDbText
  0
TEXT
  5
1BD
330
172
100
AcDbEntity
  8
TRIM
100
AcDbText
 10
0.3575473542991792
 20
0.3575287859488796
 30
0.0
 40
0.14
  1
EXTRA DESC:
 41
0.9
  7
SIMPLEX
100
AcDbText
  0
TEXT
  5
1BE
330
172
100
AcDbEntity
  8
TRIM
100
AcDbText
 10
0.3601805216547635
 20
0.9931394110287762
 30
0.0
 40
0.14
  1
PART NUMBER:
 41
0.8
  7
SIMPLEX
100
AcDbText
  0
LINE
  5
1BF
330
172
100
AcDbEntity
  8
TRIM
100
AcDbLine
 10
0.2799999985340644
 20
0.8884716413094695
 30
0.0
 11
0.2799999985341133
 21
0.5992358197914696
 31
0.0
  0
LINE
  5
1C0
330
172
100
AcDbEntity
  8
TRIM
100
AcDbLine
 10
0.2799999985340644
 20
0.5692358197914693
 30
0.0
 11
0.2799999985341133
 21
0.2799999982734693
 31
0.0
  0
LINE
  5
1C1
330
172
100
AcDbEntity
  8
TRIM
100
AcDbLine
 10
0.2799999985340653
 20
1.207707462827465
 30
0.0
 11
0.2799999985340644
 21
0.9184716413094644
 31
0.0
  0
LINE
  5
1C2
330
172
100
AcDbEntity
  8
TRIM
100
AcDbLine
 10
3.592499998534066
 20
1.207707462827464
 30
0.0
 11
4.343749998534065
 21
1.207707462827464
 31
0.0
  0
TEXT
  5
1C3
330
172
100
AcDbEntity
  8
DIM
 62
     1
100
AcDbText
 10
3.789702379486445
 20
1.103749998273462
 30
0.0
 40
0.08
  1
SHEET
 72
     1
 11
3.968749998534065
 21
1.103749998273462
 31
0.0
100
AcDbText
  0
LINE
  5
1C4
330
172
100
AcDbEntity
  8
TRIM
100
AcDbLine
 10
3.592499998534066
 20
1.207707462827464
 30
0.0
 11
3.592499998534113
 21
0.9184716413094671
 31
0.0
  0
LINE
  5
1C5
330
172
100
AcDbEntity
  8
TRIM
100
AcDbLine
 10
3.562499998534065
 20
1.207707462827464
 30
0.0
 11
3.562499998534113
 21
0.9184716413094644
 31
0.0
  0
LINE
  5
1C6
330
172
100
AcDbEntity
  8
TRIM
100
AcDbLine
 10
4.373749998534062
 20
1.237707462827463
 30
0.0
 11
4.373749998534114
 21
0.9184716413094671
 31
0.0
  0
LINE
  5
1C7
330
172
100
AcDbEntity
  8
TRIM
100
AcDbLine
 10
4.343749998534065
 20
1.207707462827464
 30
0.0
 11
4.343749998534113
 21
0.9184716413094644
 31
0.0
  0
LINE
  5
1C8
330
172
100
AcDbEntity
  8
TRIM
100
AcDbLine
 10
4.373749998534114
 20
0.9184716413094662
 30
0.0
 11
8.246999998534064
 21
0.918471641309463
 31
0.0
  0
LINE
  5
1C9
330
172
100
AcDbEntity
  8
TRIM
100
AcDbLine
 10
9.432094455480024
 20
1.474315403424987
 30
0.0
 11
8.276999998534062
 21
1.474315403424987
 31
0.0
  0
TEXT
  5
1CA
330
172
100
AcDbEntity
  8
DIM
100
AcDbText
 10
8.293249998534063
 20
0.5153392262302923
 30
0.0
 40
0.056
  1
DIMENSIONS IN 'INCHES' UNLESS SPECIFIED OTHERWISE
100
AcDbText
  0
LINE
  5
1CB
330
172
100
AcDbEntity
  8
TRIM
100
AcDbLine
 10
9.432094455480005
 20
1.294315403424988
 30
0.0
 11
8.276999998534051
 21
1.294315403424987
 31
0.0
  0
LINE
  5
1CC
330
172
100
AcDbEntity
  8
TRIM
100
AcDbLine
 10
9.432094455480024
 20
1.444315403424987
 30
0.0
 11
8.276999998534066
 21
1.444315403424987
 31
0.0
  0
LINE
  5
1CD
330
172
100
AcDbEntity
  8
TRIM
100
AcDbLine
 10
8.276999998534064
 20
0.324999998273463
 30
0.0
 11
10.66999999853406
 21
0.3249999982734621
 31
0.0
  0
LINE
  5
1CE
330
172
100
AcDbEntity
  8
TRIM
100
AcDbLine
 10
8.276999998534064
 20
0.474999998273463
 30
0.0
 11
10.66999999853406
 21
0.4749999982734625
 31
0.0
  0
TEXT
  5
1CF
330
172
100
AcDbEntity
  8
TRIM
100
AcDbText
 10
8.324563651603105
 20
0.8310145276027238
 30
0.0
 40
0.07
  1
PRINT APPROVED
 41
1.058889550608496
  7
SIMPLEX
 72
     5
 11
9.27403461531539
 21
0.8310145276027238
 31
0.0
100
AcDbText
  0
LINE
  5
1D0
330
172
100
AcDbEntity
  8
TRIM
100
AcDbLine
 10
9.432094455480063
 20
0.6043154034249878
 30
0.0
 11
8.276999998534064
 21
0.6043154034249878
 31
0.0
  0
LINE
  5
1D1
330
172
100
AcDbEntity
  8
TRIM
 62
     2
100
AcDbLine
 10
9.432094455480012
 20
1.114315403424987
 30
0.0
 11
8.276999998534064
 21
1.114315403424987
 31
0.0
  0
LINE
  5
1D2
330
172
100
AcDbEntity
  8
TRIM
100
AcDbLine
 10
9.432094455480017
 20
0.9343154034249874
 30
0.0
 11
8.276999998534064
 21
0.934315403424987
 31
0.0
  0
LINE
  5
1D3
330
172
100
AcDbEntity
  8
TRIM
 62
     2
100
AcDbLine
 10
9.432094455480024
 20
0.7957609724770878
 30
0.0
 11
8.276999998534064
 21
0.7957609724770878
 31
0.0
  0
LINE
  5
1D4
330
172
100
AcDbEntity
  8
TRIM
100
AcDbLine
 10
9.432094455480031
 20
0.6043154034249874
 30
0.0
 11
8.276999998534064
 21
0.6043154034249874
 31
0.0
  0
LINE
  5
1D5
330
172
100
AcDbEntity
  8
TRIM
100
AcDbLine
 10
8.246999998534064
 20
0.5992358197914598
 30
0.0
 11
8.246999998534064
 21
0.8884716413094597
 31
0.0
  0
LINE
  5
1D6
330
172
100
AcDbEntity
  8
TRIM
100
AcDbLine
 10
8.276999998534064
 20
0.6043154034249878
 30
0.0
 11
8.276999998534064
 21
1.114315403424988
 31
0.0
  0
TEXT
  5
1D7
330
172
100
AcDbEntity
  8
TRIM
100
AcDbText
 10
8.312499998534065
 20
0.3599999982734623
 30
0.0
 40
0.08
  1
FILE:
  7
SIMPLEX
100
AcDbText
  0
LINE
  5
1D8
330
172
100
AcDbEntity
  8
TRIM
100
AcDbLine
 10
8.276999998534064
 20
0.3249999982734653
 30
0.0
 11
8.349999998534064
 21
0.3249999982734648
 31
0.0
  0
LINE
  5
1D9
330
172
100
AcDbEntity
  8
TRIM
100
AcDbLine
 10
8.276999998534064
 20
0.3249999982734621
 30
0.0
 11
8.276999998534064
 21
0.474999998273463
 31
0.0
  0
LINE
  5
1DA
330
172
100
AcDbEntity
  8
TRIM
100
AcDbLine
 10
8.246999998534064
 20
0.2799999982734596
 30
0.0
 11
8.246999998534064
 21
0.5692358197914596
 31
0.0
  0
TEXT
  5
1DB
330
172
100
AcDbEntity
  8
TRIM
100
AcDbText
 10
8.324563651603092
 20
1.149568958550623
 30
0.0
 40
0.07
  1
PRINT DRAWN
 41
1.047995828933662
  7
SIMPLEX
 72
     5
 11
9.061654051286435
 21
1.149568958550623
 31
0.0
100
AcDbText
  0
TEXT
  5
1DC
330
172
100
AcDbEntity
  8
TRIM
100
AcDbText
 10
8.324583587926003
 20
1.317921744520258
 30
0.0
 40
0.09
  1
SCALE:
  7
SIMPLEX
100
AcDbText
  0
LINE
  5
1DD
330
172
100
AcDbEntity
  8
TRIM
100
AcDbLine
 10
8.276999998534064
 20
1.114315403424988
 30
0.0
 11
8.276999998534064
 21
1.444315403424987
 31
0.0
  0
LINE
  5
1DE
330
172
100
AcDbEntity
  8
TRIM
100
AcDbLine
 10
10.66999999853406
 20
0.6043154034249874
 30
0.0
 11
9.462094455480064
 21
0.6043154034249878
 31
0.0
  0
LINE
  5
1DF
330
172
100
AcDbEntity
  8
TRIM
100
AcDbLine
 10
10.66999999853406
 20
0.3249999982734621
 30
0.0
 11
10.66999999853406
 21
0.4749999982734625
 31
0.0
  0
LINE
  5
1E0
330
172
100
AcDbEntity
  8
TRIM
100
AcDbLine
 10
10.66999999853406
 20
0.934315403424987
 30
0.0
 11
9.462094455480039
 21
0.9343154034249874
 31
0.0
  0
LINE
  5
1E1
330
172
100
AcDbEntity
  8
TRIM
100
AcDbLine
 10
10.66999999853406
 20
1.114315403424987
 30
0.0
 11
9.462094455480032
 21
1.114315403424987
 31
0.0
  0
LINE
  5
1E2
330
172
100
AcDbEntity
  8
TRIM
100
AcDbLine
 10
10.66999999853406
 20
1.294315403424987
 30
0.0
 11
9.462094455480025
 21
1.294315403424988
 31
0.0
  0
LINE
  5
1E3
330
172
100
AcDbEntity
  8
TRIM
100
AcDbLine
 10
10.66999999853406
 20
1.474315403424987
 30
0.0
 11
9.462094455480018
 21
1.474315403424987
 31
0.0
  0
TEXT
  5
1E4
330
172
100
AcDbEntity
  8
TRIM
100
AcDbText
 10
9.527645854177304
 20
0.8310145276027238
 30
0.0
 40
0.07
  1
DESIGN ENGINEER
  7
SIMPLEX
100
AcDbText
  0
LINE
  5
1E5
330
172
100
AcDbEntity
  8
TRIM
 62
     2
100
AcDbLine
 10
10.66418891242604
 20
0.7957609724770874
 30
0.0
 11
9.462094455480064
 21
0.7957609724770878
 31
0.0
  0
LINE
  5
1E6
330
172
100
AcDbEntity
  8
TRIM
100
AcDbLine
 10
9.432094455480024
 20
1.444315403424987
 30
0.0
 11
9.432094455480063
 21
0.6043154034249878
 31
0.0
  0
LINE
  5
1E7
330
172
100
AcDbEntity
  8
TRIM
 62
     2
100
AcDbLine
 10
8.986598446570452
 20
0.7957609724770878
 30
0.0
 11
8.98659844657045
 21
0.6043154034249878
 31
0.0
  0
LINE
  5
1E8
330
172
100
AcDbEntity
  8
TRIM
 62
     2
100
AcDbLine
 10
8.986598446570452
 20
1.114315403424987
 30
0.0
 11
8.986598446570452
 21
0.9343154034249874
 31
0.0
  0
LINE
  5
1E9
330
172
100
AcDbEntity
  8
TRIM
100
AcDbLine
 10
3.592499998534113
 20
0.9184716413094671
 30
0.0
 11
4.343749998534113
 21
0.9184716413094662
 31
0.0
  0
ATTDEF
  5
1EA
330
172
100
AcDbEntity
  8
DIM
100
AcDbText
 10
1.748750001101063
 20
0.9930549840549819
 30
0.0
 40
0.13
  1

  7
SIMPLEX
100
AcDbAttributeDefinition
  3
PART_#
  2
PART_#
 70
     0
  0
ATTDEF
  5
1EB
330
172
100
AcDbEntity
  8
DIM
100
AcDbText
 10
1.754683743625886
 20
0.6688693887053426
 30
0.0
 40
0.13
  1

  7
SIMPLEX
100
AcDbAttributeDefinition
  3
PART_DESCRIPTION
  2
PART_DESCRIPTION
 70
     0
  0
ATTDEF
  5
1EC
330
172
100
AcDbEntity
  8
DIM
100
AcDbText
 10
1.75
 20
0.3555424452224223
 30
0.0
 40
0.13
  1

  7
SIMPLEX
100
AcDbAttributeDefinition
  3
EXTRA_DESCRIPTION
  2
EXTRA_DESCRIPTION
 70
     0
  0
ATTDEF
  5
1ED
330
172
100
AcDbEntity
  8
DIM
100
AcDbText
 10
3.96875
 20
1.0
 30
0.0
 40
0.1
  1

  7
SIMPLEX
 72
     4
 11
3.96875
 21
1.0
 31
0.0
100
AcDbAttributeDefinition
  3
SHEET
  2
SHEET
 70
     0
  0
ENDBLK
  5
1EF
330
172
100
AcDbEntity
  8
0
100
AcDbBlockEnd
  0
BLOCK
  5
1F2
330
1F0
100
AcDbEntity
  8
0
100
AcDbBlockBegin
  2
A$C56887695
 70
     2
 10
0.0
 20
0.0
 30
0.0
  3
A$C56887695
  1

  0
ATTDEF
  5
1F1
330
1F0
100
AcDbEntity
  8
DIM
100
AcDbText
 10
0.0000000016510064
 20
0.0076190448079387
 30
0.0
 40
0.08
  1

  7
SIMPLEX
100
AcDbAttributeDefinition
  3
FILE_NAME
  2
FILE_NAME
 70
     0
  0
ENDBLK
  5
1F3
330
1F0
100
AcDbEntity
  8
0
100
AcDbBlockEnd
  0
BLOCK
  5
1F6
330
1F4
100
AcDbEntity
  8
0
100
AcDbBlockBegin
  2
A$C406F4052
 70
     2
 10
0.0
 20
0.0
 30
0.0
  3
A$C406F4052
  1

  0
ATTDEF
  5
1F5
330
1F4
100
AcDbEntity
  8
DIM
100
AcDbText
 10
0.0000000097657775
 20
0.0000000059644165
 30
0.0
 40
0.08
  1

  7
SIMPLEX
100
AcDbAttributeDefinition
  3
DRAWING_SCALE
  2
SCALE
 70
     0
  0
ENDBLK
  5
1F7
330
1F4
100
AcDbEntity
  8
0
100
AcDbBlockEnd
  0
BLOCK
  5
1FA
330
1F8
100
AcDbEntity
  8
0
100
AcDbBlockBegin
  2
A$C217D2A32
 70
     2
 10
0.0
 20
0.0
 30
0.0
  3
A$C217D2A32
  1

  0
ATTDEF
  5
1F9
330
1F8
100
AcDbEntity
  8
DIM
100
AcDbText
 10
0.1409523881144832
 20
0.0400000152139821
 30
0.0
 40
0.08
  1

  7
SIMPLEX
 72
     4
 11
0.1409523881144832
 21
0.0400000152139821
 31
0.0
100
AcDbAttributeDefinition
  3
DATE_DRAWN
  2
DATE
 70
     0
  0
ENDBLK
  5
1FB
330
1F8
100
AcDbEntity
  8
0
100
AcDbBlockEnd
  0
BLOCK
  5
1FE
330
1FC
100
AcDbEntity
  8
0
100
AcDbBlockBegin
  2
A$C26835032
 70
     2
 10
0.0
 20
0.0
 30
0.0
  3
A$C26835032
  1

  0
ATTDEF
  5
1FD
330
1FC
100
AcDbEntity
  8
DIM
100
AcDbText
 10
0.1504761941594115
 20
0.0400000152139821
 30
0.0
 40
0.08
  1

  7
SIMPLEX
 72
     4
 11
0.1504761941594115
 21
0.0400000152139821
 31
0.0
100
AcDbAttributeDefinition
  3
DRAWN_BY?
  2
WHO?
 70
     0
  0
ENDBLK
  5
1FF
330
1FC
100
AcDbEntity
  8
0
100
AcDbBlockEnd
  0
BLOCK
  5
202
330
200
100
AcDbEntity
  8
0
100
AcDbBlockBegin
  2
A$C11730435
 70
     2
 10
0.0
 20
0.0
 30
0.0
  3
A$C11730435
  1

  0
ATTDEF
  5
201
330
200
100
AcDbEntity
  8
DIM
100
AcDbText
 10
0.1542857245995872
 20
0.0399999866443972
 30
0.0
 40
0.08
  1

  7
SCRIPT
 72
     4
 11
0.1542857245995872
 21
0.0399999866443972
 31
0.0
100
AcDbAttributeDefinition
  3
DATE_APPROVED
  2
DATE
 70
     0
  0
ENDBLK
  5
203
330
200
100
AcDbEntity
  8
0
100
AcDbBlockEnd
  0
BLOCK
  5
206
330
204
100
AcDbEntity
  8
0
100
AcDbBlockBegin
  2
A$C740A492C
 70
     2
 10
0.0
 20
0.0
 30
0.0
  3
A$C740A492C
  1

  0
ATTDEF
  5
205
330
204
100
AcDbEntity
  8
DIM
100
AcDbText
 10
0.1676190447818424
 20
0.0399999866443968
 30
0.0
 40
0.08
  1

  7
SCRIPT
 72
     4
 11
0.1676190447818424
 21
0.0399999866443968
 31
0.0
100
AcDbAttributeDefinition
  3
APPROVED_BY?
  2
WHO?
 70
     0
  0
ENDBLK
  5
207
330
204
100
AcDbEntity
  8
0
100
AcDbBlockEnd
  0
BLOCK
  5
20A
330
208
100
AcDbEntity
  8
0
100
AcDbBlockBegin
  2
A$C251463E3
 70
     2
 10
0.0
 20
0.0
 30
0.0
  3
A$C251463E3
  1

  0
ATTDEF
  5
209
330
208
100
AcDbEntity
  8
DIM
100
AcDbText
 10
-0.0076190422628919
 20
-0.0000000133556033
 30
0.0
 40
0.08
  1

  7
SCRIPT
 11
-0.0076190422628919
 21
0.0399999866443968
 31
0.0
100
AcDbAttributeDefinition
  3
ENGINEER_IN_CHARGE
  2
WHO?
 70
     0
 74
     2
  0
ENDBLK
  5
20B
330
208
100
AcDbEntity
  8
0
100
AcDbBlockEnd
  0
BLOCK
  5
20E
330
20C
100
AcDbEntity
  8
0
100
AcDbBlockBegin
  2
A$C46507260
 70
     0
 10
0.0
 20
0.0
 30
0.0
  3
A$C46507260
  1

  0
TEXT
  5
20D
330
20C
100
AcDbEntity
  8
DIM
100
AcDbText
 10
0.0000000011396958
 20
0.0000000091671084
 30
0.0
 40
0.04
  1
F04-0001-01 REV. 00
 72
     2
 11
0.6933333344730297
 21
0.0000000091671084
 31
0.0
100
AcDbText
  0
ENDBLK
  5
20F
330
20C
100
AcDbEntity
  8
0
100
AcDbBlockEnd
  0
BLOCK
  5
2A0
330
21C
100
AcDbEntity
  8
0
100
AcDbBlockBegin
  2
tft_aprlist
 70
     2
 10
0.0
 20
0.0
 30
0.0
  3
tft_aprlist
  1

  0
INSERT
  5
21D
330
21C
100
AcDbEntity
  8
DIM
100
AcDbBlockReference
 66
     1
  2
A$C4FB65283
 10
0.9375
 20
-0.9375
 30
0.0
  0
ATTRIB
  5
21E
330
21D
100
AcDbEntity
  8
DIM
100
AcDbText
 10
0.937500002566999
 20
-0.8941666572544825
 30
0.0
 40
0.13
  1

  7
SIMPLEX
100
AcDbAttribute
  2
PART_#
 70
     0
  0
SEQEND
  5
21F
330
21D
100
AcDbEntity
  8
DIM
  0
LINE
  5
220
330
21C
100
AcDbEntity
  8
TRIM
100
AcDbLine
 10
10.42
 20
3.919999999999998
 30
0.0
 11
0.0299999999999994
 21
3.919999999999998
 31
0.0
  0
LINE
  5
221
330
21C
100
AcDbEntity
  8
TRIM
100
AcDbLine
 10
0.0000000000000004
 20
3.949999999999999
 30
0.0
 11
10.45
 21
3.949999999999999
 31
0.0
  0
LINE
  5
222
330
21C
100
AcDbEntity
  8
TRIM
100
AcDbLine
 10
0.0299999999999994
 20
3.919999999999998
 30
0.0
 11
0.0300000000000001
 21
-2.962292535445997
 31
0.0
  0
LINE
  5
223
330
21C
100
AcDbEntity
  8
TRIM
100
AcDbLine
 10
0.0
 20
3.949999999999999
 30
0.0
 11
0.0
 21
-3.95
 31
0.0
  0
LINE
  5
224
330
21C
100
AcDbEntity
  8
TRIM
100
AcDbLine
 10
10.42
 20
-1.5175
 30
0.0
 11
10.42
 21
3.919999999999996
 31
0.0
  0
LINE
  5
225
330
21C
100
AcDbEntity
  8
TRIM
100
AcDbLine
 10
10.45
 20
-3.950000000000002
 30
0.0
 11
10.45
 21
3.949999999999997
 31
0.0
  0
SOLID
  5
226
330
21C
100
AcDbEntity
  8
SOLID
 62
     1
100
AcDbTrace
 10
8.850645716126262
 20
-2.583175278293517
 30
0.0
 11
8.953204584543676
 21
-2.390290100204915
 31
0.0
 12
8.844321505542426
 22
-2.575224655934988
 32
0.0
 13
8.947606643984826
 23
-2.380973562589405
 33
0.0
  0
SOLID
  5
227
330
21C
100
AcDbEntity
  8
SOLID
 62
     1
100
AcDbTrace
 10
8.74363316304192
 20
-2.589343763358917
 30
0.0
 11
8.928899859358651
 21
-2.368551512435391
 31
0.0
 12
8.835889224763977
 22
-2.564623826123615
 32
0.0
 13
8.940142723239695
 23
-2.368551512435391
 33
0.0
  0
SOLID
  5
228
330
21C
100
AcDbEntity
  8
SOLID
 62
     1
100
AcDbTrace
 10
8.775982482150034
 20
-2.368551512435392
 30
0.0
 11
9.123139627170399
 21
-2.27553103578049
 31
0.0
 12
9.073679762395343
 22
-2.368551512435391
 32
0.0
 13
9.073679762395343
 23
-2.368551512435391
 33
0.0
  0
SOLID
  5
229
330
21C
100
AcDbEntity
  8
SOLID
 62
     1
100
AcDbTrace
 10
8.816585181828658
 20
-2.344811799209671
 30
0.0
 11
9.147519866606604
 21
-2.256138117675972
 31
0.0
 12
8.834870361405812
 22
-2.330267110631282
 32
0.0
 13
9.165805046183757
 23
-2.241593429097584
 33
0.0
  0
LINE
  5
22A
330
21C
100
AcDbEntity
  8
TRIM
100
AcDbLine
 10
10.42
 20
-1.5475
 30
0.0
 11
8.026999999999999
 21
-1.547499999999999
 31
0.0
  0
TEXT
  5
22B
330
21C
100
AcDbEntity
  8
TRIM
100
AcDbText
 10
8.09375
 20
-1.717123664042923
 30
0.0
 40
0.1
  1
TASK FORCE TIPS, INC.
 51
10.0
  7
ROMAND
100
AcDbText
  0
TEXT
  5
22C
330
21C
100
AcDbEntity
  8
TRIM
100
AcDbText
 10
8.128853320039944
 20
-2.15479946193006
 30
0.0
 40
0.09
  1
219-462-6161
  7
SIMPLEX
100
AcDbText
  0
TEXT
  5
22D
330
21C
100
AcDbEntity
  8
TRIM
 62
     2
100
AcDbText
 10
8.128853320039944
 20
-2.004135382055867
 30
0.0
 40
0.09
  1
VALPARAISO, IN 46383
  7
SIMPLEX
100
AcDbText
  0
TEXT
  5
22E
330
21C
100
AcDbEntity
  8
TRIM
 62
     2
100
AcDbText
 10
8.128853320039944
 20
-1.859417196791166
 30
0.0
 40
0.09
  1
2800 E. EVANS AVE.
  7
SIMPLEX
100
AcDbText
  0
LINE
  5
22F
330
21C
100
AcDbEntity
  8
TRIM
100
AcDbLine
 10
10.42
 20
-1.5175
 30
0.0
 11
7.997000000000003
 21
-1.5175
 31
0.0
  0
LINE
  5
230
330
21C
100
AcDbEntity
  8
TRIM
100
AcDbLine
 10
8.026999999999997
 20
-2.695684594848474
 30
0.0
 11
8.026999999999999
 21
-1.547499999999999
 31
0.0
  0
LINE
  5
231
330
21C
100
AcDbEntity
  8
TRIM
100
AcDbLine
 10
7.996999999999999
 20
-3.281528356963998
 30
0.0
 11
7.997000000000003
 21
-1.5175
 31
0.0
  0
SOLID
  5
232
330
21C
100
AcDbEntity
  8
SOLID
 62
     1
100
AcDbTrace
 10
8.043289410762174
 20
-2.390290100204915
 30
0.0
 11
8.307257976534964
 21
-2.390290100204915
 31
0.0
 12
8.114055539671543
 22
-2.380973562589405
 32
0.0
 13
8.327237355926614
 23
-2.380973562589405
 33
0.0
  0
SOLID
  5
233
330
21C
100
AcDbEntity
  8
SOLID
 62
     1
100
AcDbTrace
 10
8.043289410762174
 20
-2.390290100204915
 30
0.0
 11
8.598232942251094
 21
-2.241593429097584
 31
0.0
 12
8.114055539671543
 22
-2.380973562589405
 32
0.0
 13
8.579947762673942
 23
-2.256138117675972
 33
0.0
  0
SOLID
  5
234
330
21C
100
AcDbEntity
  8
SOLID
 62
     1
100
AcDbTrace
 10
8.168609832132082
 20
-2.589343763358917
 30
0.0
 11
8.353876528448813
 21
-2.368551512435391
 31
0.0
 12
8.260865893854139
 22
-2.564623826123616
 32
0.0
 13
8.365119392329857
 23
-2.368551512435391
 33
0.0
  0
SOLID
  5
235
330
21C
100
AcDbEntity
  8
SOLID
 62
     1
100
AcDbTrace
 10
8.107639478387344
 20
-2.628186162520601
 30
0.0
 11
8.307257976534964
 21
-2.390290100204915
 31
0.0
 12
8.133769629992231
 22
-2.611539420022737
 32
0.0
 13
8.327237355926614
 23
-2.380973562589405
 33
0.0
  0
SOLID
  5
236
330
21C
100
AcDbEntity
  8
SOLID
 62
     1
100
AcDbTrace
 10
8.269298174632588
 20
-2.575224655934988
 30
0.0
 11
8.372583313074988
 21
-2.380973562589405
 31
0.0
 12
8.275622385216424
 22
-2.583175278293517
 32
0.0
 13
8.378181253633838
 23
-2.390290100204915
 33
0.0
  0
SOLID
  5
237
330
21C
100
AcDbEntity
  8
SOLID
 62
     1
100
AcDbTrace
 10
8.519123824336961
 20
-2.473989674493337
 30
0.0
 11
8.389737608104452
 21
-2.628186162520601
 31
0.0
 12
8.534207787034425
 22
-2.470507267310368
 32
0.0
 13
8.415867759709337
 23
-2.611539420022737
 33
0.0
  0
SOLID
  5
238
330
21C
100
AcDbEntity
  8
SOLID
 62
     1
100
AcDbTrace
 10
8.55772051493353
 20
-2.583175278293517
 30
0.0
 11
8.597274695487143
 21
-2.508784684111249
 31
0.0
 12
8.551396304349694
 22
-2.575224655934988
 32
0.0
 13
8.59312736164485
 23
-2.496739952053105
 33
0.0
  0
SOLID
  5
239
330
21C
100
AcDbEntity
  8
SOLID
 62
     1
100
AcDbTrace
 10
8.902260686836452
 20
-2.380973562589405
 30
0.0
 11
8.708792960902071
 21
-2.611539420022736
 31
0.0
 12
8.882281307444802
 22
-2.390290100204915
 32
0.0
 13
8.682662809297184
 23
-2.628186162520601
 33
0.0
  0
SOLID
  5
23A
330
21C
100
AcDbEntity
  8
SOLID
 62
     1
100
AcDbTrace
 10
8.450707961849186
 20
-2.589343763358917
 30
0.0
 11
8.554319737297708
 21
-2.465864057733076
 31
0.0
 12
8.542964023571245
 22
-2.564623826123616
 32
0.0
 13
8.587597583188456
 23
-2.480680309308914
 33
0.0
  0
SOLID
  5
23B
330
21C
100
AcDbEntity
  8
SOLID
 62
     1
100
AcDbTrace
 10
8.389737608104452
 20
-2.628186162520601
 30
0.0
 11
8.55772051493353
 21
-2.583175278293517
 31
0.0
 12
8.415867759709337
 22
-2.611539420022737
 32
0.0
 13
8.551396304349694
 23
-2.575224655934988
 33
0.0
  0
SOLID
  5
23C
330
21C
100
AcDbEntity
  8
SOLID
 62
     1
100
AcDbTrace
 10
8.107639478387344
 20
-2.628186162520601
 30
0.0
 11
8.275622385216424
 21
-2.583175278293517
 31
0.0
 12
8.133769629992231
 22
-2.611539420022737
 32
0.0
 13
8.269298174632588
 23
-2.575224655934988
 33
0.0
  0
SOLID
  5
23D
330
21C
100
AcDbEntity
  8
SOLID
 62
     1
100
AcDbTrace
 10
8.682662809297184
 20
-2.628186162520601
 30
0.0
 11
8.850645716126262
 21
-2.583175278293517
 31
0.0
 12
8.708792960902071
 22
-2.611539420022736
 32
0.0
 13
8.844321505542426
 23
-2.575224655934988
 33
0.0
  0
SOLID
  5
23E
330
21C
100
AcDbEntity
  8
SOLID
 62
     1
100
AcDbTrace
 10
8.20841037821737
 20
-2.368551512435391
 30
0.0
 11
8.555567523237739
 21
-2.27553103578049
 31
0.0
 12
8.50610765846268
 22
-2.368551512435391
 32
0.0
 13
8.50610765846268
 23
-2.368551512435391
 33
0.0
  0
SOLID
  5
23F
330
21C
100
AcDbEntity
  8
SOLID
 62
     1
100
AcDbTrace
 10
8.372583313074988
 20
-2.380973562589405
 30
0.0
 11
8.609335485643718
 21
-2.380973562589405
 31
0.0
 12
8.378181253633838
 22
-2.390290100204915
 32
0.0
 13
8.58935610625207
 23
-2.390290100204915
 33
0.0
  0
SOLID
  5
240
330
21C
100
AcDbEntity
  8
SOLID
 62
     1
100
AcDbTrace
 10
8.572168428944468
 20
-2.410773576384599
 30
0.0
 11
8.457090831512811
 21
-2.446370806652486
 31
0.0
 12
8.577542132047717
 22
-2.418863405958059
 32
0.0
 13
8.483530453625318
 23
-2.44794426478169
 33
0.0
  0
SOLID
  5
241
330
21C
100
AcDbEntity
  8
SOLID
 62
     1
100
AcDbTrace
 10
8.457090831512811
 20
-2.446370806652486
 30
0.0
 11
8.519123824336961
 21
-2.473989674493337
 31
0.0
 12
8.483530453625318
 22
-2.44794426478169
 32
0.0
 13
8.534207787034425
 23
-2.470507267310368
 33
0.0
  0
SOLID
  5
242
330
21C
100
AcDbEntity
  8
SOLID
 62
     1
100
AcDbTrace
 10
8.492196430183701
 20
-2.368551512435392
 30
0.0
 11
8.839353575204068
 21
-2.27553103578049
 31
0.0
 12
8.78989371042901
 22
-2.368551512435391
 32
0.0
 13
8.78989371042901
 23
-2.368551512435391
 33
0.0
  0
SOLID
  5
243
330
21C
100
AcDbEntity
  8
SOLID
 62
     1
100
AcDbTrace
 10
8.710751963821957
 20
-2.380973562589405
 30
0.0
 11
8.902260686836452
 21
-2.380973562589405
 31
0.0
 12
8.716349904380805
 22
-2.390290100204915
 32
0.0
 13
8.882281307444802
 23
-2.390290100204915
 33
0.0
  0
SOLID
  5
244
330
21C
100
AcDbEntity
  8
SOLID
 62
     1
100
AcDbTrace
 10
8.551084309439481
 20
-2.330267110631282
 30
0.0
 11
8.882018994217425
 21
-2.241593429097584
 31
0.0
 12
8.532799129862327
 22
-2.34481179920967
 32
0.0
 13
8.863733814640273
 23
-2.256138117675972
 33
0.0
  0
SOLID
  5
245
330
21C
100
AcDbEntity
  8
SOLID
 62
     1
100
AcDbTrace
 10
8.532799129862327
 20
-2.34481179920967
 30
0.0
 11
8.579947762673942
 21
-2.256138117675972
 31
0.0
 12
8.551084309439481
 22
-2.330267110631282
 32
0.0
 13
8.598232942251094
 23
-2.241593429097584
 33
0.0
  0
SOLID
  5
246
330
21C
100
AcDbEntity
  8
SOLID
 62
     1
100
AcDbTrace
 10
8.59312736164485
 20
-2.496739952053105
 30
0.0
 11
8.638464999731693
 21
-2.516925569053505
 31
0.0
 12
8.597274695487143
 22
-2.508784684111249
 32
0.0
 13
8.642612333573987
 23
-2.528970301111649
 33
0.0
  0
SOLID
  5
247
330
21C
100
AcDbEntity
  8
SOLID
 62
     1
100
AcDbTrace
 10
8.518783283108664
 20
-2.450042208953961
 30
0.0
 11
8.687749359579143
 21
-2.397775525726124
 31
0.0
 12
8.6329352212753
 22
-2.500865926309313
 32
0.0
 13
8.6329352212753
 23
-2.500865926309313
 33
0.0
  0
SOLID
  5
248
330
21C
100
AcDbEntity
  8
SOLID
 62
     1
100
AcDbTrace
 10
8.584707069518715
 20
-2.429649845389338
 30
0.0
 11
8.635974658165919
 21
-2.368551512435391
 31
0.0
 12
8.620641232051864
 22
-2.41853424437989
 32
0.0
 13
8.647217522046963
 23
-2.368551512435391
 33
0.0
  0
SOLID
  5
249
330
21C
100
AcDbEntity
  8
SOLID
 62
     1
100
AcDbTrace
 10
8.58935610625207
 20
-2.390290100204915
 30
0.0
 11
8.572168428944468
 21
-2.410773576384599
 31
0.0
 12
8.609335485643718
 22
-2.380973562589405
 32
0.0
 13
8.577542132047717
 23
-2.418863405958059
 33
0.0
  0
SOLID
  5
24A
330
21C
100
AcDbEntity
  8
SOLID
 62
     1
100
AcDbTrace
 10
8.638464999731693
 20
-2.516925569053505
 30
0.0
 11
8.710751963821957
 21
-2.380973562589405
 31
0.0
 12
8.642612333573987
 22
-2.528970301111649
 32
0.0
 13
8.716349904380805
 23
-2.390290100204915
 33
0.0
  0
SOLID
  5
24B
330
21C
100
AcDbEntity
  8
SOLID
 62
     1
100
AcDbTrace
 10
8.645754239211189
 20
-2.397763190625549
 30
0.0
 11
8.700031216426285
 21
-2.380973562589405
 31
0.0
 12
8.654681442792094
 22
-2.380973562589405
 32
0.0
 13
8.654681442792094
 23
-2.380973562589405
 33
0.0
  0
SOLID
  5
24C
330
21C
100
AcDbEntity
  8
SOLID
 62
     1
100
AcDbTrace
 10
8.816585181828658
 20
-2.344811799209671
 30
0.0
 11
8.863733814640273
 21
-2.256138117675972
 31
0.0
 12
8.834870361405812
 22
-2.330267110631282
 32
0.0
 13
8.882018994217425
 23
-2.241593429097584
 33
0.0
  0
LINE
  5
24D
330
21C
100
AcDbEntity
  8
TRIM
100
AcDbLine
 10
10.42
 20
-2.169660401921237
 30
0.0
 11
10.42
 21
-1.5475
 31
0.0
  0
LINE
  5
24E
330
21C
100
AcDbEntity
  8
TRIM
100
AcDbLine
 10
9.212094456945933
 20
-2.199660401921237
 30
0.0
 11
9.212094456945999
 21
-3.595684594848474
 31
0.0
  0
LINE
  5
24F
330
21C
100
AcDbEntity
  8
TRIM
100
AcDbLine
 10
10.42
 20
-3.595684594848474
 30
0.0
 11
10.42
 21
-2.199660401921237
 31
0.0
  0
LINE
  5
250
330
21C
100
AcDbEntity
  8
TRIM
100
AcDbLine
 10
9.212094456945933
 20
-2.199660401921237
 30
0.0
 11
10.42
 21
-2.199660401921237
 31
0.0
  0
LINE
  5
251
330
21C
100
AcDbEntity
  8
TRIM
100
AcDbLine
 10
9.182094456945932
 20
-2.169660401921237
 30
0.0
 11
10.42
 21
-2.169660401921237
 31
0.0
  0
TEXT
  5
252
330
21C
100
AcDbEntity
  8
DIM
100
AcDbText
 10
9.571579665705828
 20
-2.334434594848473
 30
0.0
 40
0.09
  1
DATE
 41
0.9
 72
     1
 11
9.714293951420113
 21
-2.334434594848473
 31
0.0
100
AcDbText
  0
LINE
  5
253
330
21C
100
AcDbEntity
  8
TRIM
100
AcDbLine
 10
9.994468265884984
 20
-2.365684594848473
 30
0.0
 11
9.434119636955241
 21
-2.365684594848473
 31
0.0
  0
LINE
  5
254
330
21C
100
AcDbEntity
  8
TRIM
100
AcDbLine
 10
10.42
 20
-2.545684594848474
 30
0.0
 11
9.212094456945946
 21
-2.545684594848474
 31
0.0
  0
LINE
  5
255
330
21C
100
AcDbEntity
  8
TRIM
100
AcDbLine
 10
9.434119636955241
 20
-2.199660401921237
 30
0.0
 11
9.434119636955237
 21
-3.265684594848474
 31
0.0
  0
LINE
  5
256
330
21C
100
AcDbEntity
  8
TRIM
100
AcDbLine
 10
9.182094456945932
 20
-2.169660401921237
 30
0.0
 11
9.182094456945957
 21
-2.695684594848474
 31
0.0
  0
TEXT
  5
257
330
21C
100
AcDbEntity
  8
DIM
100
AcDbText
 10
9.227107046950591
 20
-2.334434594848473
 30
0.0
 40
0.09
  1
REV
 41
0.8
 72
     1
 11
9.323107046950591
 21
-2.334434594848473
 31
0.0
100
AcDbText
  0
LINE
  5
258
330
21C
100
AcDbEntity
  8
TRIM
100
AcDbLine
 10
9.434119636955241
 20
-2.365684594848473
 30
0.0
 11
9.212094456945941
 21
-2.365684594848473
 31
0.0
  0
SOLID
  5
259
330
21C
100
AcDbEntity
  8
SOLID
 62
     1
100
AcDbTrace
 10
9.086741623699323
 20
-2.390290100204915
 30
0.0
 11
9.165805046183757
 21
-2.241593429097584
 31
0.0
 12
9.081143683140474
 22
-2.380973562589405
 32
0.0
 13
9.147519866606604
 23
-2.256138117675972
 33
0.0
  0
SOLID
  5
25A
330
21C
100
AcDbEntity
  8
SOLID
 62
     1
100
AcDbTrace
 10
8.953204584543676
 20
-2.390290100204915
 30
0.0
 11
9.086741623699323
 21
-2.390290100204915
 31
0.0
 12
8.947606643984826
 22
-2.380973562589405
 32
0.0
 13
9.081143683140474
 23
-2.380973562589405
 33
0.0
  0
LINE
  5
25B
330
21C
100
AcDbEntity
  8
TRIM
100
AcDbLine
 10
9.994468265884982
 20
-2.199660401921237
 30
0.0
 11
9.994468265884982
 21
-3.265684594848475
 31
0.0
  0
TEXT
  5
25C
330
21C
100
AcDbEntity
  8
DIM
100
AcDbText
 10
10.01058171753503
 20
-2.334434594848473
 30
0.0
 40
0.09
  1
INITIALS
 41
0.8
 72
     1
 11
10.21115314610646
 21
-2.334434594848473
 31
0.0
100
AcDbText
  0
LINE
  5
25D
330
21C
100
AcDbEntity
  8
TRIM
100
AcDbLine
 10
10.42
 20
-2.365684594848473
 30
0.0
 11
9.994468265884984
 21
-2.365684594848473
 31
0.0
  0
LINE
  5
25E
330
21C
100
AcDbEntity
  8
TRIM
100
AcDbLine
 10
0.0300000000000482
 20
-3.600764178481992
 30
0.0
 11
7.996999999999999
 21
-3.600764178481998
 31
0.0
  0
LINE
  5
25F
330
21C
100
AcDbEntity
  8
TRIM
100
AcDbLine
 10
0.0299999999999994
 20
-3.311528356963992
 30
0.0
 11
7.996999999999999
 21
-3.311528356963998
 31
0.0
  0
LINE
  5
260
330
21C
100
AcDbEntity
  8
TRIM
100
AcDbLine
 10
0.0
 20
-3.95
 30
0.0
 11
10.45
 21
-3.949999999999999
 31
0.0
  0
LINE
  5
261
330
21C
100
AcDbEntity
  8
TRIM
100
AcDbLine
 10
0.0299999999999994
 20
-3.630764178481992
 30
0.0
 11
7.996999999999999
 21
-3.630764178481999
 31
0.0
  0
LINE
  5
262
330
21C
100
AcDbEntity
  8
TRIM
100
AcDbLine
 10
0.0300000000000482
 20
-3.919999999999992
 30
0.0
 11
7.996999999999999
 21
-3.919999999999999
 31
0.0
  0
LINE
  5
263
330
21C
100
AcDbEntity
  8
TRIM
100
AcDbLine
 10
0.0300000000000001
 20
-2.962292535445997
 30
0.0
 11
6.060374999999972
 21
-2.962292535446001
 31
0.0
  0
LINE
  5
264
330
21C
100
AcDbEntity
  8
TRIM
100
AcDbLine
 10
0.0300000000000491
 20
-2.992292535445997
 30
0.0
 11
5.249124999999975
 21
-2.992292535445999
 31
0.0
  0
LINE
  5
265
330
21C
100
AcDbEntity
  8
TRIM
100
AcDbLine
 10
0.0299999999999994
 20
-3.281528356963997
 30
0.0
 11
5.249125000000024
 21
-3.281528356964
 31
0.0
  0
TEXT
  5
266
330
21C
100
AcDbEntity
  8
TRIM
100
AcDbText
 10
0.1075473557651141
 20
-3.529971212324582
 30
0.0
 40
0.14
  1
DESCRIPTION:
 41
0.9
  7
SIMPLEX
100
AcDbText
  0
TEXT
  5
267
330
21C
100
AcDbEntity
  8
TRIM
100
AcDbText
 10
0.1075473557651141
 20
-3.842471212324582
 30
0.0
 40
0.14
  1
EXTRA DESC:
 41
0.9
  7
SIMPLEX
100
AcDbText
  0
TEXT
  5
268
330
21C
100
AcDbEntity
  8
TRIM
100
AcDbText
 10
0.1101805231206985
 20
-3.206860587244686
 30
0.0
 40
0.14
  1
PART NUMBER:
 41
0.8
  7
SIMPLEX
100
AcDbText
  0
LINE
  5
269
330
21C
100
AcDbEntity
  8
TRIM
100
AcDbLine
 10
0.0299999999999994
 20
-3.311528356963992
 30
0.0
 11
0.0300000000000482
 21
-3.600764178481992
 31
0.0
  0
LINE
  5
26A
330
21C
100
AcDbEntity
  8
TRIM
100
AcDbLine
 10
0.0299999999999994
 20
-3.630764178481992
 30
0.0
 11
0.0300000000000482
 21
-3.919999999999992
 31
0.0
  0
LINE
  5
26B
330
21C
100
AcDbEntity
  8
TRIM
100
AcDbLine
 10
0.0300000000000003
 20
-2.992292535445996
 30
0.0
 11
0.0299999999999994
 21
-3.281528356963997
 31
0.0
  0
LINE
  5
26C
330
21C
100
AcDbEntity
  8
TRIM
100
AcDbLine
 10
5.279124999999976
 20
-2.992292535445999
 30
0.0
 11
6.030374999999975
 21
-2.992292535445999
 31
0.0
  0
TEXT
  5
26D
330
21C
100
AcDbEntity
  8
DIM
 62
     1
100
AcDbText
 10
5.476327380952356
 20
-3.096250000000002
 30
0.0
 40
0.08
  1
SHEET
 72
     1
 11
5.655374999999975
 21
-3.096250000000002
 31
0.0
100
AcDbText
  0
LINE
  5
26E
330
21C
100
AcDbEntity
  8
TRIM
100
AcDbLine
 10
5.279124999999976
 20
-2.992292535445999
 30
0.0
 11
5.279125000000023
 21
-3.281528356963997
 31
0.0
  0
LINE
  5
26F
330
21C
100
AcDbEntity
  8
TRIM
100
AcDbLine
 10
5.249124999999975
 20
-2.992292535446
 30
0.0
 11
5.249125000000024
 21
-3.281528356964
 31
0.0
  0
LINE
  5
270
330
21C
100
AcDbEntity
  8
TRIM
100
AcDbLine
 10
6.060374999999972
 20
-2.962292535446001
 30
0.0
 11
6.060375000000024
 21
-3.281528356963997
 31
0.0
  0
LINE
  5
271
330
21C
100
AcDbEntity
  8
TRIM
100
AcDbLine
 10
6.030374999999975
 20
-2.992292535445999
 30
0.0
 11
6.030375000000024
 21
-3.281528356964
 31
0.0
  0
LINE
  5
272
330
21C
100
AcDbEntity
  8
TRIM
100
AcDbLine
 10
6.060375000000024
 20
-3.281528356963998
 30
0.0
 11
7.996999999999999
 21
-3.281528356963999
 31
0.0
  0
LINE
  5
273
330
21C
100
AcDbEntity
  8
TRIM
100
AcDbLine
 10
9.182094456945959
 20
-2.695684594848474
 30
0.0
 11
8.026999999999997
 21
-2.695684594848474
 31
0.0
  0
TEXT
  5
274
330
21C
100
AcDbEntity
  8
DIM
100
AcDbText
 10
8.043249999999998
 20
-3.684660772043169
 30
0.0
 40
0.056
  1
DIMENSIONS IN 'INCHES' UNLESS SPECIFIED OTHERWISE
100
AcDbText
  0
LINE
  5
275
330
21C
100
AcDbEntity
  8
TRIM
100
AcDbLine
 10
9.182094456945939
 20
-2.905684594848473
 30
0.0
 11
8.026999999999986
 21
-2.905684594848474
 31
0.0
  0
LINE
  5
276
330
21C
100
AcDbEntity
  8
TRIM
100
AcDbLine
 10
9.182094456945959
 20
-2.725684594848474
 30
0.0
 11
8.027000000000001
 21
-2.725684594848474
 31
0.0
  0
LINE
  5
277
330
21C
100
AcDbEntity
  8
TRIM
100
AcDbLine
 10
8.026999999999999
 20
-3.874999999999999
 30
0.0
 11
10.42
 21
-3.875
 31
0.0
  0
LINE
  5
278
330
21C
100
AcDbEntity
  8
TRIM
100
AcDbLine
 10
8.026999999999999
 20
-3.724999999999999
 30
0.0
 11
10.42
 21
-3.724999999999999
 31
0.0
  0
TEXT
  5
279
330
21C
100
AcDbEntity
  8
TRIM
100
AcDbText
 10
8.07456365306904
 20
-3.368985470670738
 30
0.0
 40
0.07
  1
PRINT APPROVED
 41
1.058889550608496
  7
SIMPLEX
 72
     5
 11
9.024034616781325
 21
-3.368985470670738
 31
0.0
100
AcDbText
  0
LINE
  5
27A
330
21C
100
AcDbEntity
  8
TRIM
100
AcDbLine
 10
9.182094456945998
 20
-3.595684594848474
 30
0.0
 11
8.026999999999999
 21
-3.595684594848474
 31
0.0
  0
LINE
  5
27B
330
21C
100
AcDbEntity
  8
TRIM
 62
     2
100
AcDbLine
 10
9.182094456945947
 20
-3.085684594848474
 30
0.0
 11
8.026999999999999
 21
-3.085684594848474
 31
0.0
  0
LINE
  5
27C
330
21C
100
AcDbEntity
  8
TRIM
100
AcDbLine
 10
9.182094456945952
 20
-3.265684594848474
 30
0.0
 11
8.026999999999999
 21
-3.265684594848475
 31
0.0
  0
LINE
  5
27D
330
21C
100
AcDbEntity
  8
TRIM
 62
     2
100
AcDbLine
 10
9.182094456945959
 20
-3.404239025796374
 30
0.0
 11
8.026999999999999
 21
-3.404239025796374
 31
0.0
  0
LINE
  5
27E
330
21C
100
AcDbEntity
  8
TRIM
100
AcDbLine
 10
9.182094456945966
 20
-3.595684594848474
 30
0.0
 11
8.026999999999999
 21
-3.595684594848474
 31
0.0
  0
LINE
  5
27F
330
21C
100
AcDbEntity
  8
TRIM
100
AcDbLine
 10
7.996999999999999
 20
-3.600764178482002
 30
0.0
 11
7.996999999999999
 21
-3.311528356964002
 31
0.0
  0
LINE
  5
280
330
21C
100
AcDbEntity
  8
TRIM
100
AcDbLine
 10
8.026999999999999
 20
-3.595684594848474
 30
0.0
 11
8.026999999999999
 21
-3.085684594848474
 31
0.0
  0
TEXT
  5
281
330
21C
100
AcDbEntity
  8
TRIM
100
AcDbText
 10
8.0625
 20
-3.839999999999999
 30
0.0
 40
0.08
  1
FILE:
  7
SIMPLEX
100
AcDbText
  0
LINE
  5
282
330
21C
100
AcDbEntity
  8
TRIM
100
AcDbLine
 10
8.026999999999999
 20
-3.874999999999996
 30
0.0
 11
8.099999999999999
 21
-3.874999999999997
 31
0.0
  0
LINE
  5
283
330
21C
100
AcDbEntity
  8
TRIM
100
AcDbLine
 10
8.026999999999999
 20
-3.875
 30
0.0
 11
8.026999999999999
 21
-3.724999999999999
 31
0.0
  0
LINE
  5
284
330
21C
100
AcDbEntity
  8
TRIM
100
AcDbLine
 10
7.996999999999999
 20
-3.920000000000002
 30
0.0
 11
7.996999999999999
 21
-3.630764178482002
 31
0.0
  0
TEXT
  5
285
330
21C
100
AcDbEntity
  8
TRIM
100
AcDbText
 10
8.074563653069027
 20
-3.050431039722838
 30
0.0
 40
0.07
  1
PRINT DRAWN
 41
1.047995828933662
  7
SIMPLEX
 72
     5
 11
8.81165405275237
 21
-3.050431039722838
 31
0.0
100
AcDbText
  0
TEXT
  5
286
330
21C
100
AcDbEntity
  8
TRIM
100
AcDbText
 10
8.074583589391938
 20
-2.867078253753203
 30
0.0
 40
0.09
  1
SCALE:
  7
SIMPLEX
100
AcDbText
  0
LINE
  5
287
330
21C
100
AcDbEntity
  8
TRIM
100
AcDbLine
 10
8.026999999999999
 20
-3.085684594848474
 30
0.0
 11
8.026999999999999
 21
-2.725684594848474
 31
0.0
  0
LINE
  5
288
330
21C
100
AcDbEntity
  8
TRIM
100
AcDbLine
 10
10.42
 20
-3.595684594848474
 30
0.0
 11
9.212094456945999
 21
-3.595684594848474
 31
0.0
  0
LINE
  5
289
330
21C
100
AcDbEntity
  8
TRIM
100
AcDbLine
 10
10.42
 20
-3.875
 30
0.0
 11
10.42
 21
-3.724999999999999
 31
0.0
  0
LINE
  5
28A
330
21C
100
AcDbEntity
  8
TRIM
100
AcDbLine
 10
10.42
 20
-3.265684594848475
 30
0.0
 11
9.212094456945974
 21
-3.265684594848474
 31
0.0
  0
LINE
  5
28B
330
21C
100
AcDbEntity
  8
TRIM
100
AcDbLine
 10
10.42
 20
-3.085684594848474
 30
0.0
 11
9.212094456945967
 21
-3.085684594848474
 31
0.0
  0
LINE
  5
28C
330
21C
100
AcDbEntity
  8
TRIM
100
AcDbLine
 10
10.42
 20
-2.905684594848474
 30
0.0
 11
9.21209445694596
 21
-2.905684594848473
 31
0.0
  0
LINE
  5
28D
330
21C
100
AcDbEntity
  8
TRIM
100
AcDbLine
 10
10.42
 20
-2.725684594848474
 30
0.0
 11
9.212094456945953
 21
-2.725684594848474
 31
0.0
  0
TEXT
  5
28E
330
21C
100
AcDbEntity
  8
TRIM
100
AcDbText
 10
9.277645855643239
 20
-3.368985470670738
 30
0.0
 40
0.07
  1
DESIGN ENGINEER
  7
SIMPLEX
100
AcDbText
  0
LINE
  5
28F
330
21C
100
AcDbEntity
  8
TRIM
 62
     2
100
AcDbLine
 10
10.41418891389197
 20
-3.404239025796374
 30
0.0
 11
9.212094456945999
 21
-3.404239025796374
 31
0.0
  0
LINE
  5
290
330
21C
100
AcDbEntity
  8
TRIM
100
AcDbLine
 10
9.182094456945959
 20
-2.725684594848474
 30
0.0
 11
9.182094456945998
 21
-3.595684594848474
 31
0.0
  0
LINE
  5
291
330
21C
100
AcDbEntity
  8
TRIM
 62
     2
100
AcDbLine
 10
8.736598448036387
 20
-3.404239025796374
 30
0.0
 11
8.736598448036385
 21
-3.595684594848474
 31
0.0
  0
LINE
  5
292
330
21C
100
AcDbEntity
  8
TRIM
 62
     2
100
AcDbLine
 10
8.736598448036387
 20
-3.085684594848474
 30
0.0
 11
8.736598448036387
 21
-3.265684594848474
 31
0.0
  0
LINE
  5
293
330
21C
100
AcDbEntity
  8
TRIM
100
AcDbLine
 10
5.279125000000023
 20
-3.281528356963997
 30
0.0
 11
6.030375000000023
 21
-3.281528356963998
 31
0.0
  0
ATTDEF
  5
294
330
21C
100
AcDbEntity
  8
DIM
100
AcDbText
 10
1.498750002566998
 20
-3.20694501421848
 30
0.0
 40
0.13
  1

  7
SIMPLEX
100
AcDbAttributeDefinition
  3
PART_#
  2
PART_#
 70
     0
  0
ATTDEF
  5
295
330
21C
100
AcDbEntity
  8
DIM
100
AcDbText
 10
1.504683745091821
 20
-3.531130609568119
 30
0.0
 40
0.13
  1

  7
SIMPLEX
100
AcDbAttributeDefinition
  3
PART_DESCRIPTION
  2
PART_DESCRIPTION
 70
     0
  0
ATTDEF
  5
296
330
21C
100
AcDbEntity
  8
DIM
100
AcDbText
 10
1.500000001465934
 20
-3.844457553051039
 30
0.0
 40
0.13
  1

  7
SIMPLEX
100
AcDbAttributeDefinition
  3
EXTRA_DESCRIPTION
  2
EXTRA_DESCRIPTION
 70
     0
  0
ATTDEF
  5
297
330
21C
100
AcDbEntity
  8
DIM
100
AcDbText
 10
5.65537500146591
 20
-3.199999998273464
 30
0.0
 40
0.1
  1

  7
SIMPLEX
 72
     4
 11
5.65537500146591
 21
-3.199999998273464
 31
0.0
100
AcDbAttributeDefinition
  3
SHEET
  2
SHEET
 70
     0
  0
ATTDEF
  5
298
330
21C
100
AcDbEntity
  8
DIM
100
AcDbText
 10
8.370750001651005
 20
-3.841069024870303
 30
0.0
 40
0.08
  1

  7
SIMPLEX
100
AcDbAttributeDefinition
  3
FILE_NAME
  2
FILE_NAME
 70
     0
  0
ATTDEF
  5
299
330
21C
100
AcDbEntity
  8
DIM
100
AcDbText
 10
8.593750001465934
 20
-2.867243860095429
 30
0.0
 40
0.08
  1

  7
SIMPLEX
100
AcDbAttributeDefinition
  3
DRAWING_SCALE
  2
SCALE
 70
     0
  0
ATTDEF
  5
29A
330
21C
100
AcDbEntity
  8
DIM
100
AcDbText
 10
8.381799224018193
 20
-3.175684594848474
 30
0.0
 40
0.08
  1

  7
SIMPLEX
 72
     4
 11
8.381799224018193
 21
-3.175684594848474
 31
0.0
100
AcDbAttributeDefinition
  3
DATE_DRAWN
  2
DATE
 70
     0
  0
ATTDEF
  5
29B
330
21C
100
AcDbEntity
  8
DIM
100
AcDbText
 10
8.959346452491169
 20
-3.175684594848474
 30
0.0
 40
0.08
  1

  7
SIMPLEX
 72
     4
 11
8.959346452491169
 21
-3.175684594848474
 31
0.0
100
AcDbAttributeDefinition
  3
DRAWN_BY?
  2
WHO?
 70
     0
  0
ATTDEF
  5
29C
330
21C
100
AcDbEntity
  8
DIM
100
AcDbText
 10
8.381799224018193
 20
-3.499961810322424
 30
0.0
 40
0.08
  1

  7
SCRIPT
 72
     4
 11
8.381799224018193
 21
-3.499961810322424
 31
0.0
100
AcDbAttributeDefinition
  3
DATE_APPROVED
  2
DATE
 70
     0
  0
ATTDEF
  5
29D
330
21C
100
AcDbEntity
  8
DIM
100
AcDbText
 10
8.959346452491192
 20
-3.499961810322424
 30
0.0
 40
0.08
  1

  7
SCRIPT
 72
     4
 11
8.959346452491192
 21
-3.499961810322424
 31
0.0
100
AcDbAttributeDefinition
  3
APPROVED_BY?
  2
WHO?
 70
     0
  0
ATTDEF
  5
29E
330
21C
100
AcDbEntity
  8
DIM
100
AcDbText
 10
9.277645855643239
 20
-3.539961810322424
 30
0.0
 40
0.08
  1

  7
SCRIPT
 11
9.277645855643239
 21
-3.499961810322424
 31
0.0
100
AcDbAttributeDefinition
  3
ENGINEER_IN_CHARGE
  2
WHO?
 70
     0
 74
     2
  0
TEXT
  5
29F
330
21C
100
AcDbEntity
  8
DIM
100
AcDbText
 10
9.716766296807861
 20
-3.931972942467266
 30
0.0
 40
0.04
  1
F04-0052-01 REV. 00
 72
     2
 11
10.41771867776024
 21
-3.931972942467266
 31
0.0
100
AcDbText
  0
ENDBLK
  5
2A1
330
21C
100
AcDbEntity
  8
0
100
AcDbBlockEnd
  0
BLOCK
  5
2B7
330
2B3
100
AcDbEntity
  8
0
100
AcDbBlockBegin
  2
rvsn_blk
 70
     2
 10
0.0
 20
0.0
 30
0.0
  3
rvsn_blk
  1

  0
ATTDEF
  5
2B4
330
2B3
100
AcDbEntity
  8
DIM
100
AcDbText
 10
-0.1443252782292399
 20
0.0442732402878181
 30
1.0
 40
0.07
  1

  7
SIMPLEX
100
AcDbAttributeDefinition
  3
REV_#
  2
X
 70
     0
  0
ATTDEF
  5
2B5
330
2B3
100
AcDbEntity
  8
DIM
100
AcDbText
 10
0.269150253848311
 20
0.0469563354417511
 30
1.0
 40
0.07
  1

  7
SIMPLEX
 72
     1
 11
0.269150253848311
 21
0.0469563354417511
 31
1.0
100
AcDbAttributeDefinition
  3
DATE
  2
DATE
 70
     0
  0
ATTDEF
  5
2B6
330
2B3
100
AcDbEntity
  8
DIM
100
AcDbText
 10
0.7631729674994113
 20
0.0469563354417511
 30
1.0
 40
0.07
  1

  7
SIMPLEX
 72
     1
 11
0.7631729674994113
 21
0.0469563354417511
 31
1.0
100
AcDbAttributeDefinition
  3
INITIALS
  2
XXX
 70
     0
  0
ENDBLK
  5
2B8
330
2B3
100
AcDbEntity
  8
0
100
AcDbBlockEnd
  0
ENDSEC
  0
SECTION
  2
ENTITIES
  0
INSERT
  5
2A5
330
1E
100
AcDbEntity
  8
DIM
100
AcDbBlockReference
 66
     1
  2
tft_aprlist
 10
-6.84375
 20
-0.03125
 30
0.0
  0
ATTRIB
  5
2A6
330
2A5
100
AcDbEntity
  8
DIM
100
AcDbText
 10
-5.344999997433001
 20
-3.23819501421848
 30
0.0
 40
0.13
  1
B-A
  7
SIMPLEX
100
AcDbAttribute
  2
PART_#
 70
     0
  0
ATTRIB
  5
2A7
330
2A5
100
AcDbEntity
  8
DIM
100
AcDbText
 10
-5.339066254908178
 20
-3.562380609568119
 30
0.0
 40
0.13
  1
ADAPTER 1.5NH X 1.0 NH
  7
SIMPLEX
100
AcDbAttribute
  2
PART_DESCRIPTION
 70
     0
  0
ATTRIB
  5
2A8
330
2A5
100
AcDbEntity
  8
DIM
100
AcDbText
 10
-5.343749998534065
 20
-3.875707553051039
 30
0.0
 40
0.13
  1
FEMALE X MALE THREAD REDUCING ADAPTER
  7
SIMPLEX
100
AcDbAttribute
  2
EXTRA_DESCRIPTION
 70
     0
  0
ATTRIB
  5
2A9
330
2A5
100
AcDbEntity
  8
DIM
100
AcDbText
 10
-1.424089284248375
 20
-3.281249998273464
 30
0.0
 40
0.1
  1
1 OF 1
  7
SIMPLEX
 72
     4
 11
-1.188374998534089
 21
-3.231249998273464
 31
0.0
100
AcDbAttribute
  2
SHEET
 70
     0
  0
ATTRIB
  5
2AA
330
2A5
100
AcDbEntity
  8
DIM
100
AcDbText
 10
1.527000001651005
 20
-3.872319024870303
 30
0.0
 40
0.08
  1
B\FIN & SUB\B-A
  7
SIMPLEX
100
AcDbAttribute
  2
FILE_NAME
 70
     0
  0
ATTRIB
  5
2AB
330
2A5
100
AcDbEntity
  8
DIM
100
AcDbText
 10
1.750000001465934
 20
-2.898493860095429
 30
0.0
 40
0.08
  1
FULL
  7
SIMPLEX
100
AcDbAttribute
  2
SCALE
 70
     0
  0
ATTRIB
  5
2AC
330
2A5
100
AcDbEntity
  8
DIM
100
AcDbText
 10
1.282811128780098
 20
-3.241220309134189
 30
0.0
 40
0.08
  1
6/14/92
  7
SIMPLEX
 72
     4
 11
1.538049224018193
 21
-3.206934594848474
 31
0.0
100
AcDbAttribute
  2
DATE
 70
     0
  0
ATTRIB
  5
2AD
330
2A5
100
AcDbEntity
  8
DIM
100
AcDbText
 10
2.003215500110217
 20
-3.246934594848474
 30
0.0
 40
0.08
  1
DMH
  7
SIMPLEX
 72
     4
 11
2.115596452491169
 21
-3.206934594848474
 31
0.0
100
AcDbAttribute
  2
WHO?
 70
     0
  0
ATTRIB
  5
2AE
330
2A5
100
AcDbEntity
  8
DIM
100
AcDbText
 10
1.22566827163724
 20
-3.565497524608138
 30
0.0
 40
0.08
  1
12/13/99
  7
SCRIPT
 72
     4
 11
1.538049224018193
 21
-3.531211810322424
 31
0.0
100
AcDbAttribute
  2
DATE
 70
     0
  0
ATTRIB
  5
2AF
330
2A5
100
AcDbEntity
  8
DIM
100
AcDbText
 10
1.976548833443573
 20
-3.571211810322424
 30
0.0
 40
0.08
  1
RWS
  7
SCRIPT
 72
     4
 11
2.115596452491192
 21
-3.531211810322424
 31
0.0
100
AcDbAttribute
  2
WHO?
 70
     0
  0
ATTRIB
  5
2B0
330
2A5
100
AcDbEntity
  8
DIM
100
AcDbText
 10
2.433895855643239
 20
-3.571211810322424
 30
0.0
 40
0.08
  1
Robert W. Steingass
  7
SCRIPT
 11
2.433895855643239
 21
-3.531211810322424
 31
0.0
100
AcDbAttribute
  2
WHO?
 70
     0
 74
     2
  0
SEQEND
  5
2B1
330
2A5
100
AcDbEntity
  8
DIM
  0
INSERT
  5
2B9
330
1E
100
AcDbEntity
  8
DIM
100
AcDbBlockReference
 66
     1
  2
rvsn_blk
 10
2.59036963695524
 20
-2.576934594848474
 30
0.0
  0
ATTRIB
  5
2BA
330
2B9
100
AcDbEntity
  8
DIM
100
AcDbText
 10
2.446044358726
 20
-2.532661354560655
 30
1.0
 40
0.07
  1
1
  7
SIMPLEX
100
AcDbAttribute
  2
X
 70
     0
  0
ATTRIB
  5
2BB
330
2B9
100
AcDbEntity
  8
DIM
100
AcDbText
 10
2.637853224136884
 20
-2.529978259406723
 30
1.0
 40
0.07
  1
12/9/99
  7
SIMPLEX
 72
     1
 11
2.859519890803551
 21
-2.529978259406723
 31
1.0
100
AcDbAttribute
  2
DATE
 70
     0
  0
ATTRIB
  5
2BC
330
2B9
100
AcDbEntity
  8
DIM
100
AcDbText
 10
3.255209271121318
 20
-2.529978259406723
 30
1.0
 40
0.07
  1
BMH
  7
SIMPLEX
 72
     1
 11
3.353542604454651
 21
-2.529978259406723
 31
1.0
100
AcDbAttribute
  2
XXX
 70
     0
  0
SEQEND
  5
2BD
330
2B9
100
AcDbEntity
  8
DIM
  0
LINE
  5
2BE
330
1E
100
AcDbEntity
  8
PART
100
AcDbLine
 10
-1.057873078174436
 20
-0.4201419067637693
 30
0.0
 11
-1.057873078174436
 21
0.9818297375480629
 31
0.0
  0
LINE
  5
2BF
330
1E
100
AcDbEntity
  8
PART
100
AcDbLine
 10
-1.057873078174436
 20
1.034310020898965
 30
0.0
 11
-1.057873078174436
 21
0.9644659073580923
 31
0.0
  0
LINE
  5
2C4
330
1E
100
AcDbEntity
  8
PART
100
AcDbLine
 10
-3.586126694001094
 20
0.3089773046456365
 30
0.0
 11
-3.586126694001094
 21
1.649677627233552
 31
0.0
  0
LINE
  5
2C5
330
1E
100
AcDbEntity
  8
PART
100
AcDbLine
 10
-3.586126694001094
 20
1.649677627233552
 30
0.0
 11
-2.663822484835789
 21
1.649677627233552
 31
0.0
  0
LINE
  5
2C6
330
1E
100
AcDbEntity
  8
PART
100
AcDbLine
 10
-2.663822484835789
 20
1.649677627233552
 30
0.0
 11
-2.663822484835789
 21
0.3070840570675983
 31
0.0
  0
LINE
  5
2C7
330
1E
100
AcDbEntity
  8
PART
100
AcDbLine
 10
-2.663822484835789
 20
-1.035509513098355
 30
0.0
 11
-2.663822484835789
 21
0.3070840570675983
 31
0.0
  0
LINE
  5
2C8
330
1E
100
AcDbEntity
  8
PART
100
AcDbLine
 10
-3.586126694001094
 20
-1.035509513098355
 30
0.0
 11
-2.663822484835789
 21
-1.035509513098355
 31
0.0
  0
LINE
  5
2C9
330
1E
100
AcDbEntity
  8
PART
100
AcDbLine
 10
-3.586126694001094
 20
0.3051908094895601
 30
0.0
 11
-3.586126694001094
 21
-1.035509513098355
 31
0.0
  0
LINE
  5
2CA
330
1E
100
AcDbEntity
  8
PART
100
AcDbLine
 10
-3.695113886883073
 20
0.3070840570675983
 30
0.0
 11
-3.695113886883074
 21
1.523838033113937
 31
0.0
  0
LINE
  5
2CB
330
1E
100
AcDbEntity
  8
PART
100
AcDbLine
 10
-3.582169084409864
 20
1.620088033113937
 30
0.0
 11
-3.585113886883074
 21
1.620088033113937
 31
0.0
  0
ELLIPSE
  5
2CC
330
1E
100
AcDbEntity
  8
PART
100
AcDbEllipse
 10
-3.585113886883074
 20
1.523838033113937
 30
0.0
 11
0.1099999999999998
 21
0.0000000000000008
 31
0.0
210
0.0
220
0.0
230
1.0
 40
0.8750000000000003
 41
1.570796326794889
 42
3.141592653589784
  0
ELLIPSE
  5
2D3
330
1E
100
AcDbEntity
  8
PART
100
AcDbEllipse
 10
-3.585113886883074
 20
-0.9096699189787411
 30
0.0
 11
-0.1099999999999998
 21
0.0000000000000008
 31
0.0
210
0.0
220
0.0
230
1.0
 40
0.8750000000000003
 41
0.0000000000000078
 42
1.570796326794902
  0
LINE
  5
2D4
330
1E
100
AcDbEntity
  8
PART
100
AcDbLine
 10
-3.582169084409864
 20
-1.00591991897874
 30
0.0
 11
-3.585113886883074
 21
-1.005919918978741
 31
0.0
  0
LINE
  5
2D5
330
1E
100
AcDbEntity
  8
PART
100
AcDbLine
 10
-3.695113886883073
 20
0.3070840570675983
 30
0.0
 11
-3.695113886883074
 21
-0.9096699189787411
 31
0.0
  0
LINE
  5
2D6
330
1E
100
AcDbEntity
  8
PART
100
AcDbLine
 10
-2.66382248483579
 20
1.620088033113937
 30
0.0
 11
-1.143128462196611
 21
1.312893139634544
 31
0.0
  0
LINE
  5
2D7
330
1E
100
AcDbEntity
  8
PART
100
AcDbLine
 10
-1.057873078174436
 20
1.153574173584923
 30
0.0
 11
-1.057873078174436
 21
1.219110020898965
 31
0.0
  0
ELLIPSE
  5
2D8
330
1E
100
AcDbEntity
  8
PART
100
AcDbEllipse
 10
-1.167873078174436
 20
1.219110020898966
 30
0.0
 11
0.11
 21
0.0000000000000002
 31
0.0
210
0.0
220
0.0
230
1.0
 40
0.8749999999999998
 41
-0.000000000000002
 42
1.343903524035632
  0
LINE
  5
2D9
330
1E
100
AcDbEntity
  8
PART
100
AcDbLine
 10
-1.143128462196611
 20
1.312893139634544
 30
0.0
 11
-1.143128462196611
 21
0.3070840570675983
 31
0.0
  0
ELLIPSE
  5
2E3
330
1E
100
AcDbEntity
  8
PART
100
AcDbEllipse
 10
-1.167873078174436
 20
-0.6049419067637693
 30
0.0
 11
-0.11
 21
0.0000000000000002
 31
0.0
210
0.0
220
0.0
230
1.0
 40
0.8749999999999998
 41
1.79768912955416
 42
3.141592653589794
  0
LINE
  5
2E4
330
1E
100
AcDbEntity
  8
PART
100
AcDbLine
 10
-2.66382248483579
 20
-1.005919918978741
 30
0.0
 11
-1.143128462196611
 21
-0.6987250254993482
 31
0.0
  0
LINE
  5
2E5
330
1E
100
AcDbEntity
  8
PART
100
AcDbLine
 10
-1.143128462196611
 20
-0.6987250254993482
 30
0.0
 11
-1.143128462196611
 21
0.3070840570675983
 31
0.0
  0
LINE
  5
2E6
330
1E
100
AcDbEntity
  8
PART
100
AcDbLine
 10
-1.057873078174436
 20
-0.6049419067637693
 30
0.0
 11
-1.057873078174436
 21
-0.3843136048814153
 31
0.0
  0
LINE
  5
2F0
330
1E
100
AcDbEntity
  8
PART
100
AcDbLine
 10
-1.057873078174436
 20
1.219110020898966
 30
0.0
 11
-1.057873078174436
 21
1.034310020898965
 31
0.0
  0
LINE
  5
2F1
330
1E
100
AcDbEntity
  8
PART
100
AcDbLine
 10
-3.699513886883073
 20
0.3070840570675983
 30
0.0
 11
-3.699513886883074
 21
1.523838033113937
 31
0.0
  0
LINE
  5
2F2
330
1E
100
AcDbEntity
  8
PART
100
AcDbLine
 10
-3.699513886883073
 20
0.3070840570675983
 30
0.0
 11
-3.699513886883074
 21
-0.9096699189787411
 31
0.0
  0
LINE
  5
2F3
330
1E
100
AcDbEntity
  8
DIM
100
AcDbLine
 10
-3.582614327636076
 20
0.9801002300149788
 30
0.0
 11
-2.664393869547927
 21
0.4151981993084091
 31
0.0
  0
LINE
  5
2F4
330
1E
100
AcDbEntity
  8
DIM
100
AcDbLine
 10
-2.664393869547927
 20
0.3089773046456363
 30
0.0
 11
-3.582614327636076
 21
0.873879335352206
 31
0.0
  0
LINE
  5
2F5
330
1E
100
AcDbEntity
  8
DIM
100
AcDbLine
 10
-3.582614327636076
 20
0.7628302182047629
 30
0.0
 11
-2.853967343901388
 21
0.3107250327087261
 31
0.0
  0
LINE
  5
2F6
330
1E
100
AcDbEntity
  8
DIM
100
AcDbLine
 10
-3.582614327636076
 20
0.5359037614252005
 30
0.0
 11
-3.20777391701249
 21
0.3092387143535804
 31
0.0
  0
LINE
  5
2F7
330
1E
100
AcDbEntity
  8
DIM
100
AcDbLine
 10
-3.395894251564227
 20
0.3081799546983541
 30
0.0
 11
-3.582614327636076
 21
0.4151981993084091
 31
0.0
  0
LINE
  5
2F8
330
1E
100
AcDbEntity
  8
DIM
100
AcDbLine
 10
-3.02468937744387
 20
0.3085378912494381
 30
0.0
 11
-3.582614327636076
 21
0.6517811010573178
 31
0.0
  0
LINE
  5
2F9
330
1E
100
AcDbEntity
  8
DIM
100
AcDbLine
 10
-3.516502454653732
 20
1.646394932899704
 30
0.0
 11
-2.663884096372244
 21
1.494851559952476
 31
0.0
  0
LINE
  5
2FA
330
1E
100
AcDbEntity
  8
DIM
100
AcDbLine
 10
-2.663884096372244
 20
1.543554632848599
 30
0.0
 11
-3.409988881515511
 21
1.646394932899704
 31
0.0
  0
LINE
  5
2FB
330
1E
100
AcDbEntity
  8
DIM
100
AcDbLine
 10
-2.666530450804636
 20
1.620088033113938
 30
0.0
 11
-2.939104957340319
 21
1.644439569562
 31
0.0
  0
LINE
  5
2FC
330
1E
100
AcDbEntity
  8
DIM
100
AcDbLine
 10
-2.663884096372244
 20
1.588778914823572
 30
0.0
 11
-3.256667489226515
 21
1.644439569562
 31
0.0
  0
LINE
  5
2FD
330
1E
100
AcDbEntity
  8
DIM
100
AcDbLine
 10
-2.663884096372244
 20
1.432233323371737
 30
0.0
 11
-3.582169084409866
 21
1.640960778640848
 31
0.0
  0
LINE
  5
2FE
330
1E
100
AcDbEntity
  8
DIM
100
AcDbLine
 10
-3.582169084409866
 20
1.620088033113938
 30
0.0
 11
-2.663884096372244
 21
1.359178714027552
 31
0.0
  0
LINE
  5
2FF
330
1E
100
AcDbEntity
  8
DIM
100
AcDbLine
 10
-2.663884096372244
 20
1.275687731919876
 30
0.0
 11
-3.582169084409866
 21
1.588778914823572
 31
0.0
  0
LINE
  5
300
330
1E
100
AcDbEntity
  8
DIM
100
AcDbLine
 10
-3.582169084409866
 20
1.543554632848599
 30
0.0
 11
-2.663884096372244
 21
1.181760377048779
 31
0.0
  0
LINE
  5
301
330
1E
100
AcDbEntity
  8
DIM
100
AcDbLine
 10
-2.663884096372244
 20
1.087833022177679
 30
0.0
 11
-3.582169084409866
 21
1.494851559952476
 31
0.0
  0
LINE
  5
302
330
1E
100
AcDbEntity
  8
DIM
100
AcDbLine
 10
-3.582169084409866
 20
1.432233323371737
 30
0.0
 11
-2.663884096372244
 21
0.9799905036219742
 31
0.0
  0
LINE
  5
303
330
1E
100
AcDbEntity
  8
DIM
100
AcDbLine
 10
-2.666530450804636
 20
0.8756267759874178
 30
0.0
 11
-3.582169084409866
 21
1.359178714027552
 31
0.0
  0
LINE
  5
304
330
1E
100
AcDbEntity
  8
DIM
100
AcDbLine
 10
-2.663884096372244
 20
0.7608266755894091
 30
0.0
 11
-3.582169084409866
 21
1.275687731919876
 31
0.0
  0
LINE
  5
305
330
1E
100
AcDbEntity
  8
DIM
100
AcDbLine
 10
-2.663884096372244
 20
0.6529841570337043
 30
0.0
 11
-3.582169084409866
 21
1.181760377048779
 31
0.0
  0
LINE
  5
306
330
1E
100
AcDbEntity
  8
DIM
100
AcDbLine
 10
-2.663884096372244
 20
0.5347052657145382
 30
0.0
 11
-3.582169084409866
 21
1.084354231256527
 31
0.0
  0
LINE
  5
307
330
1E
100
AcDbEntity
  8
DIM
100
AcDbLine
 10
-2.667906235912944
 20
0.9801002300149788
 30
0.0
 11
-3.586126694001094
 21
0.4151981993084091
 31
0.0
  0
LINE
  5
308
330
1E
100
AcDbEntity
  8
DIM
100
AcDbLine
 10
-3.586126694001094
 20
0.3089773046456363
 30
0.0
 11
-2.667906235912944
 21
0.873879335352206
 31
0.0
  0
LINE
  5
309
330
1E
100
AcDbEntity
  8
DIM
100
AcDbLine
 10
-2.667906235912944
 20
0.7628302182047629
 30
0.0
 11
-3.396553219647633
 21
0.3107250327087261
 31
0.0
  0
LINE
  5
30A
330
1E
100
AcDbEntity
  8
DIM
100
AcDbLine
 10
-2.667906235912944
 20
0.5359037614252005
 30
0.0
 11
-3.042746646536531
 21
0.3092387143535804
 31
0.0
  0
LINE
  5
30B
330
1E
100
AcDbEntity
  8
DIM
100
AcDbLine
 10
-2.854626311984794
 20
0.3081799546983541
 30
0.0
 11
-2.667906235912944
 21
0.4151981993084091
 31
0.0
  0
LINE
  5
30C
330
1E
100
AcDbEntity
  8
DIM
100
AcDbLine
 10
-3.225831186105151
 20
0.3085378912494381
 30
0.0
 11
-2.667906235912944
 21
0.6517811010573178
 31
0.0
  0
LINE
  5
30D
330
1E
100
AcDbEntity
  8
DIM
100
AcDbLine
 10
-2.734018108895289
 20
1.646394932899704
 30
0.0
 11
-3.586636467176776
 21
1.494851559952476
 31
0.0
  0
LINE
  5
30E
330
1E
100
AcDbEntity
  8
DIM
100
AcDbLine
 10
-3.586636467176776
 20
1.543554632848599
 30
0.0
 11
-2.84053168203351
 21
1.646394932899704
 31
0.0
  0
LINE
  5
30F
330
1E
100
AcDbEntity
  8
DIM
100
AcDbLine
 10
-3.583990112744385
 20
1.620088033113938
 30
0.0
 11
-3.311415606208702
 21
1.644439569562
 31
0.0
  0
LINE
  5
310
330
1E
100
AcDbEntity
  8
DIM
100
AcDbLine
 10
-3.586636467176776
 20
1.588778914823572
 30
0.0
 11
-2.993853074322506
 21
1.644439569562
 31
0.0
  0
LINE
  5
311
330
1E
100
AcDbEntity
  8
DIM
100
AcDbLine
 10
-3.586636467176776
 20
1.432233323371737
 30
0.0
 11
-2.668351479139155
 21
1.640960778640848
 31
0.0
  0
LINE
  5
312
330
1E
100
AcDbEntity
  8
DIM
100
AcDbLine
 10
-2.668351479139155
 20
1.620088033113938
 30
0.0
 11
-3.586636467176776
 21
1.359178714027552
 31
0.0
  0
LINE
  5
313
330
1E
100
AcDbEntity
  8
DIM
100
AcDbLine
 10
-3.586636467176776
 20
1.275687731919876
 30
0.0
 11
-2.668351479139155
 21
1.588778914823572
 31
0.0
  0
LINE
  5
314
330
1E
100
AcDbEntity
  8
DIM
100
AcDbLine
 10
-2.668351479139155
 20
1.543554632848599
 30
0.0
 11
-3.586636467176776
 21
1.181760377048779
 31
0.0
  0
LINE
  5
315
330
1E
100
AcDbEntity
  8
DIM
100
AcDbLine
 10
-3.586636467176776
 20
1.087833022177679
 30
0.0
 11
-2.668351479139155
 21
1.494851559952476
 31
0.0
  0
LINE
  5
316
330
1E
100
AcDbEntity
  8
DIM
100
AcDbLine
 10
-2.668351479139155
 20
1.432233323371737
 30
0.0
 11
-3.586636467176776
 21
0.9799905036219742
 31
0.0
  0
LINE
  5
317
330
1E
100
AcDbEntity
  8
DIM
100
AcDbLine
 10
-3.583990112744385
 20
0.8756267759874178
 30
0.0
 11
-2.668351479139155
 21
1.359178714027552
 31
0.0
  0
LINE
  5
318
330
1E
100
AcDbEntity
  8
DIM
100
AcDbLine
 10
-3.586636467176776
 20
0.7608266755894091
 30
0.0
 11
-2.668351479139155
 21
1.275687731919876
 31
0.0
  0
LINE
  5
319
330
1E
100
AcDbEntity
  8
DIM
100
AcDbLine
 10
-3.586636467176776
 20
0.6529841570337043
 30
0.0
 11
-2.668351479139155
 21
1.181760377048779
 31
0.0
  0
LINE
  5
31A
330
1E
100
AcDbEntity
  8
DIM
100
AcDbLine
 10
-3.586636467176776
 20
0.5347052657145382
 30
0.0
 11
-2.668351479139155
 21
1.084354231256527
 31
0.0
  0
LINE
  5
31B
330
1E
100
AcDbEntity
  8
DIM
100
AcDbLine
 10
-2.667906235912943
 20
-0.3659321158797812
 30
0.0
 11
-3.586126694001094
 21
0.1989699148267876
 31
0.0
  0
LINE
  5
31C
330
1E
100
AcDbEntity
  8
DIM
100
AcDbLine
 10
-3.586126694001094
 20
0.3051908094895603
 30
0.0
 11
-2.667906235912943
 21
-0.2597112212170085
 31
0.0
  0
LINE
  5
31D
330
1E
100
AcDbEntity
  8
DIM
100
AcDbLine
 10
-2.667906235912943
 20
-0.1486621040695653
 30
0.0
 11
-3.396553219647633
 21
0.3034430814264706
 31
0.0
  0
LINE
  5
31E
330
1E
100
AcDbEntity
  8
DIM
100
AcDbLine
 10
-2.667906235912943
 20
0.0782643527099962
 30
0.0
 11
-3.042746646536531
 21
0.3049293997816163
 31
0.0
  0
LINE
  5
31F
330
1E
100
AcDbEntity
  8
DIM
100
AcDbLine
 10
-2.854626311984794
 20
0.3059881594368425
 30
0.0
 11
-2.667906235912943
 21
0.1989699148267876
 31
0.0
  0
LINE
  5
320
330
1E
100
AcDbEntity
  8
DIM
100
AcDbLine
 10
-3.225831186105151
 20
0.3056302228857586
 30
0.0
 11
-2.667906235912943
 21
-0.0376129869221202
 31
0.0
  0
LINE
  5
321
330
1E
100
AcDbEntity
  8
DIM
100
AcDbLine
 10
-2.734018108895288
 20
-1.032226818764506
 30
0.0
 11
-3.586636467176776
 21
-0.8806834458172794
 31
0.0
  0
LINE
  5
322
330
1E
100
AcDbEntity
  8
DIM
100
AcDbLine
 10
-3.586636467176776
 20
-0.929386518713402
 30
0.0
 11
-2.84053168203351
 21
-1.032226818764506
 31
0.0
  0
LINE
  5
323
330
1E
100
AcDbEntity
  8
DIM
100
AcDbLine
 10
-3.583990112744385
 20
-1.00591991897874
 30
0.0
 11
-3.311415606208702
 21
-1.030271455426802
 31
0.0
  0
LINE
  5
324
330
1E
100
AcDbEntity
  8
DIM
100
AcDbLine
 10
-3.586636467176776
 20
-0.9746108006883744
 30
0.0
 11
-2.993853074322506
 21
-1.030271455426802
 31
0.0
  0
LINE
  5
325
330
1E
100
AcDbEntity
  8
DIM
100
AcDbLine
 10
-3.586636467176776
 20
-0.8180652092365399
 30
0.0
 11
-2.668351479139154
 21
-1.02679266450565
 31
0.0
  0
LINE
  5
326
330
1E
100
AcDbEntity
  8
DIM
100
AcDbLine
 10
-2.668351479139154
 20
-1.00591991897874
 30
0.0
 11
-3.586636467176776
 21
-0.7450105998923551
 31
0.0
  0
LINE
  5
327
330
1E
100
AcDbEntity
  8
DIM
100
AcDbLine
 10
-3.586636467176776
 20
-0.6615196177846788
 30
0.0
 11
-2.668351479139154
 21
-0.9746108006883744
 31
0.0
  0
LINE
  5
328
330
1E
100
AcDbEntity
  8
DIM
100
AcDbLine
 10
-2.668351479139154
 20
-0.929386518713402
 30
0.0
 11
-3.586636467176776
 21
-0.5675922629135819
 31
0.0
  0
LINE
  5
329
330
1E
100
AcDbEntity
  8
DIM
100
AcDbLine
 10
-3.586636467176776
 20
-0.4736649080424816
 30
0.0
 11
-2.668351479139154
 21
-0.8806834458172794
 31
0.0
  0
LINE
  5
32A
330
1E
100
AcDbEntity
  8
DIM
100
AcDbLine
 10
-2.668351479139154
 20
-0.8180652092365399
 30
0.0
 11
-3.586636467176776
 21
-0.3658223894867767
 31
0.0
  0
LINE
  5
32B
330
1E
100
AcDbEntity
  8
DIM
100
AcDbLine
 10
-3.583990112744385
 20
-0.2614586618522203
 30
0.0
 11
-2.668351479139154
 21
-0.7450105998923551
 31
0.0
  0
LINE
  5
32C
330
1E
100
AcDbEntity
  8
DIM
100
AcDbLine
 10
-3.586636467176776
 20
-0.1466585614542115
 30
0.0
 11
-2.668351479139154
 21
-0.6615196177846788
 31
0.0
  0
LINE
  5
32D
330
1E
100
AcDbEntity
  8
DIM
100
AcDbLine
 10
-3.586636467176776
 20
-0.0388160428985067
 30
0.0
 11
-2.668351479139154
 21
-0.5675922629135819
 31
0.0
  0
LINE
  5
32E
330
1E
100
AcDbEntity
  8
DIM
100
AcDbLine
 10
-3.586636467176776
 20
0.0794628484206586
 30
0.0
 11
-2.668351479139154
 21
-0.4701861171213296
 31
0.0
  0
LINE
  5
32F
330
1E
100
AcDbEntity
  8
DIM
100
AcDbLine
 10
-3.582614327636077
 20
-0.3659321158797812
 30
0.0
 11
-2.664393869547927
 21
0.1989699148267876
 31
0.0
  0
LINE
  5
330
330
1E
100
AcDbEntity
  8
DIM
100
AcDbLine
 10
-2.664393869547927
 20
0.3051908094895603
 30
0.0
 11
-3.582614327636077
 21
-0.2597112212170085
 31
0.0
  0
LINE
  5
331
330
1E
100
AcDbEntity
  8
DIM
100
AcDbLine
 10
-3.582614327636077
 20
-0.1486621040695653
 30
0.0
 11
-2.853967343901388
 21
0.3034430814264706
 31
0.0
  0
LINE
  5
332
330
1E
100
AcDbEntity
  8
DIM
100
AcDbLine
 10
-3.582614327636077
 20
0.0782643527099962
 30
0.0
 11
-3.20777391701249
 21
0.3049293997816163
 31
0.0
  0
LINE
  5
333
330
1E
100
AcDbEntity
  8
DIM
100
AcDbLine
 10
-3.395894251564227
 20
0.3059881594368425
 30
0.0
 11
-3.582614327636077
 21
0.1989699148267876
 31
0.0
  0
LINE
  5
334
330
1E
100
AcDbEntity
  8
DIM
100
AcDbLine
 10
-3.02468937744387
 20
0.3056302228857586
 30
0.0
 11
-3.582614327636077
 21
-0.0376129869221202
 31
0.0
  0
LINE
  5
335
330
1E
100
AcDbEntity
  8
DIM
100
AcDbLine
 10
-3.516502454653733
 20
-1.032226818764506
 30
0.0
 11
-2.663884096372244
 21
-0.8806834458172794
 31
0.0
  0
LINE
  5
336
330
1E
100
AcDbEntity
  8
DIM
100
AcDbLine
 10
-2.663884096372244
 20
-0.929386518713402
 30
0.0
 11
-3.409988881515511
 21
-1.032226818764506
 31
0.0
  0
LINE
  5
337
330
1E
100
AcDbEntity
  8
DIM
100
AcDbLine
 10
-2.666530450804636
 20
-1.00591991897874
 30
0.0
 11
-2.939104957340319
 21
-1.030271455426802
 31
0.0
  0
LINE
  5
338
330
1E
100
AcDbEntity
  8
DIM
100
AcDbLine
 10
-2.663884096372244
 20
-0.9746108006883744
 30
0.0
 11
-3.256667489226515
 21
-1.030271455426802
 31
0.0
  0
LINE
  5
339
330
1E
100
AcDbEntity
  8
DIM
100
AcDbLine
 10
-2.663884096372244
 20
-0.8180652092365399
 30
0.0
 11
-3.582169084409867
 21
-1.02679266450565
 31
0.0
  0
LINE
  5
33A
330
1E
100
AcDbEntity
  8
DIM
100
AcDbLine
 10
-3.582169084409867
 20
-1.00591991897874
 30
0.0
 11
-2.663884096372244
 21
-0.7450105998923551
 31
0.0
  0
LINE
  5
33B
330
1E
100
AcDbEntity
  8
DIM
100
AcDbLine
 10
-2.663884096372244
 20
-0.6615196177846788
 30
0.0
 11
-3.582169084409867
 21
-0.9746108006883744
 31
0.0
  0
LINE
  5
33C
330
1E
100
AcDbEntity
  8
DIM
100
AcDbLine
 10
-3.582169084409867
 20
-0.929386518713402
 30
0.0
 11
-2.663884096372244
 21
-0.5675922629135819
 31
0.0
  0
LINE
  5
33D
330
1E
100
AcDbEntity
  8
DIM
100
AcDbLine
 10
-2.663884096372244
 20
-0.4736649080424816
 30
0.0
 11
-3.582169084409867
 21
-0.8806834458172794
 31
0.0
  0
LINE
  5
33E
330
1E
100
AcDbEntity
  8
DIM
100
AcDbLine
 10
-3.582169084409867
 20
-0.8180652092365399
 30
0.0
 11
-2.663884096372244
 21
-0.3658223894867767
 31
0.0
  0
LINE
  5
33F
330
1E
100
AcDbEntity
  8
DIM
100
AcDbLine
 10
-2.666530450804636
 20
-0.2614586618522203
 30
0.0
 11
-3.582169084409867
 21
-0.7450105998923551
 31
0.0
  0
LINE
  5
340
330
1E
100
AcDbEntity
  8
DIM
100
AcDbLine
 10
-2.663884096372244
 20
-0.1466585614542115
 30
0.0
 11
-3.582169084409867
 21
-0.6615196177846788
 31
0.0
  0
LINE
  5
341
330
1E
100
AcDbEntity
  8
DIM
100
AcDbLine
 10
-2.663884096372244
 20
-0.0388160428985067
 30
0.0
 11
-3.582169084409867
 21
-0.5675922629135819
 31
0.0
  0
LINE
  5
342
330
1E
100
AcDbEntity
  8
DIM
100
AcDbLine
 10
-2.663884096372244
 20
0.0794628484206586
 30
0.0
 11
-3.582169084409867
 21
-0.4701861171213296
 31
0.0
  0
LINE
  5
34F
330
1E
100
AcDbEntity
  8
PART
100
AcDbLine
 10
-1.057873078174437
 20
0.9844278596028441
 30
0.0
 11
-1.002433078174437
 21
0.9166678596028443
 31
0.0
  0
LINE
  5
35A
330
1E
100
AcDbEntity
  8
PART
100
AcDbLine
 10
-1.002068927778968
 20
-0.3033542880685029
 30
0.0
 11
-1.058382720015734
 21
-0.368498789484837
 31
0.0
  0
LINE
  5
35F
330
1E
100
AcDbEntity
  8
PART
100
AcDbLine
 10
-0.3951138868830747
 20
0.2395165570675983
 30
0.0
 11
-0.4549456502898729
 21
0.4510767420867881
 31
0.0
  0
LINE
  5
361
330
1E
100
AcDbEntity
  8
PART
100
AcDbLine
 10
-0.5091329077148972
 20
0.2395165570675983
 30
0.0
 11
-0.3951138868830747
 21
0.2395165570675979
 31
0.0
  0
LINE
  5
362
330
1E
100
AcDbEntity
  8
PART
100
AcDbLine
 10
-0.4549456502898729
 20
0.4497708150187681
 30
0.0
 11
-0.5091329077148972
 21
0.2395165570675983
 31
0.0
  0
LINE
  5
363
330
1E
100
AcDbEntity
  8
PART
100
AcDbLine
 10
-0.5624330781744376
 20
0.9166678596028443
 30
0.0
 11
-0.5078730781744375
 21
0.9844278596028441
 31
0.0
  0
LINE
  5
364
330
1E
100
AcDbEntity
  8
PART
100
AcDbLine
 10
-0.5078730781744375
 20
0.9844278596028441
 30
0.0
 11
-0.4524330781744375
 21
0.9166678596028443
 31
0.0
  0
LINE
  5
370
330
1E
100
AcDbEntity
  8
PART
100
AcDbLine
 10
-0.3831947905308688
 20
-0.3025950281452105
 30
0.0
 11
-0.4503250314396646
 21
-0.3028683617176122
 31
0.0
  0
LINE
  5
371
330
1E
100
AcDbEntity
  8
PART
100
AcDbLine
 10
-0.3831947905308689
 20
0.9197223371242566
 30
0.0
 11
-0.4533441858020276
 21
0.9197223371242596
 31
0.0
  0
LINE
  5
372
330
1E
100
AcDbEntity
  8
PART
100
AcDbLine
 10
-0.3831947905308688
 20
-0.3025950281452105
 30
0.0
 11
-0.3831947905308689
 21
0.9197223371242566
 31
0.0
  0
LINE
  5
388
330
1E
100
AcDbEntity
  8
PART
100
AcDbLine
 10
-0.6178730781744375
 20
0.9844278596028441
 30
0.0
 11
-0.5624330781744375
 21
0.9166678596028443
 31
0.0
  0
LINE
  5
389
330
1E
100
AcDbEntity
  8
PART
100
AcDbLine
 10
-0.6724330781744375
 20
0.9166678596028443
 30
0.0
 11
-0.6178730781744375
 21
0.9844278596028441
 31
0.0
  0
LINE
  5
396
330
1E
100
AcDbEntity
  8
PART
100
AcDbLine
 10
-0.8378730781744375
 20
0.9844278596028441
 30
0.0
 11
-0.7824330781744376
 21
0.9166678596028443
 31
0.0
  0
LINE
  5
397
330
1E
100
AcDbEntity
  8
PART
100
AcDbLine
 10
-0.8924330781744373
 20
0.9166678596028443
 30
0.0
 11
-0.8378730781744375
 21
0.9844278596028441
 31
0.0
  0
LINE
  5
3A4
330
1E
100
AcDbEntity
  8
PART
100
AcDbLine
 10
-0.9478730781744374
 20
0.9844278596028441
 30
0.0
 11
-0.8924330781744373
 21
0.9166678596028443
 31
0.0
  0
LINE
  5
3A5
330
1E
100
AcDbEntity
  8
PART
100
AcDbLine
 10
-1.002433078174437
 20
0.9166678596028443
 30
0.0
 11
-0.9478730781744374
 21
0.9844278596028441
 31
0.0
  0
LINE
  5
3B2
330
1E
100
AcDbEntity
  8
PART
100
AcDbLine
 10
-0.7278730781744374
 20
0.9844278596028441
 30
0.0
 11
-0.6724330781744375
 21
0.9166678596028443
 31
0.0
  0
LINE
  5
3B3
330
1E
100
AcDbEntity
  8
PART
100
AcDbLine
 10
-0.7824330781744374
 20
0.9166678596028443
 30
0.0
 11
-0.7278730781744374
 21
0.9844278596028441
 31
0.0
  0
LINE
  5
3BE
330
1E
100
AcDbEntity
  8
PART
100
AcDbLine
 10
-0.9478730781744374
 20
-0.3707721403971558
 30
0.0
 11
-1.003313078174437
 21
-0.303012140397156
 31
0.0
  0
LINE
  5
3BF
330
1E
100
AcDbEntity
  8
PART
100
AcDbLine
 10
-0.8933130781744374
 20
-0.303012140397156
 30
0.0
 11
-0.9478730781744374
 21
-0.3707721403971558
 31
0.0
  0
LINE
  5
3CA
330
1E
100
AcDbEntity
  8
PART
100
AcDbLine
 10
-0.8378730781744375
 20
-0.3707721403971558
 30
0.0
 11
-0.8933130781744374
 21
-0.303012140397156
 31
0.0
  0
LINE
  5
3CB
330
1E
100
AcDbEntity
  8
PART
100
AcDbLine
 10
-0.7833130781744375
 20
-0.303012140397156
 30
0.0
 11
-0.8378730781744375
 21
-0.3707721403971558
 31
0.0
  0
LINE
  5
3D6
330
1E
100
AcDbEntity
  8
PART
100
AcDbLine
 10
-0.7278730781744375
 20
-0.3707721403971558
 30
0.0
 11
-0.7833130781744375
 21
-0.303012140397156
 31
0.0
  0
LINE
  5
3D7
330
1E
100
AcDbEntity
  8
PART
100
AcDbLine
 10
-0.6733130781744375
 20
-0.303012140397156
 30
0.0
 11
-0.7278730781744375
 21
-0.3707721403971558
 31
0.0
  0
LINE
  5
3E2
330
1E
100
AcDbEntity
  8
PART
100
AcDbLine
 10
-0.6178730781744375
 20
-0.3707721403971558
 30
0.0
 11
-0.6733130781744375
 21
-0.303012140397156
 31
0.0
  0
LINE
  5
3E3
330
1E
100
AcDbEntity
  8
PART
100
AcDbLine
 10
-0.5633130781744375
 20
-0.303012140397156
 30
0.0
 11
-0.6178730781744375
 21
-0.3707721403971558
 31
0.0
  0
LINE
  5
3EE
330
1E
100
AcDbEntity
  8
PART
100
AcDbLine
 10
-0.5078730781744376
 20
-0.3707721403971558
 30
0.0
 11
-0.5633130781744375
 21
-0.303012140397156
 31
0.0
  0
LINE
  5
3EF
330
1E
100
AcDbEntity
  8
PART
100
AcDbLine
 10
-0.4533130781744374
 20
-0.303012140397156
 30
0.0
 11
-0.5078730781744376
 21
-0.3707721403971558
 31
0.0
  0
LINE
  5
3F0
330
1E
100
AcDbEntity
  8
DIM
100
AcDbLine
 10
-0.7278730781744374
 20
0.9844278596028441
 30
0.0
 11
-0.6175784681520036
 21
-0.369960643391166
 31
0.0
  0
LINE
  5
3F1
330
1E
100
AcDbEntity
  8
DIM
100
AcDbLine
 10
-0.5075784681520022
 20
-0.3699606433911731
 30
0.0
 11
-0.6178730781744375
 21
0.9844278596028441
 31
0.0
  0
LINE
  5
3F2
330
1E
100
AcDbEntity
  8
DIM
100
AcDbLine
 10
-0.5081676881968704
 20
0.983616362596857
 30
0.0
 11
-0.4549456502898729
 21
0.4510767420867881
 31
0.0
  0
LINE
  5
3F3
330
1E
100
AcDbEntity
  8
DIM
100
AcDbLine
 10
-0.8381676881968708
 20
0.9836163625968596
 30
0.0
 11
-0.7275784681520019
 21
-0.3699606433911731
 31
0.0
  0
LINE
  5
3F4
330
1E
100
AcDbEntity
  8
DIM
100
AcDbLine
 10
-0.8375784681520022
 20
-0.3699606433911731
 30
0.0
 11
-0.9478730781744374
 21
0.9844278596028441
 31
0.0
  0
LINE
  5
3F5
330
1E
100
AcDbEntity
  8
DIM
100
AcDbLine
 10
-0.9475784681520035
 20
-0.369960643391166
 30
0.0
 11
-1.057873078174436
 21
0.9818297375480625
 31
0.0
  0
LINE
  5
3F7
330
1E
100
AcDbEntity
  8
DIM
100
AcDbLine
 10
-0.5624330781744376
 20
0.9166678596028443
 30
0.0
 11
-0.5091329077148972
 21
0.2395165570675983
 31
0.0
  0
LINE
  5
3F8
330
1E
100
AcDbEntity
  8
DIM
100
AcDbLine
 10
-0.3951138868830746
 20
0.2395165570675979
 30
0.0
 11
-0.4524330781744375
 21
0.9166678596028443
 31
0.0
  0
LINE
  5
3F9
330
1E
100
AcDbEntity
  8
DIM
100
AcDbLine
 10
-0.6724330781744375
 20
0.9166678596028443
 30
0.0
 11
-0.5633130781744375
 21
-0.303012140397156
 31
0.0
  0
LINE
  5
3FA
330
1E
100
AcDbEntity
  8
DIM
100
AcDbLine
 10
-0.4533130781744374
 20
-0.303012140397156
 30
0.0
 11
-0.5091329077148972
 21
0.2395165570675983
 31
0.0
  0
LINE
  5
3FB
330
1E
100
AcDbEntity
  8
DIM
100
AcDbLine
 10
-0.6733130781744375
 20
-0.303012140397156
 30
0.0
 11
-0.7824330781744376
 21
0.9166678596028443
 31
0.0
  0
LINE
  5
3FC
330
1E
100
AcDbEntity
  8
DIM
100
AcDbLine
 10
-0.8924330781744373
 20
0.9166678596028443
 30
0.0
 11
-0.7833130781744375
 21
-0.303012140397156
 31
0.0
  0
LINE
  5
3FD
330
1E
100
AcDbEntity
  8
DIM
100
AcDbLine
 10
-0.8933130781744374
 20
-0.303012140397156
 30
0.0
 11
-1.002433078174437
 21
0.9166678596028443
 31
0.0
  0
LINE
  5
3FE
330
1E
100
AcDbEntity
  8
DIM
100
AcDbLine
 10
-1.002068927778968
 20
-0.3033542880685029
 30
0.0
 11
-1.057873078174436
 21
0.320392102642137
 31
0.0
  0
ENDSEC
  0
SECTION
  2
OBJECTS
  0
DICTIONARY
  5
C
330
0
100
AcDbDictionary
281
     1
  3
ACAD_COLOR
350
409
  3
ACAD_GROUP
350
D
  3
ACAD_LAYOUT
350
19
  3
ACAD_MATERIAL
350
408
  3
ACAD_MLINESTYLE
350
16
  3
ACAD_PLOTSETTINGS
350
18
  3
ACAD_PLOTSTYLENAME
350
E
  3
ACAD_TABLESTYLE
350
40A
  3
AcDbVariableDictionary
350
415
  3
ASE_INDEX_DICTIONARY
350
412
  0
DICTIONARY
  5
409
102
{ACAD_REACTORS
330
C
102
}
330
C
100
AcDbDictionary
281
     1
  0
DICTIONARY
  5
D
102
{ACAD_REACTORS
330
C
102
}
330
C
100
AcDbDictionary
281
     1
  0
DICTIONARY
  5
19
102
{ACAD_REACTORS
330
C
102
}
330
C
100
AcDbDictionary
281
     1
  3
Layout1
350
1D
  3
Model
350
21
  0
DICTIONARY
  5
408
102
{ACAD_REACTORS
330
C
102
}
330
C
100
AcDbDictionary
281
     1
  0
DICTIONARY
  5
16
102
{ACAD_REACTORS
330
C
102
}
330
C
100
AcDbDictionary
281
     1
  3
Standard
350
17
  0
DICTIONARY
  5
18
102
{ACAD_REACTORS
330
C
102
}
330
C
100
AcDbDictionary
281
     1
  0
ACDBDICTIONARYWDFLT
  5
E
102
{ACAD_REACTORS
330
C
102
}
330
C
100
AcDbDictionary
281
     1
  3
Normal
350
F
100
AcDbDictionaryWithDefault
340
F
  0
DICTIONARY
  5
40A
102
{ACAD_REACTORS
330
C
102
}
330
C
100
AcDbDictionary
281
     1
  3
Standard
350
40B
  0
DICTIONARY
  5
415
102
{ACAD_REACTORS
330
C
102
}
330
C
100
AcDbDictionary
281
     1
  3
CTABLESTYLE
350
416
  0
DICTIONARY
  5
412
102
{ACAD_REACTORS
330
C
102
}
330
C
100
AcDbDictionary
281
     1
  3
ASEBlockHierarchyIndexRecord
350
414
1001
DCO15
1040
1511514655.421
  0
LAYOUT
  5
1D
102
{ACAD_REACTORS
330
19
102
}
330
19
100
AcDbPlotSettings
  1

  2

  4

  6

 40
0.0
 41
0.0
 42
0.0
 43
0.0
 44
0.0
 45
0.0
 46
0.0
 47
0.0
 48
0.0
 49
0.0
140
0.0
141
0.0
142
1.0
143
1.0
 70
   688
 72
     0
 73
     0
 74
     5
  7
monochrome.ctb
 75
    16
147
1.0
 76
     0
 77
     2
 78
   300
148
0.0
149
0.0
100
AcDbLayout
  1
Layout1
 70
     0
 71
     1
 10
0.0
 20
0.0
 11
12.0
 21
9.0
 12
0.0
 22
0.0
 32
0.0
 14
1.000000000000000E+20
 24
1.000000000000000E+20
 34
1.000000000000000E+20
 15
-1.000000000000000E+20
 25
-1.000000000000000E+20
 35
-1.000000000000000E+20
146
0.0
 13
0.0
 23
0.0
 33
0.0
 16
1.0
 26
0.0
 36
0.0
 17
0.0
 27
1.0
 37
0.0
 76
     0
330
1A
  0
LAYOUT
  5
21
102
{ACAD_REACTORS
330
19
102
}
330
19
100
AcDbPlotSettings
  1

  2
hpgl.pc3
  4
ANSI_A_(11.00_x_8.50_Inches)
  6

 40
11.5657377243042
 41
9.699920654296875
 42
11.59060668945312
 43
9.737228393554687
 44
279.3999938964844
 45
215.8999938964844
 46
0.0
 47
1.27
 48
-6.84375
 49
-3.981250000000002
140
3.606249999999999
141
3.918749999999999
142
1.0
143
1.035850061204705
 70
 11956
 72
     0
 73
     0
 74
     4
  7
monochrome.ctb
 75
     0
147
0.9653906848612704
 76
     0
 77
     2
 78
   300
148
173.83125
149
101.12375
100
AcDbLayout
  1
Model
 70
     1
 71
     0
 10
0.0
 20
0.0
 11
12.0
 21
9.0
 12
0.0
 22
0.0
 32
0.0
 14
0.0
 24
0.0
 34
0.0
 15
0.0
 25
0.0
 35
0.0
146
0.0
 13
0.0
 23
0.0
 33
0.0
 16
1.0
 26
0.0
 36
0.0
 17
0.0
 27
1.0
 37
0.0
 76
     0
330
1E
  0
MLINESTYLE
  5
17
102
{ACAD_REACTORS
330
16
102
}
330
16
100
AcDbMlineStyle
  2
STANDARD
 70
     0
  3

 62
   256
 51
90.0
 52
90.0
 71
     2
 49
0.5
 62
   256
  6
BYLAYER
 49
-0.5
 62
   256
  6
BYLAYER
  0
ACDBPLACEHOLDER
  5
F
102
{ACAD_REACTORS
330
E
102
}
330
E
  0
TABLESTYLE
  5
40B
102
{ACAD_REACTORS
330
40A
102
}
330
40A
100
AcDbTableStyle
  3
Standard
 70
     0
 71
     0
 40
0.06
 41
0.06
280
     0
281
     0
  7
STANDARD
140
0.18
170
     2
 62
     0
 63
     7
283
     0
274
    -2
284
     1
 64
     0
275
    -2
285
     1
 65
     0
276
    -2
286
     1
 66
     0
277
    -2
287
     1
 67
     0
278
    -2
288
     1
 68
     0
279
    -2
289
     1
 69
     0
  7
STANDARD
140
0.25
170
     5
 62
     0
 63
     7
283
     0
274
    -2
284
     1
 64
     0
275
    -2
285
     1
 65
     0
276
    -2
286
     1
 66
     0
277
    -2
287
     1
 67
     0
278
    -2
288
     1
 68
     0
279
    -2
289
     1
 69
     0
  7
STANDARD
140
0.18
170
     5
 62
     0
 63
     7
283
     0
274
    -2
284
     1
 64
     0
275
    -2
285
     1
 65
     0
276
    -2
286
     1
 66
     0
277
    -2
287
     1
 67
     0
278
    -2
288
     1
 68
     0
279
    -2
289
     1
 69
     0
  0
DICTIONARYVAR
  5
416
102
{ACAD_REACTORS
330
415
102
}
330
415
100
DictionaryVariables
280
     0
  1
STANDARD
  0
XRECORD
  5
414
102
{ACAD_REACTORS
330
412
102
}
330
412
100
AcDbXrecord
280
     1
330
2A5
330
2B9
330
33
330
65
330
66
330
67
330
68
330
69
330
6A
330
6B
330
6C
330
6D
330
A6
330
A7
330
A8
330
A9
330
D5
330
173
330
21D
  0
ENDSEC
  0
EOF
