  0
SECTION
  2
HEADER
  9
$ACADVER
  1
AC1018
  9
$ACADMAINTVER
 70
    39
  9
$DWGCODEPAGE
  3
ANSI_1252
  9
$INSBASE
 10
53.14501609367887
 20
34.27867041627987
 30
0.0
  9
$EXTMIN
 10
-6.686416596340315
 20
-3.060255117328161
 30
0.0
  9
$EXTMAX
 10
14.21358340365968
 20
12.73974488267184
 30
2.0
  9
$LIMMIN
 10
0.0
 20
0.0
  9
$LIMMAX
 10
36.0
 20
24.0
  9
$ORTHOMODE
 70
     0
  9
$REGENMODE
 70
     1
  9
$FILLMODE
 70
     1
  9
$QTEXTMODE
 70
     0
  9
$MIRRTEXT
 70
     0
  9
$LTSCALE
 40
1.0
  9
$ATTMODE
 70
     1
  9
$TEXTSIZE
 40
0.15
  9
$TRACEWID
 40
0.05
  9
$TEXTSTYLE
  7
STANDARD
  9
$CLAYER
  8
DIM
  9
$CELTYPE
  6
BYLAYER
  9
$CECOLOR
 62
   256
  9
$CELTSCALE
 40
1.0
  9
$DISPSILH
 70
     0
  9
$DIMSCALE
 40
1.0
  9
$DIMASZ
 40
0.1
  9
$DIMEXO
 40
0.1
  9
$DIMDLI
 40
0.375
  9
$DIMRND
 40
0.0
  9
$DIMDLE
 40
0.0
  9
$DIMEXE
 40
0.0625
  9
$DIMTP
 40
0.0
  9
$DIMTM
 40
0.0
  9
$DIMTXT
 40
0.1
  9
$DIMCEN
 40
0.09
  9
$DIMTSZ
 40
0.0
  9
$DIMTOL
 70
     0
  9
$DIMLIM
 70
     0
  9
$DIMTIH
 70
     0
  9
$DIMTOH
 70
     1
  9
$DIMSE1
 70
     0
  9
$DIMSE2
 70
     0
  9
$DIMTAD
 70
     0
  9
$DIMZIN
 70
     0
  9
$DIMBLK
  1

  9
$DIMASO
 70
     0
  9
$DIMSHO
 70
     1
  9
$DIMPOST
  1

  9
$DIMAPOST
  1

  9
$DIMALT
 70
     0
  9
$DIMALTD
 70
     2
  9
$DIMALTF
 40
25.4
  9
$DIMLFAC
 40
1.0
  9
$DIMTOFL
 70
     0
  9
$DIMTVP
 40
0.0
  9
$DIMTIX
 70
     1
  9
$DIMSOXD
 70
     0
  9
$DIMSAH
 70
     0
  9
$DIMBLK1
  1

  9
$DIMBLK2
  1

  9
$DIMSTYLE
  2
STANDARD
  9
$DIMCLRD
 70
     0
  9
$DIMCLRE
 70
     0
  9
$DIMCLRT
 70
     0
  9
$DIMTFAC
 40
1.0
  9
$DIMGAP
 40
0.09
  9
$DIMJUST
 70
     0
  9
$DIMSD1
 70
     0
  9
$DIMSD2
 70
     0
  9
$DIMTOLJ
 70
     1
  9
$DIMTZIN
 70
     0
  9
$DIMALTZ
 70
     0
  9
$DIMALTTZ
 70
     0
  9
$DIMUPT
 70
     0
  9
$DIMDEC
 70
     4
  9
$DIMTDEC
 70
     4
  9
$DIMALTU
 70
     2
  9
$DIMALTTD
 70
     2
  9
$DIMTXSTY
  7
STANDARD
  9
$DIMAUNIT
 70
     0
  9
$DIMADEC
 70
     0
  9
$DIMALTRND
 40
0.0
  9
$DIMAZIN
 70
     0
  9
$DIMDSEP
 70
    46
  9
$DIMATFIT
 70
     3
  9
$DIMFRAC
 70
     0
  9
$DIMLDRBLK
  1

  9
$DIMLUNIT
 70
     2
  9
$DIMLWD
 70
    -2
  9
$DIMLWE
 70
    -2
  9
$DIMTMOVE
 70
     0
  9
$LUNITS
 70
     2
  9
$LUPREC
 70
     3
  9
$SKETCHINC
 40
0.1
  9
$FILLETRAD
 40
0.2
  9
$AUNITS
 70
     0
  9
$AUPREC
 70
     2
  9
$MENU
  1
acad
  9
$ELEVATION
 40
0.0
  9
$PELEVATION
 40
0.0
  9
$THICKNESS
 40
0.0
  9
$LIMCHECK
 70
     0
  9
$CHAMFERA
 40
0.0
  9
$CHAMFERB
 40
0.0
  9
$CHAMFERC
 40
0.0
  9
$CHAMFERD
 40
0.0
  9
$SKPOLY
 70
     0
  9
$TDCREATE
 40
2449098.716565278
  9
$TDUCREATE
 40
2449098.924898611
  9
$TDUPDATE
 40
2453297.578227847
  9
$TDUUPDATE
 40
2453297.786561180
  9
$TDINDWG
 40
0.0299642593
  9
$TDUSRTIMER
 40
0.0299642593
  9
$USRTIMER
 70
     1
  9
$ANGBASE
 50
0.0
  9
$ANGDIR
 70
     0
  9
$PDMODE
 70
     0
  9
$PDSIZE
 40
0.0
  9
$PLINEWID
 40
0.0
  9
$SPLFRAME
 70
     0
  9
$SPLINETYPE
 70
     6
  9
$SPLINESEGS
 70
     8
  9
$HANDSEED
  5
518
  9
$SURFTAB1
 70
     6
  9
$SURFTAB2
 70
     6
  9
$SURFTYPE
 70
     6
  9
$SURFU
 70
     6
  9
$SURFV
 70
     6
  9
$UCSBASE
  2

  9
$UCSNAME
  2

  9
$UCSORG
 10
0.0
 20
0.0
 30
0.0
  9
$UCSXDIR
 10
1.0
 20
0.0
 30
0.0
  9
$UCSYDIR
 10
0.0
 20
1.0
 30
0.0
  9
$UCSORTHOREF
  2

  9
$UCSORTHOVIEW
 70
     0
  9
$UCSORGTOP
 10
0.0
 20
0.0
 30
0.0
  9
$UCSORGBOTTOM
 10
0.0
 20
0.0
 30
0.0
  9
$UCSORGLEFT
 10
0.0
 20
0.0
 30
0.0
  9
$UCSORGRIGHT
 10
0.0
 20
0.0
 30
0.0
  9
$UCSORGFRONT
 10
0.0
 20
0.0
 30
0.0
  9
$UCSORGBACK
 10
0.0
 20
0.0
 30
0.0
  9
$PUCSBASE
  2

  9
$PUCSNAME
  2

  9
$PUCSORG
 10
0.0
 20
0.0
 30
0.0
  9
$PUCSXDIR
 10
1.0
 20
0.0
 30
0.0
  9
$PUCSYDIR
 10
0.0
 20
1.0
 30
0.0
  9
$PUCSORTHOREF
  2

  9
$PUCSORTHOVIEW
 70
     0
  9
$PUCSORGTOP
 10
0.0
 20
0.0
 30
0.0
  9
$PUCSORGBOTTOM
 10
0.0
 20
0.0
 30
0.0
  9
$PUCSORGLEFT
 10
0.0
 20
0.0
 30
0.0
  9
$PUCSORGRIGHT
 10
0.0
 20
0.0
 30
0.0
  9
$PUCSORGFRONT
 10
0.0
 20
0.0
 30
0.0
  9
$PUCSORGBACK
 10
0.0
 20
0.0
 30
0.0
  9
$USERI1
 70
     0
  9
$USERI2
 70
     0
  9
$USERI3
 70
     0
  9
$USERI4
 70
     0
  9
$USERI5
 70
     0
  9
$USERR1
 40
0.0
  9
$USERR2
 40
0.0
  9
$USERR3
 40
0.0
  9
$USERR4
 40
0.0
  9
$USERR5
 40
0.0
  9
$WORLDVIEW
 70
     1
  9
$SHADEDGE
 70
     3
  9
$SHADEDIF
 70
    70
  9
$TILEMODE
 70
     1
  9
$MAXACTVP
 70
    16
  9
$PINSBASE
 10
0.0
 20
0.0
 30
0.0
  9
$PLIMCHECK
 70
     0
  9
$PEXTMIN
 10
1.000000000000000E+20
 20
1.000000000000000E+20
 30
1.000000000000000E+20
  9
$PEXTMAX
 10
-1.000000000000000E+20
 20
-1.000000000000000E+20
 30
-1.000000000000000E+20
  9
$PLIMMIN
 10
0.0
 20
0.0
  9
$PLIMMAX
 10
12.0
 20
9.0
  9
$UNITMODE
 70
     0
  9
$VISRETAIN
 70
     0
  9
$PLINEGEN
 70
     0
  9
$PSLTSCALE
 70
     1
  9
$TREEDEPTH
 70
  3020
  9
$CMLSTYLE
  2
STANDARD
  9
$CMLJUST
 70
     0
  9
$CMLSCALE
 40
1.0
  9
$PROXYGRAPHICS
 70
     0
  9
$MEASUREMENT
 70
     0
  9
$CELWEIGHT
370
    -1
  9
$ENDCAPS
280
     0
  9
$JOINSTYLE
280
     0
  9
$LWDISPLAY
290
     0
  9
$INSUNITS
 70
     0
  9
$HYPERLINKBASE
  1

  9
$STYLESHEET
  1
monochrome.ctb
  9
$XEDIT
290
     1
  9
$CEPSNTYPE
380
     0
  9
$PSTYLEMODE
290
     1
  9
$FINGERPRINTGUID
  2
{23ACBF3A-4E77-11D3-9C30-006008208A1C}
  9
$VERSIONGUID
  2
{08453367-6E9D-4AF0-887D-91939620272F}
  9
$EXTNAMES
290
     1
  9
$PSVPSCALE
 40
0.0
  9
$OLESTARTUP
290
     0
  9
$SORTENTS
280
   127
  9
$INDEXCTL
280
     0
  9
$HIDETEXT
280
     0
  9
$XCLIPFRAME
290
     0
  9
$HALOGAP
280
     0
  9
$OBSCOLOR
 70
   257
  9
$OBSLTYPE
280
     0
  9
$INTERSECTIONDISPLAY
280
     0
  9
$INTERSECTIONCOLOR
 70
   257
  9
$DIMASSOC
280
     0
  9
$PROJECTNAME
  1

  0
ENDSEC
  0
SECTION
  2
CLASSES
  0
CLASS
  1
ACDBDICTIONARYWDFLT
  2
AcDbDictionaryWithDefault
  3
ObjectDBX Classes
 90
        0
 91
        1
280
     0
281
     0
  0
CLASS
  1
DICTIONARYVAR
  2
AcDbDictionaryVar
  3
ObjectDBX Classes
 90
        0
 91
        2
280
     0
281
     0
  0
CLASS
  1
TABLESTYLE
  2
AcDbTableStyle
  3
ObjectDBX Classes
 90
     2047
 91
        1
280
     0
281
     0
  0
ENDSEC
  0
SECTION
  2
TABLES
  0
TABLE
  2
VPORT
  5
13
330
0
100
AcDbSymbolTable
 70
     2
  0
VPORT
  5
517
330
13
100
AcDbSymbolTableRecord
100
AcDbViewportTableRecord
  2
*Active
 70
     0
 10
0.0
 20
0.0
 11
1.0
 21
1.0
 12
3.762837833787406
 22
5.286127971255446
 13
0.0
 23
0.0
 14
0.0625
 24
0.0625
 15
0.25
 25
0.25
 16
0.0
 26
0.0
 36
1.0
 17
0.0
 27
0.0
 37
0.0
 40
16.87082283034474
 41
1.551499348109517
 42
50.0
 43
0.0
 44
0.0
 50
0.0
 51
0.0
 71
     0
 72
 20000
 73
     1
 74
     0
 75
     0
 76
     0
 77
     0
 78
     1
281
     0
 65
     1
110
0.0
120
0.0
130
0.0
111
1.0
121
0.0
131
0.0
112
0.0
122
1.0
132
0.0
 79
     0
146
0.0
  0
ENDTAB
  0
TABLE
  2
LTYPE
  5
F
330
0
100
AcDbSymbolTable
 70
     4
  0
LTYPE
  5
10
330
F
100
AcDbSymbolTableRecord
100
AcDbLinetypeTableRecord
  2
BYBLOCK
 70
     0
  3

 72
    65
 73
     0
 40
0.0
  0
LTYPE
  5
9
330
F
100
AcDbSymbolTableRecord
100
AcDbLinetypeTableRecord
  2
BYLAYER
 70
     0
  3

 72
    65
 73
     0
 40
0.0
  0
LTYPE
  5
A
330
F
100
AcDbSymbolTableRecord
100
AcDbLinetypeTableRecord
  2
CONTINUOUS
 70
     0
  3
Solid line
 72
    65
 73
     0
 40
0.0
  0
LTYPE
  5
396
330
F
100
AcDbSymbolTableRecord
100
AcDbLinetypeTableRecord
  2
CENTER
 70
     0
  3
Center ____ _ ____ _ ____ _ ____ _ ____ _ ____
 72
    65
 73
     4
 40
2.0
 49
1.25
 74
     0
 49
-0.25
 74
     0
 49
0.25
 74
     0
 49
-0.25
 74
     0
  0
LTYPE
  5
397
330
F
100
AcDbSymbolTableRecord
100
AcDbLinetypeTableRecord
  2
HIDDEN
 70
     0
  3
Hidden __ __ __ __ __ __ __ __ __ __ __ __ __ _
 72
    65
 73
     2
 40
0.375
 49
0.25
 74
     0
 49
-0.125
 74
     0
  0
LTYPE
  5
398
330
F
100
AcDbSymbolTableRecord
100
AcDbLinetypeTableRecord
  2
PHANTOM
 70
     0
  3
Phantom ______  __  __  ______  __  __  ______
 72
    65
 73
     6
 40
2.5
 49
1.25
 74
     0
 49
-0.25
 74
     0
 49
0.25
 74
     0
 49
-0.25
 74
     0
 49
0.25
 74
     0
 49
-0.25
 74
     0
  0
ENDTAB
  0
TABLE
  2
LAYER
  5
B
330
0
100
AcDbSymbolTable
 70
     9
  0
LAYER
  5
C
330
B
100
AcDbSymbolTableRecord
100
AcDbLayerTableRecord
  2
0
 70
     0
 62
     7
  6
CONTINUOUS
370
    -3
390
268
  0
LAYER
  5
1F
330
B
100
AcDbSymbolTableRecord
100
AcDbLayerTableRecord
  2
PART
 70
     0
 62
     1
  6
CONTINUOUS
370
    -3
390
268
  0
LAYER
  5
8
330
B
100
AcDbSymbolTableRecord
100
AcDbLayerTableRecord
  2
DIM
 70
     0
 62
     2
  6
CONTINUOUS
370
    -3
390
268
  0
LAYER
  5
399
330
B
100
AcDbSymbolTableRecord
100
AcDbLayerTableRecord
  2
CENTER
 70
     0
 62
     5
  6
CENTER
370
    -3
390
268
  0
LAYER
  5
39A
330
B
100
AcDbSymbolTableRecord
100
AcDbLayerTableRecord
  2
HIDDEN
 70
     0
 62
     3
  6
HIDDEN
370
    -3
390
268
  0
LAYER
  5
39B
330
B
100
AcDbSymbolTableRecord
100
AcDbLayerTableRecord
  2
PHANTOM
 70
     0
 62
     6
  6
PHANTOM
370
    -3
390
268
  0
LAYER
  5
39C
330
B
100
AcDbSymbolTableRecord
100
AcDbLayerTableRecord
  2
TRIM
 70
     0
 62
     1
  6
CONTINUOUS
370
    -3
390
268
  0
LAYER
  5
39D
330
B
100
AcDbSymbolTableRecord
100
AcDbLayerTableRecord
  2
SOLID
 70
     0
 62
     5
  6
CONTINUOUS
370
    -3
390
268
  0
LAYER
  5
4DD
330
B
100
AcDbSymbolTableRecord
100
AcDbLayerTableRecord
  2
NOTES
 70
     0
 62
     3
  6
CONTINUOUS
370
    -3
390
268
  0
ENDTAB
  0
TABLE
  2
STYLE
  5
D
330
0
100
AcDbSymbolTable
 70
     6
  0
STYLE
  5
E
330
D
100
AcDbSymbolTableRecord
100
AcDbTextStyleTableRecord
  2
STANDARD
 70
     0
 40
0.0
 41
1.0
 50
0.0
 71
     0
 42
0.15
  3
simplex.shx
  4

  0
STYLE
  5
A5
330
D
100
AcDbSymbolTableRecord
100
AcDbTextStyleTableRecord
  2
ROMANC
 70
     0
 40
0.0
 41
1.0
 50
0.0
 71
     0
 42
0.2404204446679756
  3
romanc
  4

  0
STYLE
  5
19B
330
D
100
AcDbSymbolTableRecord
100
AcDbTextStyleTableRecord
  2
ROMAND
 70
     0
 40
0.0
 41
1.0
 50
0.0
 71
     0
 42
0.4
  3
ROMAND.shx
  4

  0
STYLE
  5
39E
330
D
100
AcDbSymbolTableRecord
100
AcDbTextStyleTableRecord
  2

 70
     1
 40
0.0
 41
1.0
 50
0.0
 71
     0
 42
0.2
  3
ltypeshp.shx
  4

  0
STYLE
  5
39F
330
D
100
AcDbSymbolTableRecord
100
AcDbTextStyleTableRecord
  2
SIMPLEX
 70
     0
 40
0.0
 41
1.0
 50
0.0
 71
     0
 42
0.2
  3
SIMPLEX.shx
  4

  0
STYLE
  5
3A0
330
D
100
AcDbSymbolTableRecord
100
AcDbTextStyleTableRecord
  2
SCRIPT
 70
     0
 40
0.0
 41
0.95
 50
0.0
 71
     0
 42
0.09
  3
scripts.shx
  4

  0
ENDTAB
  0
TABLE
  2
VIEW
  5
11
330
0
100
AcDbSymbolTable
 70
     0
  0
ENDTAB
  0
TABLE
  2
UCS
  5
12
330
0
100
AcDbSymbolTable
 70
     0
  0
ENDTAB
  0
TABLE
  2
APPID
  5
15
330
0
100
AcDbSymbolTable
 70
     2
  0
APPID
  5
16
330
15
100
AcDbSymbolTableRecord
100
AcDbRegAppTableRecord
  2
ACAD
 70
     0
  0
APPID
  5
514
330
15
100
AcDbSymbolTableRecord
100
AcDbRegAppTableRecord
  2
DCO15
 70
     0
  0
ENDTAB
  0
TABLE
  2
DIMSTYLE
  5
17
330
0
100
AcDbSymbolTable
 70
     2
100
AcDbDimStyleTable
 71
     1
340
1C
  0
DIMSTYLE
105
1C
330
17
100
AcDbSymbolTableRecord
100
AcDbDimStyleTableRecord
  2
STANDARD
 70
     0
340
E
  0
DIMSTYLE
105
43D
330
17
100
AcDbSymbolTableRecord
100
AcDbDimStyleTableRecord
  2
STDANG
 70
     0
 41
0.1
 43
0.375
 44
0.0625
 73
     0
 74
     0
 78
     5
140
0.1
141
0.05
147
0.075
271
     3
272
     2
284
     5
340
E
  0
ENDTAB
  0
TABLE
  2
BLOCK_RECORD
  5
1
330
0
100
AcDbSymbolTable
 70
    23
  0
BLOCK_RECORD
  5
2
330
1
100
AcDbSymbolTableRecord
100
AcDbBlockTableRecord
  2
*MODEL_SPACE
340
26B
  0
BLOCK_RECORD
  5
3
330
1
100
AcDbSymbolTableRecord
100
AcDbBlockTableRecord
  2
*PAPER_SPACE
340
26C
  0
BLOCK_RECORD
  5
65
330
1
100
AcDbSymbolTableRecord
100
AcDbBlockTableRecord
  2
COPU
340
0
102
{BLKREFS
331
CD
331
CE
102
}
  0
BLOCK_RECORD
  5
9E
330
1
100
AcDbSymbolTableRecord
100
AcDbBlockTableRecord
  2
V
340
0
102
{BLKREFS
331
F5
102
}
  0
BLOCK_RECORD
  5
A6
330
1
100
AcDbSymbolTableRecord
100
AcDbBlockTableRecord
  2
WYE_TOP
340
0
  0
BLOCK_RECORD
  5
19C
330
1
100
AcDbSymbolTableRecord
100
AcDbBlockTableRecord
  2
X712-TOP
340
0
  0
BLOCK_RECORD
  5
254
330
1
100
AcDbSymbolTableRecord
100
AcDbBlockTableRecord
  2
TB_A
340
0
  0
BLOCK_RECORD
  5
271
330
1
100
AcDbSymbolTableRecord
100
AcDbBlockTableRecord
  2
A$C435B465C
340
0
  0
BLOCK_RECORD
  5
2E8
330
1
100
AcDbSymbolTableRecord
100
AcDbBlockTableRecord
  2
A$C4FB65283
340
0
102
{BLKREFS
331
3A2
331
2F9
102
}
  0
BLOCK_RECORD
  5
2EC
330
1
100
AcDbSymbolTableRecord
100
AcDbBlockTableRecord
  2
A$C2BBE0097
340
0
  0
BLOCK_RECORD
  5
2F0
330
1
100
AcDbSymbolTableRecord
100
AcDbBlockTableRecord
  2
A$C10236829
340
0
  0
BLOCK_RECORD
  5
2F4
330
1
100
AcDbSymbolTableRecord
100
AcDbBlockTableRecord
  2
A$C794932C0
340
0
  0
BLOCK_RECORD
  5
2F8
330
1
100
AcDbSymbolTableRecord
100
AcDbBlockTableRecord
  2
TEST
340
0
  0
BLOCK_RECORD
  5
376
330
1
100
AcDbSymbolTableRecord
100
AcDbBlockTableRecord
  2
A$C56887695
340
0
  0
BLOCK_RECORD
  5
37A
330
1
100
AcDbSymbolTableRecord
100
AcDbBlockTableRecord
  2
A$C406F4052
340
0
  0
BLOCK_RECORD
  5
37E
330
1
100
AcDbSymbolTableRecord
100
AcDbBlockTableRecord
  2
A$C217D2A32
340
0
  0
BLOCK_RECORD
  5
382
330
1
100
AcDbSymbolTableRecord
100
AcDbBlockTableRecord
  2
A$C26835032
340
0
  0
BLOCK_RECORD
  5
386
330
1
100
AcDbSymbolTableRecord
100
AcDbBlockTableRecord
  2
A$C11730435
340
0
  0
BLOCK_RECORD
  5
38A
330
1
100
AcDbSymbolTableRecord
100
AcDbBlockTableRecord
  2
A$C740A492C
340
0
  0
BLOCK_RECORD
  5
38E
330
1
100
AcDbSymbolTableRecord
100
AcDbBlockTableRecord
  2
A$C251463E3
340
0
  0
BLOCK_RECORD
  5
392
330
1
100
AcDbSymbolTableRecord
100
AcDbBlockTableRecord
  2
A$C46507260
340
0
  0
BLOCK_RECORD
  5
3A1
330
1
100
AcDbSymbolTableRecord
100
AcDbBlockTableRecord
  2
tft_aprlist
340
0
102
{BLKREFS
331
429
102
}
  0
BLOCK_RECORD
  5
43E
330
1
100
AcDbSymbolTableRecord
100
AcDbBlockTableRecord
  2
rvsn_blk
340
0
102
{BLKREFS
331
444
331
4CF
331
4F8
102
}
  0
BLOCK_RECORD
  5
4D4
330
1
100
AcDbSymbolTableRecord
100
AcDbBlockTableRecord
  2
safety_sym
340
0
  0
BLOCK_RECORD
  5
4DE
330
1
100
AcDbSymbolTableRecord
100
AcDbBlockTableRecord
  2
rvsn_sym
340
0
102
{BLKREFS
331
4E7
102
}
  0
ENDTAB
  0
ENDSEC
  0
SECTION
  2
BLOCKS
  0
BLOCK
  5
4
330
2
100
AcDbEntity
  8
0
100
AcDbBlockBegin
  2
*MODEL_SPACE
 70
     0
 10
0.0
 20
0.0
 30
0.0
  3
*MODEL_SPACE
  1

  0
ENDBLK
  5
5
330
2
100
AcDbEntity
  8
0
100
AcDbBlockEnd
  0
BLOCK
  5
6
330
3
100
AcDbEntity
 67
     1
  8
0
100
AcDbBlockBegin
  2
*PAPER_SPACE
 70
     0
 10
0.0
 20
0.0
 30
0.0
  3
*PAPER_SPACE
  1

  0
ENDBLK
  5
7
330
3
100
AcDbEntity
 67
     1
  8
0
100
AcDbBlockEnd
  0
BLOCK
  5
9A
330
65
100
AcDbEntity
  8
0
100
AcDbBlockBegin
  2
COPU
 70
     0
 10
0.0
 20
0.0
 30
0.0
  3
COPU
  1

  0
LINE
  5
66
330
65
100
AcDbEntity
  8
PART
100
AcDbLine
 10
0.5650172767740039
 20
1.552372209538322
 30
0.0
 11
-0.5650172767740039
 21
-1.552372209538322
 31
0.0
  0
LINE
  5
67
330
65
100
AcDbEntity
  8
PART
100
AcDbLine
 10
-0.6377892778319599
 20
1.990157992995182
 30
0.0
 11
-1.767823831379971
 21
-1.114586426081462
 31
0.0
  0
LINE
  5
68
330
65
100
AcDbEntity
  8
PART
100
AcDbLine
 10
-0.2812584217007732
 20
-0.538846810641271
 30
0.0
 11
-0.4429806715863692
 21
-0.9831750404253476
 31
0.0
  0
POLYLINE
  5
69
330
65
100
AcDbEntity
  8
PART
100
AcDb2dPolyline
 66
     1
 10
0.0
 20
0.0
 30
0.0
  0
VERTEX
  5
6A
330
69
100
AcDbEntity
  8
PART
100
AcDbVertex
100
AcDb2dVertex
 10
-0.2812584217007732
 20
-0.538846810641271
 30
0.0
  0
VERTEX
  5
6B
330
69
100
AcDbEntity
  8
PART
100
AcDbVertex
100
AcDb2dVertex
 10
-0.3690159915051829
 20
-0.6724807450073094
 30
0.0
 42
-0.4195803539130749
  0
VERTEX
  5
6C
330
69
100
AcDbEntity
  8
PART
100
AcDbVertex
100
AcDb2dVertex
 10
-0.4362154728076
 20
-0.6857660234065471
 30
0.0
  0
VERTEX
  5
6D
330
69
100
AcDbEntity
  8
PART
100
AcDbVertex
100
AcDb2dVertex
 10
-0.4776667992831385
 20
-0.657446559417064
 30
0.0
  0
SEQEND
  5
9C
330
69
100
AcDbEntity
  8
PART
  0
LINE
  5
6E
330
65
100
AcDbEntity
  8
PART
100
AcDbLine
 10
-1.333714156980985
 20
-0.1557842501165219
 30
0.0
 11
-0.2812584217007696
 21
-0.538846810641271
 31
0.0
  0
LINE
  5
6F
330
65
100
AcDbEntity
  8
PART
100
AcDbLine
 10
-1.259491059777015
 20
-0.3728858001701134
 30
0.0
 11
-1.414616245115226
 21
-0.7990887440755579
 31
0.0
  0
LINE
  5
70
330
65
100
AcDbEntity
  8
PART
100
AcDbLine
 10
-1.259491059777023
 20
-0.3728858001701134
 30
0.0
 11
-0.4776667992831421
 21
-0.6574465594170711
 31
0.0
  0
LINE
  5
71
330
65
100
AcDbEntity
  8
PART
100
AcDbLine
 10
-1.333714156980985
 20
-0.1557842501165219
 30
0.0
 11
-1.495436406866584
 21
-0.6001124799005986
 31
0.0
  0
LINE
  5
72
330
65
100
AcDbEntity
  8
PART
100
AcDbLine
 10
-1.414616245115226
 20
-0.7990887440755579
 30
0.0
 11
-0.6327919846213526
 21
-1.083649503322508
 31
0.0
  0
LINE
  5
73
330
65
100
AcDbEntity
  8
PART
100
AcDbLine
 10
-0.6265394894513605
 20
-1.581060488456412
 30
0.0
 11
-1.739135552461881
 21
-1.176108638758822
 31
0.0
  0
LINE
  5
74
330
65
100
AcDbEntity
  8
PART
100
AcDbLine
 10
-1.414616245115226
 20
-0.7990887440755579
 30
0.0
 11
-1.428786221695506
 21
-0.60219284514206
 31
0.0
  0
ARC
  5
75
330
65
100
AcDbEntity
  8
PART
100
AcDbCircle
 10
-1.452724311356913
 20
-0.6039155939231016
 30
0.0
 40
0.024
100
AcDbArc
 50
4.116299837691026
 51
118.9459478529371
  0
ARC
  5
76
330
65
100
AcDbEntity
  8
PART
100
AcDbCircle
 10
-1.722718585582246
 20
-1.131003392961094
 30
0.0
 40
0.048
100
AcDbArc
 50
160.0
 51
250.0
  0
LINE
  5
77
330
65
100
AcDbEntity
  8
PART
100
AcDbLine
 10
-1.464339934531825
 20
-0.5829137535690201
 30
0.0
 11
-1.495436406866584
 21
-0.6001124799005986
 31
0.0
  0
LINE
  5
78
330
65
100
AcDbEntity
  8
PART
100
AcDbLine
 10
-0.4776667992831421
 20
-0.6574465594170711
 30
0.0
 11
-0.6327919846213526
 21
-1.083649503322508
 31
0.0
  0
LINE
  5
79
330
65
100
AcDbEntity
  8
PART
100
AcDbLine
 10
-0.4557468232306868
 20
-0.950011624568571
 30
0.0
 11
-0.4429806715863692
 21
-0.9831750404253476
 31
0.0
  0
LINE
  5
7A
330
65
100
AcDbEntity
  8
PART
100
AcDbLine
 10
-0.6327919846213526
 20
-1.083649503322508
 30
0.0
 11
-0.4953749085703585
 21
-0.9419267794469483
 31
0.0
  0
ARC
  5
7B
330
65
100
AcDbEntity
  8
PART
100
AcDbCircle
 10
-0.478144629577411
 20
-0.9586335890114661
 30
0.0
 40
0.024
100
AcDbArc
 50
21.05405214706291
 51
135.8837001623091
  0
ARC
  5
7C
330
65
100
AcDbEntity
  8
PART
100
AcDbCircle
 10
-0.6101225225717251
 20
-1.53595524265869
 30
0.0
 40
0.048
100
AcDbArc
 50
250.0
 51
340.0
  0
LINE
  5
7D
330
65
100
AcDbEntity
  8
PART
100
AcDbLine
 10
-1.309448018648918
 20
-0.3679353691278102
 30
0.0
 11
-1.259491059777023
 21
-0.3728858001701134
 31
0.0
  0
ARC
  5
7E
330
65
100
AcDbEntity
  8
PART
100
AcDbCircle
 10
-1.304714693260134
 20
-0.3201693181002945
 30
0.0
 40
0.048
100
AcDbArc
 50
173.2929554962597
 51
264.3408118370319
  0
LINE
  5
7F
330
65
100
AcDbEntity
  8
PART
100
AcDbLine
 10
-1.333714156980985
 20
-0.1557842501165219
 30
0.0
 11
-1.352386195534847
 21
-0.314563261476227
 31
0.0
  0
POLYLINE
  5
80
330
65
100
AcDbEntity
  8
PART
100
AcDb2dPolyline
 66
     1
 10
0.0
 20
0.0
 30
0.0
 70
     1
  0
VERTEX
  5
81
330
80
100
AcDbEntity
  8
PART
100
AcDbVertex
100
AcDb2dVertex
 10
0.1056711314974983
 20
0.9920421037167521
 30
0.0
 42
0.0863188075832497
  0
VERTEX
  5
82
330
80
100
AcDbEntity
  8
PART
100
AcDbVertex
100
AcDb2dVertex
 10
0.0512572643391174
 20
1.001767077327993
 30
0.0
 42
0.0925889459849591
  0
VERTEX
  5
83
330
80
100
AcDbEntity
  8
PART
100
AcDbVertex
100
AcDb2dVertex
 10
0.0005006886529948
 20
0.9925305553579981
 30
0.0
 42
0.1030981112244744
 70
     2
 50
200.8933946491308
  0
VERTEX
  5
84
330
80
100
AcDbEntity
  8
PART
100
AcDbVertex
100
AcDb2dVertex
 10
-0.0420901091622632
 20
0.9652234528794814
 30
0.0
 42
0.1119976344768122
 50
220.8933946491307
  0
VERTEX
  5
85
330
80
100
AcDbEntity
  8
PART
100
AcDbVertex
100
AcDb2dVertex
 10
-0.067353573994172
 20
0.9259932483934285
 30
0.0
 42
0.1119976344768164
  0
VERTEX
  5
86
330
80
100
AcDbEntity
  8
PART
100
AcDbVertex
100
AcDb2dVertex
 10
-0.073217326514861
 20
0.8797021260727539
 30
0.0
 42
0.1030981112244851
  0
VERTEX
  5
87
330
80
100
AcDbEntity
  8
PART
100
AcDbVertex
100
AcDb2dVertex
 10
-0.0581435496501115
 20
0.8314068348391039
 30
0.0
 42
0.0925889459849671
 70
     2
 50
299.1066053508693
  0
VERTEX
  5
88
330
80
100
AcDbEntity
  8
PART
100
AcDbVertex
100
AcDb2dVertex
 10
-0.0251988787729189
 20
0.7917055505490787
 30
0.0
 42
0.0863188075832478
 50
319.1066053508692
  0
VERTEX
  5
89
330
80
100
AcDbEntity
  8
PART
100
AcDbVertex
100
AcDb2dVertex
 10
0.022735654334209
 20
0.7641787529389213
 30
0.0
 42
0.0863188075832488
  0
VERTEX
  5
8A
330
80
100
AcDbEntity
  8
PART
100
AcDbVertex
100
AcDb2dVertex
 10
0.077149521492597
 20
0.7544537793276725
 30
0.0
 42
0.0925889459849593
  0
VERTEX
  5
8B
330
80
100
AcDbEntity
  8
PART
100
AcDbVertex
100
AcDb2dVertex
 10
0.127906097178716
 20
0.7636903012976682
 30
0.0
 42
0.1030981112244806
 70
     2
 50
20.89339464913081
  0
VERTEX
  5
8C
330
80
100
AcDbEntity
  8
PART
100
AcDbVertex
100
AcDb2dVertex
 10
0.1704968949939705
 20
0.7909974037761849
 30
0.0
 42
0.1119976344768139
 50
40.89339464913076
  0
VERTEX
  5
8D
330
80
100
AcDbEntity
  8
PART
100
AcDbVertex
100
AcDb2dVertex
 10
0.1957603598258792
 20
0.8302276082622377
 30
0.0
 42
0.1119976344768337
  0
VERTEX
  5
8E
330
80
100
AcDbEntity
  8
PART
100
AcDbVertex
100
AcDb2dVertex
 10
0.2016241123465718
 20
0.8765187305829194
 30
0.0
 42
0.1030981112244773
  0
VERTEX
  5
8F
330
80
100
AcDbEntity
  8
PART
100
AcDbVertex
100
AcDb2dVertex
 10
0.1865503354818187
 20
0.9248140218165623
 30
0.0
 42
0.0925889459849543
 70
     2
 50
119.1066053508693
  0
VERTEX
  5
90
330
80
100
AcDbEntity
  8
PART
100
AcDbVertex
100
AcDb2dVertex
 10
0.1536056646046333
 20
0.9645153061065805
 30
0.0
 42
0.0863188075832539
 50
139.1066053508692
  0
SEQEND
  5
9D
330
80
100
AcDbEntity
  8
PART
  0
LINE
  5
91
330
65
100
AcDbEntity
  8
PART
100
AcDbLine
 10
0.1825945766724359
 20
0.9314796398824789
 30
0.0
 11
-0.073651393956677
 21
0.8862965615627338
 31
0.0
  0
LINE
  5
92
330
65
100
AcDbEntity
  8
PART
100
AcDbLine
 10
0.2020581797883842
 20
0.8699242950929324
 30
0.0
 11
-0.0541877908407251
 21
0.8247412167731873
 31
0.0
  0
ARC
  5
93
330
65
100
AcDbEntity
  8
PART
100
AcDbCircle
 10
0.0435124233993065
 20
1.793264986270916
 30
0.0
 40
0.6275555555555571
100
AcDbArc
 50
120.4022472909503
 51
160.0
  0
LINE
  5
94
330
65
100
AcDbEntity
  8
PART
100
AcDbLine
 10
0.5363289978559145
 20
1.613894422215683
 30
0.0
 11
-0.5762670651546067
 21
2.018846271913272
 31
0.0
  0
ARC
  5
95
330
65
100
AcDbEntity
  8
PART
100
AcDbCircle
 10
-0.5926840320342386
 20
1.973741026115543
 30
0.0
 40
0.048
100
AcDbArc
 50
70.00000000000004
 51
160.0
  0
LINE
  5
96
330
65
100
AcDbEntity
  8
PART
100
AcDbLine
 10
-0.2740731065660178
 20
2.33452777500231
 30
0.0
 11
0.5077511539278561
 21
2.049967015755353
 31
0.0
  0
LINE
  5
97
330
65
100
AcDbEntity
  8
PART
100
AcDbLine
 10
-0.4106290947428377
 20
2.226371736170055
 30
0.0
 11
0.5428377481711771
 21
1.879338185989578
 31
0.0
  0
ARC
  5
98
330
65
100
AcDbEntity
  8
PART
100
AcDbCircle
 10
-0.0834504906979952
 20
1.839475707858031
 30
0.0
 40
0.6275555555555571
100
AcDbArc
 50
340.0
 51
19.59775270904982
  0
ARC
  5
99
330
65
100
AcDbEntity
  8
PART
100
AcDbCircle
 10
0.5199120309762826
 20
1.568789176417954
 30
0.0
 40
0.048
100
AcDbArc
 50
340.0
 51
70.00000000000004
  0
ENDBLK
  5
9B
330
65
100
AcDbEntity
  8
0
100
AcDbBlockEnd
  0
BLOCK
  5
A3
330
9E
100
AcDbEntity
  8
0
100
AcDbBlockBegin
  2
V
 70
     0
 10
0.0
 20
0.0
 30
0.0
  3
V
  1

  0
LINE
  5
9F
330
9E
100
AcDbEntity
  8
PART
100
AcDbLine
 10
0.0
 20
-0.8100000000000001
 30
0.0
 11
4.23
 21
-0.5200000000000001
 31
0.0
  0
LINE
  5
A0
330
9E
100
AcDbEntity
  8
PART
100
AcDbLine
 10
0.0
 20
0.8100000000000001
 30
0.0
 11
4.23
 21
0.5200000000000001
 31
0.0
  0
ARC
  5
A1
330
9E
100
AcDbEntity
  8
PART
100
AcDbCircle
 10
0.0
 20
0.0
 30
0.0
 40
0.8100000000000001
100
AcDbArc
 50
90.00000000000019
 51
270.0
  0
ARC
  5
A2
330
9E
100
AcDbEntity
  8
PART
100
AcDbCircle
 10
4.23
 20
0.0
 30
0.0
 40
0.5200000000000001
100
AcDbArc
 50
269.9999999999998
 51
89.99999999999982
  0
ENDBLK
  5
A4
330
9E
100
AcDbEntity
  8
0
100
AcDbBlockEnd
  0
BLOCK
  5
11D
330
A6
100
AcDbEntity
  8
0
100
AcDbBlockBegin
  2
WYE_TOP
 70
     0
 10
0.0
 20
0.0
 30
0.0
  3
WYE_TOP
  1

  0
LINE
  5
A7
330
A6
100
AcDbEntity
  8
PART
100
AcDbLine
 10
-11.78939073370259
 20
0.57644742891884
 30
0.0
 11
-7.559143796621313
 21
0.8655154726557725
 31
0.0
  0
LINE
  5
A8
330
A6
100
AcDbEntity
  8
PART
100
AcDbLine
 10
-11.81617647058823
 20
0.7470747450827844
 30
0.0
 11
-7.979767210976717
 21
1.086906905390918
 31
0.0
  0
ARC
  5
A9
330
A6
100
AcDbEntity
  8
PART
100
AcDbCircle
 10
-7.5
 20
0.0
 30
0.0
 40
0.8675338737394113
100
AcDbArc
 50
0.0
 51
93.90915043138752
  0
ARC
  5
AA
330
A6
100
AcDbEntity
  8
PART
100
AcDbCircle
 10
-7.5
 20
0.0
 30
0.0
 40
1.086723709707406
100
AcDbArc
 50
0.0
 51
95.06209296428417
  0
LINE
  5
AB
330
A6
100
AcDbEntity
  8
PART
100
AcDbLine
 10
-7.566529168584146
 20
0.8650108035295289
 30
0.0
 11
-7.594398439642375
 21
1.082615978005534
 31
0.0
  0
LINE
  5
AC
330
A6
100
AcDbEntity
  8
PART
100
AcDbLine
 10
-7.976389891245005
 20
1.048779905640174
 30
0.0
 11
-7.59588738615065
 21
1.082485117873432
 31
0.0
  0
LINE
  5
AD
330
A6
100
AcDbEntity
  8
PART
100
AcDbLine
 10
-7.976389891245005
 20
1.048779905640174
 30
0.0
 11
-7.979767210976717
 21
1.086906905390918
 31
0.0
  0
ARC
  5
AE
330
A6
100
AcDbEntity
  8
PART
100
AcDbCircle
 10
-11.75
 20
0.0
 30
0.0
 40
0.5777917169783109
100
AcDbArc
 50
93.90915043138752
 51
180.0
  0
LINE
  5
AF
330
A6
100
AcDbEntity
  8
PART
100
AcDbLine
 10
-11.79572202285536
 20
0.5759798302325834
 30
0.0
 11
-11.81617647058823
 21
0.7470747450827844
 31
0.0
  0
LINE
  5
B0
330
A6
100
AcDbEntity
  8
PART
100
AcDbLine
 10
-13.92342370805401
 20
0.1047263009072097
 30
0.0
 11
-13.75018227938066
 21
0.5807032143013018
 31
0.0
  0
ARC
  5
B1
330
A6
100
AcDbEntity
  8
PART
100
AcDbCircle
 10
-11.8095876796297
 20
0.0
 30
0.0
 40
0.75
100
AcDbArc
 50
95.06279770078442
 51
180.0
  0
ARC
  5
B2
330
A6
100
AcDbEntity
  8
PART
100
AcDbCircle
 10
-13.18157073215875
 20
0.0
 30
0.0
 40
0.4482233035828092
100
AcDbArc
 50
0.0
 51
70.38463833292578
  0
LINE
  5
B3
330
A6
100
AcDbEntity
  8
PART
100
AcDbLine
 10
-13.85834537791857
 20
0.2835275434501341
 30
0.0
 11
-13.85834537791857
 21
0.0
 31
0.0
  0
ARC
  5
B4
330
A6
100
AcDbEntity
  8
PART
100
AcDbCircle
 10
-11.92685328300168
 20
0.0
 30
0.0
 40
0.7373985475160918
100
AcDbArc
 50
128.5266323549954
 51
180.0
  0
LINE
  5
B5
330
A6
100
AcDbEntity
  8
PART
100
AcDbLine
 10
-13.92342370805401
 20
0.1047263009072097
 30
0.0
 11
-12.61860863668403
 21
3.689676246060344
 31
0.0
  0
LINE
  5
B6
330
A6
100
AcDbEntity
  8
PART
100
AcDbLine
 10
-13.92342370805401
 20
0.0
 30
0.0
 11
-13.92342370805401
 21
0.1047263009072097
 31
0.0
  0
LINE
  5
B7
330
A6
100
AcDbEntity
  8
PART
100
AcDbLine
 10
-9.349999997000004
 20
2.499999993750002
 30
0.0
 11
-8.25
 21
2.499999993750002
 31
0.0
  0
LINE
  5
B8
330
A6
100
AcDbEntity
  8
PART
100
AcDbLine
 10
-9.347656737311524
 20
0.9644599997873868
 30
0.0
 11
-8.25
 21
1.058844603234739
 31
0.0
  0
LINE
  5
B9
330
A6
100
AcDbEntity
  8
PART
100
AcDbLine
 10
-9.348770463207891
 20
0.9774122047976447
 30
0.0
 11
-8.25
 21
1.071892574592986
 31
0.0
  0
LINE
  5
BA
330
A6
100
AcDbEntity
  8
PART
100
AcDbLine
 10
-9.349999997000004
 20
2.499999993750002
 30
0.0
 11
-12.61860863668403
 21
3.689676246060344
 31
0.0
  0
LINE
  5
BB
330
A6
100
AcDbEntity
  8
PART
100
AcDbLine
 10
-11.87577333921159
 20
0.747073931057507
 30
0.0
 11
-9.347656737311524
 21
0.9644599997873868
 31
0.0
  0
LINE
  5
BC
330
A6
100
AcDbEntity
  8
PART
100
AcDbLine
 10
-11.88156383409851
 20
0.812434430677392
 30
0.0
 11
-9.349999997000004
 21
0.9917112112179111
 31
0.0
  0
LINE
  5
BD
330
A6
100
AcDbEntity
  8
PART
100
AcDbLine
 10
-12.81450674458133
 20
1.008500017363964
 30
0.0
 11
-13.5032377917426
 21
1.25917761794566
 31
0.0
  0
LINE
  5
BE
330
A6
100
AcDbEntity
  8
PART
100
AcDbLine
 10
-13.02826933362546
 20
0.4211921308410496
 30
0.0
 11
-12.81450674458133
 21
1.008500017363964
 31
0.0
  0
LINE
  5
BF
330
A6
100
AcDbEntity
  8
PART
100
AcDbLine
 10
-13.7178418090502
 20
0.6695579262687659
 30
0.0
 11
-13.02826933362546
 21
0.4211921308410496
 31
0.0
  0
ARC
  5
C0
330
A6
100
AcDbEntity
  8
PART
100
AcDbCircle
 10
-13.80891306817978
 20
0.6020794732591597
 30
0.0
 40
0.0625
100
AcDbArc
 50
340.0000000000002
 51
70.00000000000042
  0
ARC
  5
C1
330
A6
100
AcDbEntity
  8
PART
100
AcDbCircle
 10
-11.8095876796297
 20
0.0
 30
0.0
 40
0.8156164974804127
100
AcDbArc
 50
95.06279770078441
 51
134.9848251383175
  0
ARC
  5
C2
330
A6
100
AcDbEntity
  8
PART
100
AcDbCircle
 10
-13.18157073215875
 20
0.0
 30
0.0
 40
1.073223302020297
100
AcDbArc
 50
36.44610178265317
 51
70.00000000000011
  0
LINE
  5
C3
330
A6
100
AcDbEntity
  8
PART
100
AcDbLine
 10
-12.68410549263456
 20
3.509725113290997
 30
0.0
 11
-12.61860863668402
 21
3.689676246060344
 31
0.0
  0
ARC
  5
C4
330
A6
100
AcDbEntity
  8
PART
100
AcDbCircle
 10
-12.74283628143367
 20
3.531101372248841
 30
0.0
 40
0.0625
100
AcDbArc
 50
249.9999999999997
 51
340.0
  0
LINE
  5
C5
330
A6
100
AcDbEntity
  8
PART
100
AcDbLine
 10
-9.349999997000004
 20
2.499736322215873
 30
0.0
 11
-9.349999997000004
 21
0.9917112112179111
 31
0.0
  0
LINE
  5
C6
330
A6
100
AcDbEntity
  8
PART
100
AcDbLine
 10
-9.507170757396181
 20
2.307507348749581
 30
0.0
 11
-9.703942207377643
 21
2.078468384700627
 31
0.0
  0
LINE
  5
C7
330
A6
100
AcDbEntity
  8
PART
100
AcDbLine
 10
-9.976965329954154
 20
1.779427327176811
 30
0.0
 11
-10.65093119877367
 21
1.202911544075142
 31
0.0
  0
LINE
  5
C8
330
A6
100
AcDbEntity
  8
PART
100
AcDbLine
 10
-11.04649821974304
 20
1.008000000000002
 30
0.0
 11
-10.65093119877366
 21
1.202911544075142
 31
0.0
  0
LINE
  5
C9
330
A6
100
AcDbEntity
  8
PART
100
AcDbLine
 10
-11.27636402269924
 20
0.8559162469348393
 30
0.0
 11
-11.04649821974304
 21
1.008000000000002
 31
0.0
  0
LINE
  5
CA
330
A6
100
AcDbEntity
  8
PART
100
AcDbLine
 10
-9.703942207377643
 20
2.078468384700627
 30
0.0
 11
-9.976965329954154
 21
1.779427327176811
 31
0.0
  0
LINE
  5
CB
330
A6
100
AcDbEntity
  8
PART
100
AcDbLine
 10
-9.390141011994714
 20
2.450851510111291
 30
0.0
 11
-9.507170757396181
 21
2.307507348749581
 31
0.0
  0
LINE
  5
CC
330
A6
100
AcDbEntity
  8
PART
100
AcDbLine
 10
-8.25
 20
1.062969471643512
 30
0.0
 11
-8.25
 21
2.499999993750002
 31
0.0
  0
INSERT
  5
CD
330
A6
100
AcDbEntity
  8
PART
100
AcDbBlockReference
  2
COPU
 10
-13.22115660639822
 20
2.183700694458607
 30
0.0
 41
-1.0
 50
140.0000000000002
  0
INSERT
  5
CE
330
A6
100
AcDbEntity
  8
PART
100
AcDbBlockReference
  2
COPU
 10
-13.22115660639822
 20
-2.183700694458607
 30
0.0
 50
39.99999999999978
  0
LINE
  5
CF
330
A6
100
AcDbEntity
  8
PART
100
AcDbLine
 10
-11.81617647058823
 20
-0.7470747450827844
 30
0.0
 11
-7.979767210976717
 21
-1.086906905390918
 31
0.0
  0
LINE
  5
D0
330
A6
100
AcDbEntity
  8
PART
100
AcDbLine
 10
-11.78939073370259
 20
-0.57644742891884
 30
0.0
 11
-7.559143796621313
 21
-0.8655154726557725
 31
0.0
  0
ARC
  5
D1
330
A6
100
AcDbEntity
  8
PART
100
AcDbCircle
 10
-13.18157073215875
 20
0.0
 30
0.0
 40
0.4482233035828092
100
AcDbArc
 50
289.6153616670742
 51
0.0
  0
ARC
  5
D2
330
A6
100
AcDbEntity
  8
PART
100
AcDbCircle
 10
-11.75
 20
0.0
 30
0.0
 40
0.5777917169783109
100
AcDbArc
 50
180.0
 51
266.0908495686125
  0
ARC
  5
D3
330
A6
100
AcDbEntity
  8
PART
100
AcDbCircle
 10
-11.8095876796297
 20
0.0
 30
0.0
 40
0.75
100
AcDbArc
 50
180.0
 51
264.9372022992156
  0
LINE
  5
D4
330
A6
100
AcDbEntity
  8
PART
100
AcDbLine
 10
-13.7178418090502
 20
-0.6695579262687659
 30
0.0
 11
-13.02826933362546
 21
-0.4211921308410496
 31
0.0
  0
LINE
  5
D5
330
A6
100
AcDbEntity
  8
PART
100
AcDbLine
 10
-13.02826933362546
 20
-0.4211921308410496
 30
0.0
 11
-12.81450674458133
 21
-1.008500017363964
 31
0.0
  0
LINE
  5
D6
330
A6
100
AcDbEntity
  8
PART
100
AcDbLine
 10
-13.92342370805401
 20
-0.1047263009072097
 30
0.0
 11
-12.61860863668403
 21
-3.689676246060344
 31
0.0
  0
ARC
  5
D7
330
A6
100
AcDbEntity
  8
PART
100
AcDbCircle
 10
-11.92685328300168
 20
0.0
 30
0.0
 40
0.7373985475160918
100
AcDbArc
 50
179.9999999999999
 51
231.4733676450046
  0
LINE
  5
D8
330
A6
100
AcDbEntity
  8
PART
100
AcDbLine
 10
-13.92342370805401
 20
-0.1047263009072097
 30
0.0
 11
-13.75018227938066
 21
-0.5807032143013018
 31
0.0
  0
LINE
  5
D9
330
A6
100
AcDbEntity
  8
PART
100
AcDbLine
 10
-13.92342370805401
 20
0.0
 30
0.0
 11
-13.92342370805401
 21
-0.1047263009072097
 31
0.0
  0
LINE
  5
DA
330
A6
100
AcDbEntity
  8
PART
100
AcDbLine
 10
-13.85834537791857
 20
-0.2835275434501341
 30
0.0
 11
-13.85834537791857
 21
0.0
 31
0.0
  0
LINE
  5
DB
330
A6
100
AcDbEntity
  8
PART
100
AcDbLine
 10
-11.27636402269924
 20
-0.8559162469348393
 30
0.0
 11
-11.04649821974304
 21
-1.008000000000002
 31
0.0
  0
LINE
  5
DC
330
A6
100
AcDbEntity
  8
PART
100
AcDbLine
 10
-11.88156383409851
 20
-0.812434430677392
 30
0.0
 11
-9.349999997000004
 21
-0.9917112112179111
 31
0.0
  0
LINE
  5
DD
330
A6
100
AcDbEntity
  8
PART
100
AcDbLine
 10
-11.87577333921159
 20
-0.747073931057507
 30
0.0
 11
-9.347656737311524
 21
-0.9644599997873868
 31
0.0
  0
LINE
  5
DE
330
A6
100
AcDbEntity
  8
PART
100
AcDbLine
 10
-9.349999997000004
 20
-2.499999993750002
 30
0.0
 11
-12.61860863668403
 21
-3.689676246060344
 31
0.0
  0
LINE
  5
DF
330
A6
100
AcDbEntity
  8
PART
100
AcDbLine
 10
-12.81450674458133
 20
-1.008500017363964
 30
0.0
 11
-13.5032377917426
 21
-1.25917761794566
 31
0.0
  0
ARC
  5
E0
330
A6
100
AcDbEntity
  8
PART
100
AcDbCircle
 10
-13.80891306817978
 20
-0.6020794732591597
 30
0.0
 40
0.0625
100
AcDbArc
 50
289.9999999999995
 51
19.9999999999998
  0
ARC
  5
E1
330
A6
100
AcDbEntity
  8
PART
100
AcDbCircle
 10
-11.8095876796297
 20
0.0
 30
0.0
 40
0.8156164974804127
100
AcDbArc
 50
225.0151748616825
 51
264.9372022992156
  0
ARC
  5
E2
330
A6
100
AcDbEntity
  8
PART
100
AcDbCircle
 10
-13.18157073215875
 20
0.0
 30
0.0
 40
1.073223302020297
100
AcDbArc
 50
289.9999999999999
 51
323.5538982173468
  0
LINE
  5
E3
330
A6
100
AcDbEntity
  8
PART
100
AcDbLine
 10
-11.79572202285536
 20
-0.5759798302325834
 30
0.0
 11
-11.81617647058823
 21
-0.7470747450827844
 31
0.0
  0
ARC
  5
E4
330
A6
100
AcDbEntity
  8
PART
100
AcDbCircle
 10
-12.74283628143367
 20
-3.531101372248841
 30
0.0
 40
0.0625
100
AcDbArc
 50
19.99999999999995
 51
110.0000000000003
  0
LINE
  5
E5
330
A6
100
AcDbEntity
  8
PART
100
AcDbLine
 10
-12.68410549263456
 20
-3.509725113290997
 30
0.0
 11
-12.61860863668402
 21
-3.689676246060344
 31
0.0
  0
LINE
  5
E6
330
A6
100
AcDbEntity
  8
PART
100
AcDbLine
 10
-8.25
 20
-1.062969471643512
 30
0.0
 11
-8.25
 21
-2.499999993750002
 31
0.0
  0
LINE
  5
E7
330
A6
100
AcDbEntity
  8
PART
100
AcDbLine
 10
-9.390141011994714
 20
-2.450851510111291
 30
0.0
 11
-9.507170757396181
 21
-2.307507348749581
 31
0.0
  0
LINE
  5
E8
330
A6
100
AcDbEntity
  8
PART
100
AcDbLine
 10
-9.349999997000004
 20
-2.499736322215873
 30
0.0
 11
-9.349999997000004
 21
-0.9917112112179111
 31
0.0
  0
LINE
  5
E9
330
A6
100
AcDbEntity
  8
PART
100
AcDbLine
 10
-9.507170757396181
 20
-2.307507348749581
 30
0.0
 11
-9.703942207377643
 21
-2.078468384700627
 31
0.0
  0
LINE
  5
EA
330
A6
100
AcDbEntity
  8
PART
100
AcDbLine
 10
-9.976965329954154
 20
-1.779427327176811
 30
0.0
 11
-10.65093119877367
 21
-1.202911544075142
 31
0.0
  0
LINE
  5
EB
330
A6
100
AcDbEntity
  8
PART
100
AcDbLine
 10
-11.04649821974304
 20
-1.008000000000002
 30
0.0
 11
-10.65093119877366
 21
-1.202911544075142
 31
0.0
  0
LINE
  5
EC
330
A6
100
AcDbEntity
  8
PART
100
AcDbLine
 10
-9.703942207377643
 20
-2.078468384700627
 30
0.0
 11
-9.976965329954154
 21
-1.779427327176811
 31
0.0
  0
LINE
  5
ED
330
A6
100
AcDbEntity
  8
PART
100
AcDbLine
 10
-9.348770463207891
 20
-0.9774122047976447
 30
0.0
 11
-8.25
 21
-1.071892574592986
 31
0.0
  0
LINE
  5
EE
330
A6
100
AcDbEntity
  8
PART
100
AcDbLine
 10
-9.347656737311524
 20
-0.9644599997873868
 30
0.0
 11
-8.25
 21
-1.058844603234739
 31
0.0
  0
LINE
  5
EF
330
A6
100
AcDbEntity
  8
PART
100
AcDbLine
 10
-9.349999997000004
 20
-2.499999993750002
 30
0.0
 11
-8.25
 21
-2.499999993750002
 31
0.0
  0
ARC
  5
F0
330
A6
100
AcDbEntity
  8
PART
100
AcDbCircle
 10
-7.5
 20
0.0
 30
0.0
 40
0.8675338737394113
100
AcDbArc
 50
266.0908495686125
 51
0.0
  0
ARC
  5
F1
330
A6
100
AcDbEntity
  8
PART
100
AcDbCircle
 10
-7.5
 20
0.0
 30
0.0
 40
1.086723709707406
100
AcDbArc
 50
264.9379070357158
 51
0.0
  0
LINE
  5
F2
330
A6
100
AcDbEntity
  8
PART
100
AcDbLine
 10
-7.976389891245005
 20
-1.048779905640174
 30
0.0
 11
-7.979767210976717
 21
-1.086906905390918
 31
0.0
  0
LINE
  5
F3
330
A6
100
AcDbEntity
  8
PART
100
AcDbLine
 10
-7.976389891245005
 20
-1.048779905640174
 30
0.0
 11
-7.59588738615065
 21
-1.082485117873432
 31
0.0
  0
LINE
  5
F4
330
A6
100
AcDbEntity
  8
PART
100
AcDbLine
 10
-7.566529168584146
 20
-0.8650108035295289
 30
0.0
 11
-7.594398439642375
 21
-1.082615978005534
 31
0.0
  0
INSERT
  5
F5
330
A6
100
AcDbEntity
  8
DIM
100
AcDbBlockReference
  2
V
 10
-7.5
 20
0.0
 30
0.0
 50
180.0
  0
CIRCLE
  5
F6
330
A6
100
AcDbEntity
  8
DIM
100
AcDbCircle
 10
-11.70823044258031
 20
-0.2483600229666223
 30
0.0
 40
0.1634146817232178
  0
TEXT
  5
F7
330
A6
100
AcDbEntity
  8
DIM
100
AcDbText
 10
-11.8262449393525
 20
-0.3708453291457374
 30
0.0
 40
0.2404204446679756
  1
6
 50
0.0033621384163948
  7
ROMANC
100
AcDbText
  0
LINE
  5
F8
330
A6
100
AcDbEntity
  8
DIM
100
AcDbLine
 10
-11.64389184616132
 20
0.1522788485851478
 30
0.0
 11
-11.51962358668617
 21
0.1522861406944997
 31
0.0
  0
LINE
  5
F9
330
A6
100
AcDbEntity
  8
DIM
100
AcDbLine
 10
-11.51962358668617
 20
0.1522861406944997
 30
0.0
 11
-11.64390689556229
 21
0.4087427570260047
 31
0.0
  0
TEXT
  5
FA
330
A6
100
AcDbEntity
  8
DIM
100
AcDbText
 10
-11.4527806573497
 20
0.1005359517940505
 30
0.0
 40
0.0761284529390738
  1
  FLOW OF WATER TO THE MONITOR.
 50
0.0033621384163948
100
AcDbText
  0
TEXT
  5
FB
330
A6
100
AcDbEntity
  8
DIM
100
AcDbText
 10
-11.45278831548733
 20
0.2310418708934847
 30
0.0
 40
0.0761284529390738
  1
1) MANUALLY REDUCE OR REMOVE THE
 50
0.0033621384163948
100
AcDbText
  0
TEXT
  5
FC
330
A6
100
AcDbEntity
  8
DIM
100
AcDbText
 10
-11.45277299921208
 20
-0.0299699673053837
 30
0.0
 40
0.0761284529390738
  1
2) CORRECT CAUSE OF TRIPPED VALVE.
 50
0.0033621384163948
100
AcDbText
  0
TEXT
  5
FD
330
A6
100
AcDbEntity
  8
DIM
100
AcDbText
 10
-11.45276534107447
 20
-0.160475886404825
 30
0.0
 40
0.0761284529390738
  1
3) ROTATE LEVER IN DIRECTION OF ARROW
 50
0.0033621384163948
100
AcDbText
  0
TEXT
  5
FE
330
A6
100
AcDbEntity
  8
DIM
100
AcDbText
 10
-11.45275002479922
 20
-0.4214877246036935
 30
0.0
 40
0.0761284529390738
  1
4) SLOWLY REOPEN FLOW TO MONITOR.
 50
0.0033621384163948
100
AcDbText
  0
LINE
  5
FF
330
A6
100
AcDbEntity
  8
DIM
100
AcDbLine
 10
-8.77096125095506
 20
0.5927526984488765
 30
0.0
 11
-8.770892207070964
 21
-0.5838565500922073
 31
0.0
  0
TEXT
  5
100
330
A6
100
AcDbEntity
  8
DIM
100
AcDbText
 10
-11.45275768293685
 20
-0.2909818055042592
 30
0.0
 40
0.0761284529390738
  1
  UNTIL IT LOCKS IN PLACE.
 50
0.0033621384163948
100
AcDbText
  0
ARC
  5
101
330
A6
100
AcDbEntity
  8
DIM
100
AcDbCircle
 10
-11.86168264928489
 20
0.1979309179845003
 30
0.0
 40
0.1291527767222237
100
AcDbArc
 50
100.8216328447783
 51
184.269583378002
  0
ARC
  5
102
330
A6
100
AcDbEntity
  8
DIM
100
AcDbCircle
 10
-11.88661409897995
 20
0.1177423349354498
 30
0.0
 40
0.2070456882749569
100
AcDbArc
 50
89.81106642938273
 51
160.0723923839704
  0
LINE
  5
103
330
A6
100
AcDbEntity
  8
DIM
100
AcDbLine
 10
-11.76816010563647
 20
0.1522715564757959
 30
0.0
 11
-11.64390689556229
 21
0.4087427570260047
 31
0.0
  0
TEXT
  5
104
330
A6
100
AcDbEntity
  8
DIM
100
AcDbText
 10
-11.65217780973516
 20
0.1770974058787473
 30
0.0
 40
0.1571875626172062
  1
!
 50
0.0033621384163948
100
AcDbText
  0
LINE
  5
105
330
A6
100
AcDbEntity
  8
DIM
100
AcDbLine
 10
-11.92691432083289
 20
-0.0248838282481572
 30
0.0
 11
-12.03584483938598
 21
-0.2380932584056481
 31
0.0
  0
LINE
  5
106
330
A6
100
AcDbEntity
  8
DIM
100
AcDbLine
 10
-12.14480037961184
 20
-0.0248966138860425
 30
0.0
 11
-12.03584483938598
 21
-0.2380932584056481
 31
0.0
  0
LINE
  5
107
330
A6
100
AcDbEntity
  8
DIM
100
AcDbLine
 10
-11.99047700083112
 20
0.1883155789449731
 30
0.0
 11
-11.99046448998892
 21
-0.0248875573965677
 31
0.0
  0
LINE
  5
108
330
A6
100
AcDbEntity
  8
DIM
100
AcDbLine
 10
-11.99046448998892
 20
-0.0248875573965677
 30
0.0
 11
-11.92691432083289
 21
-0.0248838282481572
 31
0.0
  0
LINE
  5
109
330
A6
100
AcDbEntity
  8
DIM
100
AcDbLine
 10
-12.08125021045581
 20
-0.0248928847376391
 30
0.0
 11
-12.14480037961184
 21
-0.0248966138860425
 31
0.0
  0
LINE
  5
10A
330
A6
100
AcDbEntity
  8
DIM
100
AcDbLine
 10
-12.08126272129802
 20
0.1883102516039088
 30
0.0
 11
-12.08125021045581
 21
-0.0248928847376391
 31
0.0
  0
LINE
  5
10B
330
A6
100
AcDbEntity
  8
DIM
100
AcDbLine
 10
-11.64389184616132
 20
0.1522788485851478
 30
0.0
 11
-11.76816010563647
 21
0.1522715564757959
 31
0.0
  0
TEXT
  5
10C
330
A6
100
AcDbEntity
  8
DIM
100
AcDbText
 10
-11.45279597362496
 20
0.3615477899929189
 30
0.0
 40
0.0761284529390738
  1
TO RESET:
 50
0.0033621384163948
100
AcDbText
  0
LINE
  5
10D
330
A6
100
AcDbEntity
  8
DIM
100
AcDbLine
 10
-8.52991697353007
 20
0.3353830190044462
 30
0.0
 11
-7.195184661043725
 21
0.3354613416108734
 31
0.0
  0
TEXT
  5
10E
330
A6
100
AcDbEntity
  8
DIM
100
AcDbText
 10
-8.474689260594921
 20
0.3813475153261692
 30
0.0
 40
0.2114219283275815
  1
DANGER
 50
0.0033621384163948
100
AcDbText
  0
LINE
  5
10F
330
A6
100
AcDbEntity
  8
DIM
100
AcDbLine
 10
-8.378012167840914
 20
-0.03137920045031
 30
0.0
 11
-8.502295476717037
 21
0.2250774158811808
 31
0.0
  0
LINE
  5
110
330
A6
100
AcDbEntity
  8
DIM
100
AcDbLine
 10
-8.62654868679121
 20
-0.0313937846690138
 30
0.0
 11
-8.502295476717037
 21
0.2250774158811808
 31
0.0
  0
LINE
  5
111
330
A6
100
AcDbEntity
  8
DIM
100
AcDbLine
 10
-8.502280427316058
 20
-0.031386492559669
 30
0.0
 11
-8.62654868679121
 21
-0.0313937846690138
 31
0.0
  0
TEXT
  5
112
330
A6
100
AcDbEntity
  8
DIM
100
AcDbText
 10
-8.510566390889898
 20
-0.0065679352660766
 30
0.0
 40
0.1571875626172062
  1
!
 50
0.0033621384163948
100
AcDbText
  0
LINE
  5
113
330
A6
100
AcDbEntity
  8
DIM
100
AcDbLine
 10
-8.529934234498284
 20
0.6295352832598269
 30
0.0
 11
-8.52991697353007
 21
0.3353830190044462
 31
0.0
  0
TEXT
  5
114
330
A6
100
AcDbEntity
  8
DIM
100
AcDbText
 10
-7.936744347050071
 20
-0.049916040506244
 30
0.0
 40
0.08
  1
OVERRIDING,
 50
0.0033621384163948
 72
     2
 11
-7.23198244350155
 21
-0.04987468480617
 31
0.0
100
AcDbText
  0
TEXT
  5
115
330
A6
100
AcDbEntity
  8
DIM
100
AcDbText
 10
-8.172942870429592
 20
0.087212956652365
 30
0.0
 40
0.08
  1
DISCONNECTING,
 50
0.0033621384163948
 72
     2
 11
-7.231990491097242
 21
0.0872681721005719
 31
0.0
100
AcDbText
  0
TEXT
  5
116
330
A6
100
AcDbEntity
  8
DIM
100
AcDbText
 10
-8.454831536657614
 20
-0.1870892994411484
 30
0.0
 40
0.08
  1
OR TAMPERING WITH
 50
0.0033621384163948
 72
     2
 11
-7.231974395905858
 21
-0.1870175417129118
 31
0.0
100
AcDbText
  0
TEXT
  5
117
330
A6
100
AcDbEntity
  8
DIM
100
AcDbText
 10
-8.465842399636384
 20
-0.330726857770616
 30
0.0
 40
0.08
  1
THIS SAFETY DEVICE
 50
0.0033621384163948
 72
     2
 11
-7.227747163672766
 21
-0.3306542058650805
 31
0.0
100
AcDbText
  0
TEXT
  5
118
330
A6
100
AcDbEntity
  8
DIM
100
AcDbText
 10
-8.159294060930614
 20
-0.467740408021867
 30
0.0
 40
0.08
  1
MAY RESULT IN
 50
0.0033621384163948
 72
     2
 11
-7.233579776810124
 21
-0.4676860867509589
 31
0.0
100
AcDbText
  0
TEXT
  5
119
330
A6
100
AcDbEntity
  8
DIM
100
AcDbText
 10
-8.336015676790053
 20
-0.598288070178104
 30
0.0
 40
0.08
  1
PERSONAL INJURY.
 50
0.0033621384163948
 72
     2
 11
-7.216015678718349
 21
-0.5982223481466349
 31
0.0
100
AcDbText
  0
LINE
  5
11A
330
A6
100
AcDbEntity
  8
DIM
100
AcDbLine
 10
-8.502280427316058
 20
-0.031386492559669
 30
0.0
 11
-8.378012167840914
 21
-0.03137920045031
 31
0.0
  0
LINE
  5
11B
330
A6
100
AcDbEntity
  8
DIM
100
AcDbLine
 10
-7.195201922011939
 20
0.629613605866247
 30
0.0
 11
-8.529934234498284
 21
0.6295352832598269
 31
0.0
  0
LINE
  5
11C
330
A6
100
AcDbEntity
  8
DIM
100
AcDbLine
 10
-7.195201922011939
 20
0.629613605866247
 30
0.0
 11
-7.195184661043725
 21
0.3354613416108734
 31
0.0
  0
ENDBLK
  5
11E
330
A6
100
AcDbEntity
  8
0
100
AcDbBlockEnd
  0
BLOCK
  5
1F6
330
19C
100
AcDbEntity
  8
0
100
AcDbBlockBegin
  2
X712-TOP
 70
     0
 10
0.0
 20
0.0
 30
0.0
  3
X712-TOP
  1

  0
LINE
  5
19D
330
19C
100
AcDbEntity
  8
PART
100
AcDbLine
 10
-6.307356875098463
 20
-0.9485818963977443
 30
0.0
 11
-5.288136847987971
 21
-3.74886590633978
 31
0.0
  0
LINE
  5
19E
330
19C
100
AcDbEntity
  8
PART
100
AcDbLine
 10
-1.166525666533495
 20
-2.491554574638098
 30
0.0
 11
-4.458337904525265
 21
-3.689676246060326
 31
0.0
  0
ARC
  5
19F
330
19C
100
AcDbEntity
  8
PART
100
AcDbCircle
 10
-5.282160123213365
 20
-3.736048778698663
 30
0.0
 40
0.01
100
AcDbArc
 50
199.9999999999996
 51
289.9999999999995
  0
LINE
  5
1A0
330
19C
100
AcDbEntity
  8
PART
100
AcDbLine
 10
-5.288136847987971
 20
-3.74886590633978
 30
0.0
 11
-5.038836395693472
 21
-3.658127962315472
 31
0.0
  0
LINE
  5
1A1
330
19C
100
AcDbEntity
  8
PART
100
AcDbLine
 10
-5.038836395693472
 20
-3.658127962315479
 30
0.0
 11
-5.032845468938994
 21
-3.645280378430229
 31
0.0
  0
ARC
  5
1A2
330
19C
100
AcDbEntity
  8
PART
100
AcDbCircle
 10
-4.943529984947133
 20
-3.616788154591084
 30
0.0
 40
0.09375
100
AcDbArc
 50
109.9999999999994
 51
197.6930231651629
  0
LINE
  5
1A3
330
19C
100
AcDbEntity
  8
PART
100
AcDbLine
 10
-4.975594373383906
 20
-3.528691971392412
 30
0.0
 11
-4.963799142859677
 21
-3.524398858575274
 31
0.0
  0
ARC
  5
1A4
330
19C
100
AcDbEntity
  8
PART
100
AcDbCircle
 10
-4.93173475442289
 20
-3.612495041773961
 30
0.0
 40
0.09375
100
AcDbArc
 50
22.34026985859012
 51
109.9999999999974
  0
LINE
  5
1A5
330
19C
100
AcDbEntity
  8
PART
100
AcDbLine
 10
-4.845021367644321
 20
-3.576860072244151
 30
0.0
 11
-4.832104019120563
 21
-3.582883530783838
 31
0.0
  0
LINE
  5
1A6
330
19C
100
AcDbEntity
  8
PART
100
AcDbLine
 10
-4.595113540158358
 20
-3.496626050637097
 30
0.0
 11
-4.832104019120571
 21
-3.582883530783824
 31
0.0
  0
ARC
  5
1A7
330
19C
100
AcDbEntity
  8
PART
100
AcDbCircle
 10
-4.573737281200514
 20
-3.555356839436214
 30
0.0
 40
0.0625
100
AcDbArc
 50
19.99999999999969
 51
110.0
  0
LINE
  5
1A8
330
19C
100
AcDbEntity
  8
PART
100
AcDbLine
 10
-4.458337904525265
 20
-3.689676246060326
 30
0.0
 11
-4.515006492401397
 21
-3.53398058047836
 31
0.0
  0
LINE
  5
1A9
330
19C
100
AcDbEntity
  8
PART
100
AcDbLine
 10
-5.381102071320498
 20
3.493446054439083
 30
0.0
 11
-6.307356875098456
 21
0.9485818963977514
 31
0.0
  0
ARC
  5
1AA
330
19C
100
AcDbEntity
  8
PART
100
AcDbCircle
 10
-5.639130027659966
 20
-0.628214325688095
 30
0.0
 40
0.0625
100
AcDbArc
 50
289.9999999999995
 51
19.99999999999951
  0
LINE
  5
1AB
330
19C
100
AcDbEntity
  8
PART
100
AcDbLine
 10
-5.617753768702108
 20
-0.6869451144872052
 30
0.0
 11
-5.854744247664314
 21
-0.773202594633947
 31
0.0
  0
LINE
  5
1AC
330
19C
100
AcDbEntity
  8
PART
100
AcDbLine
 10
-5.860767706204004
 20
-0.78611994315769
 30
0.0
 11
-5.854744247664321
 21
-0.7732025946339327
 31
0.0
  0
ARC
  5
1AD
330
19C
100
AcDbEntity
  8
PART
100
AcDbCircle
 10
-5.950099731175072
 20
-0.8145602633838855
 30
0.0
 40
0.09375
100
AcDbArc
 50
290.0000000000021
 51
17.65973014140916
  0
LINE
  5
1AE
330
19C
100
AcDbEntity
  8
PART
100
AcDbLine
 10
-5.929830573262524
 20
-0.9069495593996954
 30
0.0
 11
-5.918035342738289
 21
-0.9026564465825721
 31
0.0
  0
ARC
  5
1AF
330
19C
100
AcDbEntity
  8
PART
100
AcDbCircle
 10
-5.961894961699307
 20
-0.818853376201023
 30
0.0
 40
0.09375
100
AcDbArc
 50
202.3069768348367
 51
290.0000000000002
  0
LINE
  5
1B0
330
19C
100
AcDbEntity
  8
PART
100
AcDbLine
 10
-6.061476624237222
 20
-0.8484470261655907
 30
0.0
 11
-6.048629040351972
 21
-0.8544379529200689
 31
0.0
  0
LINE
  5
1B1
330
19C
100
AcDbEntity
  8
PART
100
AcDbLine
 10
-6.301380150323858
 20
-0.9357647687566306
 30
0.0
 11
-6.061476624237215
 21
-0.8484470261655907
 31
0.0
  0
ARC
  5
1B2
330
19C
100
AcDbEntity
  8
PART
100
AcDbCircle
 10
-6.297959948890603
 20
-0.9451616949644865
 30
0.0
 40
0.01
100
AcDbArc
 50
110.0
 51
199.9999999999999
  0
LINE
  5
1B3
330
19C
100
AcDbEntity
  8
PART
100
AcDbLine
 10
-5.617753768702105
 20
0.6869451144872088
 30
0.0
 11
-5.85474424766431
 21
0.7732025946339363
 31
0.0
  0
ARC
  5
1B4
330
19C
100
AcDbEntity
  8
PART
100
AcDbCircle
 10
-5.639130027659962
 20
0.6282143256880844
 30
0.0
 40
0.0625
100
AcDbArc
 50
339.9999999999994
 51
70.00000000000042
  0
LINE
  5
1B5
330
19C
100
AcDbEntity
  8
PART
100
AcDbLine
 10
-5.763152975895263
 20
0.1047263009072168
 30
0.0
 11
-5.580399238860845
 21
0.60683806673023
 31
0.0
  0
LINE
  5
1B6
330
19C
100
AcDbEntity
  8
PART
100
AcDbLine
 10
-5.763152975895263
 20
-0.1047263009072168
 30
0.0
 11
-5.763152975895263
 21
0.1047263009072168
 31
0.0
  0
LINE
  5
1B7
330
19C
100
AcDbEntity
  8
PART
100
AcDbLine
 10
-5.763152975895263
 20
-0.1047263009072168
 30
0.0
 11
-5.580399238860842
 21
-0.6068380667302371
 31
0.0
  0
LINE
  5
1B8
330
19C
100
AcDbEntity
  8
PART
100
AcDbLine
 10
-6.301380150323854
 20
0.9357647687566341
 30
0.0
 11
-6.061476624237212
 21
0.8484470261655943
 31
0.0
  0
LINE
  5
1B9
330
19C
100
AcDbEntity
  8
PART
100
AcDbLine
 10
-6.061476624237219
 20
0.8484470261655943
 30
0.0
 11
-6.048629040351968
 21
0.8544379529200725
 31
0.0
  0
ARC
  5
1BA
330
19C
100
AcDbEntity
  8
PART
100
AcDbCircle
 10
-5.961894961699304
 20
0.8188533762010266
 30
0.0
 40
0.09375
100
AcDbArc
 50
69.99999999999982
 51
157.6930231651636
  0
LINE
  5
1BB
330
19C
100
AcDbEntity
  8
PART
100
AcDbLine
 10
-5.92983057326252
 20
0.9069495593997061
 30
0.0
 11
-5.918035342738285
 21
0.9026564465825686
 31
0.0
  0
ARC
  5
1BC
330
19C
100
AcDbEntity
  8
PART
100
AcDbCircle
 10
-5.950099731175068
 20
0.8145602633839033
 30
0.0
 40
0.09375
100
AcDbArc
 50
342.3402698585908
 51
69.99999999999788
  0
LINE
  5
1BD
330
19C
100
AcDbEntity
  8
PART
100
AcDbLine
 10
-5.860767706204001
 20
0.7861199431577078
 30
0.0
 11
-5.854744247664317
 21
0.7732025946339505
 31
0.0
  0
ARC
  5
1BE
330
19C
100
AcDbEntity
  8
PART
100
AcDbCircle
 10
-6.297959948890596
 20
0.9451616949644936
 30
0.0
 40
0.01
100
AcDbArc
 50
160.0000000000001
 51
250.0
  0
LINE
  5
1BF
330
19C
100
AcDbEntity
  8
PART
100
AcDbLine
 10
-1.189729264841261
 20
-2.499999993749995
 30
0.0
 11
0.0
 21
-2.499999993749991
 31
0.0
  0
LINE
  5
1C0
330
19C
100
AcDbEntity
  8
PART
100
AcDbLine
 10
-1.16652566653348
 20
2.491554574638092
 30
0.0
 11
-4.458337904525286
 21
3.689676246060336
 31
0.0
  0
LINE
  5
1C1
330
19C
100
AcDbEntity
  8
PART
100
AcDbLine
 10
-4.51500649240139
 20
3.533980580478349
 30
0.0
 11
-4.458337904525279
 21
3.689676246060351
 31
0.0
  0
ARC
  5
1C2
330
19C
100
AcDbEntity
  8
PART
100
AcDbCircle
 10
-4.573737281200493
 20
3.5553568394362
 30
0.0
 40
0.0625
100
AcDbArc
 50
249.9999999999995
 51
339.9999999999998
  0
LINE
  5
1C3
330
19C
100
AcDbEntity
  8
PART
100
AcDbLine
 10
-4.595113540158351
 20
3.496626050637075
 30
0.0
 11
-4.832104019120549
 21
3.582883530783817
 31
0.0
  0
LINE
  5
1C4
330
19C
100
AcDbEntity
  8
PART
100
AcDbLine
 10
-4.845021367644321
 20
3.576860072244123
 30
0.0
 11
-4.832104019120563
 21
3.58288353078381
 31
0.0
  0
ARC
  5
1C5
330
19C
100
AcDbEntity
  8
PART
100
AcDbCircle
 10
-4.93173475442289
 20
3.612495041773932
 30
0.0
 40
0.09375
100
AcDbArc
 50
250.000000000002
 51
337.6597301414093
  0
LINE
  5
1C6
330
19C
100
AcDbEntity
  8
PART
100
AcDbLine
 10
-4.975594373383898
 20
3.52869197139239
 30
0.0
 11
-4.963799142859663
 21
3.52439885857526
 31
0.0
  0
ARC
  5
1C7
330
19C
100
AcDbEntity
  8
PART
100
AcDbCircle
 10
-4.943529984947119
 20
3.61678815459107
 30
0.0
 40
0.09375
100
AcDbArc
 50
162.3069768348362
 51
250.0000000000001
  0
LINE
  5
1C8
330
19C
100
AcDbEntity
  8
PART
100
AcDbLine
 10
-5.038836395693465
 20
3.658127962315461
 30
0.0
 11
-5.032845468938987
 21
3.645280378430214
 31
0.0
  0
LINE
  5
1C9
330
19C
100
AcDbEntity
  8
PART
100
AcDbLine
 10
-5.288136847987971
 20
3.748865906339766
 30
0.0
 11
-5.038836395693458
 21
3.658127962315454
 31
0.0
  0
LINE
  5
1CA
330
19C
100
AcDbEntity
  8
PART
100
AcDbLine
 10
-5.288136847987971
 20
3.748865906339766
 30
0.0
 11
-5.381102071320498
 21
3.493446054439083
 31
0.0
  0
LINE
  5
1CB
330
19C
100
AcDbEntity
  8
PART
100
AcDbLine
 10
-1.189729264841261
 20
2.499999993749995
 30
0.0
 11
0.0
 21
2.499999993749995
 31
0.0
  0
LINE
  5
1CC
330
19C
100
AcDbEntity
  8
PART
100
AcDbLine
 10
0.0
 20
-2.499999993749991
 30
0.0
 11
0.0
 21
2.499999993749995
 31
0.0
  0
LINE
  5
1CD
330
19C
100
AcDbEntity
  8
PART
100
AcDbLine
 10
-6.071557590731725
 20
-0.8499878423572901
 30
0.0
 11
-5.048233321901328
 21
-3.661548163748733
 31
0.0
  0
LINE
  5
1CE
330
19C
100
AcDbEntity
  8
PART
100
AcDbLine
 10
-5.864825214158823
 20
-0.7747434108256428
 30
0.0
 11
-4.841500945328427
 21
-3.586303732217086
 31
0.0
  0
LINE
  5
1CF
330
19C
100
AcDbEntity
  8
PART
100
AcDbLine
 10
-5.590480205355355
 20
-0.6083788829219366
 30
0.0
 11
-4.458906562658722
 21
-3.717351914680968
 31
0.0
  0
LINE
  5
1D0
330
19C
100
AcDbEntity
  8
PART
100
AcDbLine
 10
-6.058740463090607
 20
0.8559645671318829
 30
0.0
 11
-5.035416194260211
 21
3.667524888523326
 31
0.0
  0
LINE
  5
1D1
330
19C
100
AcDbEntity
  8
PART
100
AcDbLine
 10
-5.852008086517706
 20
0.7807201356002356
 30
0.0
 11
-4.828683817687309
 21
3.592280456991682
 31
0.0
  0
LINE
  5
1D2
330
19C
100
AcDbEntity
  8
PART
100
AcDbLine
 10
-5.750904506387588
 20
0.1383786943024372
 30
0.0
 11
-4.446089435017604
 21
3.723328639455568
 31
0.0
  0
ARC
  5
1D3
330
19C
100
AcDbEntity
  8
PART
100
AcDbCircle
 10
-3.649316947470964
 20
-0.0000000000000071
 30
0.0
 40
0.75
100
AcDbArc
 50
95.06279770078442
 51
264.9372022992156
  0
ARC
  5
1D4
330
19C
100
AcDbEntity
  8
PART
100
AcDbCircle
 10
-3.649316947470964
 20
-0.0000000000000071
 30
0.0
 40
0.8156164974804127
100
AcDbArc
 50
95.06279770078441
 51
134.9848251383175
  0
LINE
  5
1D5
330
19C
100
AcDbEntity
  8
PART
100
AcDbLine
 10
-3.715502607052851
 20
-0.747073931057507
 30
0.0
 11
0.0
 21
-1.066560185961964
 31
0.0
  0
LINE
  5
1D6
330
19C
100
AcDbEntity
  8
PART
100
AcDbLine
 10
-1.189729264841261
 20
-0.9917112112179111
 30
0.0
 11
-3.721293101939775
 21
-0.8124344306773991
 31
0.0
  0
ARC
  5
1D7
330
19C
100
AcDbEntity
  8
PART
100
AcDbCircle
 10
-5.02130000000001
 20
-0.0000000000000071
 30
0.0
 40
1.073223302020297
100
AcDbArc
 50
289.9999999999995
 51
323.5538982173468
  0
ARC
  5
1D8
330
19C
100
AcDbEntity
  8
PART
100
AcDbCircle
 10
-3.649316947470964
 20
-0.0000000000000071
 30
0.0
 40
0.8156164974804127
100
AcDbArc
 50
225.0151748616825
 51
264.9372022992156
  0
LINE
  5
1D9
330
19C
100
AcDbEntity
  8
PART
100
AcDbLine
 10
-3.116093290540497
 20
-0.8559162469348464
 30
0.0
 11
-2.886227487584299
 21
-1.008000000000002
 31
0.0
  0
LINE
  5
1DA
330
19C
100
AcDbEntity
  8
PART
100
AcDbLine
 10
-3.715502607052851
 20
-0.747073931057507
 30
0.0
 11
-3.721293101939775
 21
-0.8124344306773991
 31
0.0
  0
LINE
  5
1DB
330
19C
100
AcDbEntity
  8
PART
100
AcDbLine
 10
-2.886227487584299
 20
-1.008000000000002
 30
0.0
 11
-2.490660466614926
 21
-1.202911544075149
 31
0.0
  0
ARC
  5
1DC
330
19C
100
AcDbEntity
  8
PART
100
AcDbCircle
 10
-3.766582550842944
 20
-0.0000000000000071
 30
0.0
 40
0.7373985475160918
100
AcDbArc
 50
179.9999999999999
 51
231.4733676450046
  0
ARC
  5
1DD
330
19C
100
AcDbEntity
  8
PART
100
AcDbCircle
 10
-3.766582550842944
 20
-0.0000000000000071
 30
0.0
 40
0.7373985475160918
100
AcDbArc
 50
128.5266323549954
 51
180.0
  0
LINE
  5
1DE
330
19C
100
AcDbEntity
  8
PART
100
AcDbLine
 10
-1.187386005152781
 20
-0.9644599997873868
 30
0.0
 11
-0.0897292678412569
 21
-1.058844603234749
 31
0.0
  0
LINE
  5
1DF
330
19C
100
AcDbEntity
  8
PART
100
AcDbLine
 10
-1.188499731049148
 20
-0.9774122047976447
 30
0.0
 11
0.0
 21
-1.079608157320219
 31
0.0
  0
LINE
  5
1E0
330
19C
100
AcDbEntity
  8
PART
100
AcDbLine
 10
-3.715502607052851
 20
0.7470739310574999
 30
0.0
 11
-1.187386005152781
 21
0.9644599997873797
 31
0.0
  0
LINE
  5
1E1
330
19C
100
AcDbEntity
  8
PART
100
AcDbLine
 10
-3.721293101939775
 20
0.8124344306773849
 30
0.0
 11
-1.189729264841261
 21
0.9917112112179005
 31
0.0
  0
ARC
  5
1E2
330
19C
100
AcDbEntity
  8
PART
100
AcDbCircle
 10
-5.02130000000001
 20
-0.0000000000000071
 30
0.0
 40
1.073223302020297
100
AcDbArc
 50
36.44610178265317
 51
70.00000000000011
  0
LINE
  5
1E3
330
19C
100
AcDbEntity
  8
PART
100
AcDbLine
 10
-3.116093290540497
 20
0.8559162469348322
 30
0.0
 11
-2.886227487584299
 21
1.007999999999995
 31
0.0
  0
LINE
  5
1E4
330
19C
100
AcDbEntity
  8
PART
100
AcDbLine
 10
-2.886227487584299
 20
1.007999999999995
 30
0.0
 11
-2.490660466614926
 21
1.202911544075139
 31
0.0
  0
LINE
  5
1E5
330
19C
100
AcDbEntity
  8
PART
100
AcDbLine
 10
-1.187386005152781
 20
0.9644599997873797
 30
0.0
 11
0.0
 21
1.066560185961952
 31
0.0
  0
LINE
  5
1E6
330
19C
100
AcDbEntity
  8
PART
100
AcDbLine
 10
-1.188499731049148
 20
0.9774122047976376
 30
0.0
 11
0.0
 21
1.079608157320199
 31
0.0
  0
LINE
  5
1E7
330
19C
100
AcDbEntity
  8
PART
100
AcDbLine
 10
-4.867998601466716
 20
0.4211921308410425
 30
0.0
 11
-4.65423601242259
 21
1.008500017363957
 31
0.0
  0
LINE
  5
1E8
330
19C
100
AcDbEntity
  8
PART
100
AcDbLine
 10
-5.557571076891466
 20
0.6695579262687588
 30
0.0
 11
-4.867998601466716
 21
0.4211921308410425
 31
0.0
  0
ARC
  5
1E9
330
19C
100
AcDbEntity
  8
PART
100
AcDbCircle
 10
-5.02130000000001
 20
-0.0000000000000071
 30
0.0
 40
0.4482233035828092
100
AcDbArc
 50
289.9999999999995
 51
70.38463833292578
  0
LINE
  5
1EA
330
19C
100
AcDbEntity
  8
PART
100
AcDbLine
 10
-4.65423601242259
 20
1.008500017363957
 30
0.0
 11
-5.342967059583862
 21
1.259177617945656
 31
0.0
  0
LINE
  5
1EB
330
19C
100
AcDbEntity
  8
PART
100
AcDbLine
 10
-5.557571076891466
 20
-0.6695579262687695
 30
0.0
 11
-4.867998601466716
 21
-0.4211921308410567
 31
0.0
  0
LINE
  5
1EC
330
19C
100
AcDbEntity
  8
PART
100
AcDbLine
 10
-4.65423601242259
 20
-1.008500017363967
 30
0.0
 11
-5.342967059583866
 21
-1.25917761794566
 31
0.0
  0
LINE
  5
1ED
330
19C
100
AcDbEntity
  8
PART
100
AcDbLine
 10
-4.867998601466716
 20
-0.4211921308410567
 30
0.0
 11
-4.654236012422586
 21
-1.008500017363978
 31
0.0
  0
LINE
  5
1EE
330
19C
100
AcDbEntity
  8
PART
100
AcDbLine
 10
-1.816694597795411
 20
1.779427327176804
 30
0.0
 11
-2.490660466614926
 21
1.202911544075135
 31
0.0
  0
LINE
  5
1EF
330
19C
100
AcDbEntity
  8
PART
100
AcDbLine
 10
-1.189729264841261
 20
2.499736322215866
 30
0.0
 11
-1.189729264841261
 21
0.9917112112179005
 31
0.0
  0
LINE
  5
1F0
330
19C
100
AcDbEntity
  8
PART
100
AcDbLine
 10
-1.16652566653348
 20
2.491554574638092
 30
0.0
 11
-1.816694597795411
 21
1.779427327176804
 31
0.0
  0
LINE
  5
1F1
330
19C
100
AcDbEntity
  8
PART
100
AcDbLine
 10
-1.346900025237438
 20
2.307507348749574
 30
0.0
 11
-1.5436714752189
 21
2.07846838470062
 31
0.0
  0
LINE
  5
1F2
330
19C
100
AcDbEntity
  8
PART
100
AcDbLine
 10
-1.816694597795411
 20
-1.779427327176815
 30
0.0
 11
-2.490660466614926
 21
-1.202911544075149
 31
0.0
  0
LINE
  5
1F3
330
19C
100
AcDbEntity
  8
PART
100
AcDbLine
 10
-1.189729264841261
 20
-0.9917112112179111
 30
0.0
 11
-1.189729264841261
 21
-2.499999993750005
 31
0.0
  0
LINE
  5
1F4
330
19C
100
AcDbEntity
  8
PART
100
AcDbLine
 10
-1.166525666533495
 20
-2.491554574638098
 30
0.0
 11
-1.816694597795411
 21
-1.779427327176815
 31
0.0
  0
LINE
  5
1F5
330
19C
100
AcDbEntity
  8
PART
100
AcDbLine
 10
-1.346900025237438
 20
-2.307507348749584
 30
0.0
 11
-1.5436714752189
 21
-2.078468384700634
 31
0.0
  0
ENDBLK
  5
1F7
330
19C
100
AcDbEntity
  8
0
100
AcDbBlockEnd
  0
BLOCK
  5
25A
330
254
100
AcDbEntity
  8
0
100
AcDbBlockBegin
  2
TB_A
 70
     0
 10
0.0
 20
0.0
 30
0.0
  3
TB_A
  1

  0
LINE
  5
255
330
254
100
AcDbEntity
  8
PART
100
AcDbLine
 10
0.0
 20
-3.95
 30
0.0
 11
10.5
 21
-3.95
 31
0.0
  0
LINE
  5
256
330
254
100
AcDbEntity
  8
PART
100
AcDbLine
 10
10.5
 20
3.95
 30
0.0
 11
0.0
 21
3.95
 31
0.0
  0
LINE
  5
257
330
254
100
AcDbEntity
  8
PART
100
AcDbLine
 10
0.0
 20
3.95
 30
0.0
 11
0.0
 21
-3.95
 31
0.0
  0
LINE
  5
258
330
254
100
AcDbEntity
  8
DIM
100
AcDbLine
 10
0.0
 20
-3.95
 30
0.0
 11
-0.075
 21
-3.95
 31
0.0
  0
LINE
  5
259
330
254
100
AcDbEntity
  8
PART
100
AcDbLine
 10
10.5
 20
-3.95
 30
0.0
 11
10.5
 21
3.95
 31
0.0
  0
ENDBLK
  5
25B
330
254
100
AcDbEntity
  8
0
100
AcDbBlockEnd
  0
BLOCK
  5
2E6
330
271
100
AcDbEntity
  8
0
100
AcDbBlockBegin
  2
A$C435B465C
 70
     0
 10
0.0
 20
0.0
 30
0.0
  3
A$C435B465C
  1

  0
LINE
  5
272
330
271
100
AcDbEntity
  8
TRIM
100
AcDbLine
 10
10.41999999853406
 20
7.86999999827346
 30
0.0
 11
0.0299999985340644
 21
7.86999999827346
 31
0.0
  0
LINE
  5
273
330
271
100
AcDbEntity
  8
TRIM
100
AcDbLine
 10
-0.0000000014659345
 20
7.899999998273461
 30
0.0
 11
10.44999999853406
 21
7.899999998273461
 31
0.0
  0
LINE
  5
274
330
271
100
AcDbEntity
  8
TRIM
100
AcDbLine
 10
0.0299999985340644
 20
7.86999999827346
 30
0.0
 11
0.0299999985340652
 21
0.9877074628274646
 31
0.0
  0
LINE
  5
275
330
271
100
AcDbEntity
  8
TRIM
100
AcDbLine
 10
-0.0000000014659349
 20
7.899999998273461
 30
0.0
 11
-0.0000000014659349
 21
-0.000000001726538
 31
0.0
  0
LINE
  5
276
330
271
100
AcDbEntity
  8
TRIM
100
AcDbLine
 10
10.41999999853406
 20
2.432499998273461
 30
0.0
 11
10.41999999853406
 21
7.869999998273458
 31
0.0
  0
LINE
  5
277
330
271
100
AcDbEntity
  8
TRIM
100
AcDbLine
 10
10.44999999853406
 20
-0.0000000017265407
 30
0.0
 11
10.44999999853406
 21
7.899999998273459
 31
0.0
  0
SOLID
  5
278
330
271
100
AcDbEntity
  8
SOLID
 62
     1
100
AcDbTrace
 10
8.850645714660327
 20
1.336824719979944
 30
0.0
 11
8.953204583077742
 21
1.529709898068546
 31
0.0
 12
8.844321504076491
 22
1.344775342338473
 32
0.0
 13
8.947606642518891
 23
1.539026435684056
 33
0.0
  0
SOLID
  5
279
330
271
100
AcDbEntity
  8
SOLID
 62
     1
100
AcDbTrace
 10
8.743633161575985
 20
1.330656234914544
 30
0.0
 11
8.928899857892716
 21
1.55144848583807
 31
0.0
 12
8.835889223298043
 22
1.355376172149846
 32
0.0
 13
8.94014272177376
 23
1.55144848583807
 33
0.0
  0
SOLID
  5
27A
330
271
100
AcDbEntity
  8
SOLID
 62
     1
100
AcDbTrace
 10
8.775982480684099
 20
1.551448485838069
 30
0.0
 11
9.123139625704464
 21
1.644468962492971
 31
0.0
 12
9.073679760929408
 22
1.551448485838069
 32
0.0
 13
9.073679760929408
 23
1.551448485838069
 33
0.0
  0
SOLID
  5
27B
330
271
100
AcDbEntity
  8
SOLID
 62
     1
100
AcDbTrace
 10
8.816585180362723
 20
1.57518819906379
 30
0.0
 11
9.147519865140669
 21
1.663861880597488
 31
0.0
 12
8.834870359939877
 22
1.589732887642179
 32
0.0
 13
9.165805044717822
 23
1.678406569175877
 33
0.0
  0
LINE
  5
27C
330
271
100
AcDbEntity
  8
TRIM
100
AcDbLine
 10
10.41999999853406
 20
2.402499998273461
 30
0.0
 11
8.026999998534064
 21
2.402499998273462
 31
0.0
  0
TEXT
  5
27D
330
271
100
AcDbEntity
  8
TRIM
100
AcDbText
 10
8.093749998534065
 20
2.232876334230538
 30
0.0
 40
0.1
  1
TASK FORCE TIPS, INC.
 51
10.0
  7
ROMAND
100
AcDbText
  0
TEXT
  5
27E
330
271
100
AcDbEntity
  8
TRIM
100
AcDbText
 10
8.128853318574009
 20
1.795200536343402
 30
0.0
 40
0.09
  1
219-462-6161
  7
SIMPLEX
100
AcDbText
  0
TEXT
  5
27F
330
271
100
AcDbEntity
  8
TRIM
 62
     2
100
AcDbText
 10
8.128853318574009
 20
1.945864616217594
 30
0.0
 40
0.09
  1
VALPARAISO, IN 46383
  7
SIMPLEX
100
AcDbText
  0
TEXT
  5
280
330
271
100
AcDbEntity
  8
TRIM
 62
     2
100
AcDbText
 10
8.128853318574009
 20
2.090582801482295
 30
0.0
 40
0.09
  1
2800 E. EVANS AVE.
  7
SIMPLEX
100
AcDbText
  0
LINE
  5
281
330
271
100
AcDbEntity
  8
TRIM
100
AcDbLine
 10
10.41999999853406
 20
2.432499998273461
 30
0.0
 11
7.996999998534068
 21
2.432499998273462
 31
0.0
  0
LINE
  5
282
330
271
100
AcDbEntity
  8
TRIM
100
AcDbLine
 10
8.026999998534062
 20
1.224315403424987
 30
0.0
 11
8.026999998534064
 21
2.402499998273462
 31
0.0
  0
LINE
  5
283
330
271
100
AcDbEntity
  8
TRIM
100
AcDbLine
 10
7.996999998534064
 20
0.6684716413094636
 30
0.0
 11
7.996999998534068
 21
2.432499998273462
 31
0.0
  0
SOLID
  5
284
330
271
100
AcDbEntity
  8
SOLID
 62
     1
100
AcDbTrace
 10
8.043289409296239
 20
1.529709898068546
 30
0.0
 11
8.307257975069029
 21
1.529709898068546
 31
0.0
 12
8.114055538205608
 22
1.539026435684056
 32
0.0
 13
8.327237354460679
 23
1.539026435684056
 33
0.0
  0
SOLID
  5
285
330
271
100
AcDbEntity
  8
SOLID
 62
     1
100
AcDbTrace
 10
8.043289409296239
 20
1.529709898068546
 30
0.0
 11
8.598232940785159
 21
1.678406569175877
 31
0.0
 12
8.114055538205608
 22
1.539026435684056
 32
0.0
 13
8.579947761208007
 23
1.663861880597489
 33
0.0
  0
SOLID
  5
286
330
271
100
AcDbEntity
  8
SOLID
 62
     1
100
AcDbTrace
 10
8.168609830666147
 20
1.330656234914544
 30
0.0
 11
8.353876526982878
 21
1.551448485838069
 31
0.0
 12
8.260865892388205
 22
1.355376172149845
 32
0.0
 13
8.365119390863922
 23
1.551448485838069
 33
0.0
  0
SOLID
  5
287
330
271
100
AcDbEntity
  8
SOLID
 62
     1
100
AcDbTrace
 10
8.107639476921409
 20
1.29181383575286
 30
0.0
 11
8.307257975069029
 21
1.529709898068546
 31
0.0
 12
8.133769628526296
 22
1.308460578250724
 32
0.0
 13
8.327237354460679
 23
1.539026435684056
 33
0.0
  0
SOLID
  5
288
330
271
100
AcDbEntity
  8
SOLID
 62
     1
100
AcDbTrace
 10
8.269298173166653
 20
1.344775342338473
 30
0.0
 11
8.372583311609053
 21
1.539026435684056
 31
0.0
 12
8.275622383750489
 22
1.336824719979944
 32
0.0
 13
8.378181252167903
 23
1.529709898068546
 33
0.0
  0
SOLID
  5
289
330
271
100
AcDbEntity
  8
SOLID
 62
     1
100
AcDbTrace
 10
8.519123822871026
 20
1.446010323780124
 30
0.0
 11
8.389737606638517
 21
1.29181383575286
 31
0.0
 12
8.53420778556849
 22
1.449492730963093
 32
0.0
 13
8.415867758243402
 23
1.308460578250724
 33
0.0
  0
SOLID
  5
28A
330
271
100
AcDbEntity
  8
SOLID
 62
     1
100
AcDbTrace
 10
8.557720513467595
 20
1.336824719979944
 30
0.0
 11
8.597274694021209
 21
1.411215314162212
 31
0.0
 12
8.551396302883759
 22
1.344775342338473
 32
0.0
 13
8.593127360178915
 23
1.423260046220356
 33
0.0
  0
SOLID
  5
28B
330
271
100
AcDbEntity
  8
SOLID
 62
     1
100
AcDbTrace
 10
8.902260685370517
 20
1.539026435684056
 30
0.0
 11
8.708792959436136
 21
1.308460578250725
 31
0.0
 12
8.882281305978867
 22
1.529709898068546
 32
0.0
 13
8.682662807831249
 23
1.29181383575286
 33
0.0
  0
SOLID
  5
28C
330
271
100
AcDbEntity
  8
SOLID
 62
     1
100
AcDbTrace
 10
8.450707960383251
 20
1.330656234914544
 30
0.0
 11
8.554319735831773
 21
1.454135940540385
 31
0.0
 12
8.54296402210531
 22
1.355376172149845
 32
0.0
 13
8.587597581722521
 23
1.439319688964547
 33
0.0
  0
SOLID
  5
28D
330
271
100
AcDbEntity
  8
SOLID
 62
     1
100
AcDbTrace
 10
8.389737606638517
 20
1.29181383575286
 30
0.0
 11
8.557720513467595
 21
1.336824719979944
 31
0.0
 12
8.415867758243402
 22
1.308460578250724
 32
0.0
 13
8.551396302883759
 23
1.344775342338473
 33
0.0
  0
SOLID
  5
28E
330
271
100
AcDbEntity
  8
SOLID
 62
     1
100
AcDbTrace
 10
8.107639476921409
 20
1.29181383575286
 30
0.0
 11
8.275622383750489
 21
1.336824719979944
 31
0.0
 12
8.133769628526296
 22
1.308460578250724
 32
0.0
 13
8.269298173166653
 23
1.344775342338473
 33
0.0
  0
SOLID
  5
28F
330
271
100
AcDbEntity
  8
SOLID
 62
     1
100
AcDbTrace
 10
8.682662807831249
 20
1.29181383575286
 30
0.0
 11
8.850645714660327
 21
1.336824719979944
 31
0.0
 12
8.708792959436136
 22
1.308460578250725
 32
0.0
 13
8.844321504076491
 23
1.344775342338473
 33
0.0
  0
SOLID
  5
290
330
271
100
AcDbEntity
  8
SOLID
 62
     1
100
AcDbTrace
 10
8.208410376751436
 20
1.551448485838069
 30
0.0
 11
8.555567521771804
 21
1.644468962492971
 31
0.0
 12
8.506107656996745
 22
1.551448485838069
 32
0.0
 13
8.506107656996745
 23
1.551448485838069
 33
0.0
  0
SOLID
  5
291
330
271
100
AcDbEntity
  8
SOLID
 62
     1
100
AcDbTrace
 10
8.372583311609053
 20
1.539026435684056
 30
0.0
 11
8.609335484177783
 21
1.539026435684056
 31
0.0
 12
8.378181252167903
 22
1.529709898068546
 32
0.0
 13
8.589356104786135
 23
1.529709898068546
 33
0.0
  0
SOLID
  5
292
330
271
100
AcDbEntity
  8
SOLID
 62
     1
100
AcDbTrace
 10
8.572168427478533
 20
1.509226421888862
 30
0.0
 11
8.457090830046876
 21
1.473629191620975
 31
0.0
 12
8.577542130581782
 22
1.501136592315402
 32
0.0
 13
8.483530452159383
 23
1.472055733491771
 33
0.0
  0
SOLID
  5
293
330
271
100
AcDbEntity
  8
SOLID
 62
     1
100
AcDbTrace
 10
8.457090830046876
 20
1.473629191620975
 30
0.0
 11
8.519123822871026
 21
1.446010323780124
 31
0.0
 12
8.483530452159383
 22
1.472055733491771
 32
0.0
 13
8.53420778556849
 23
1.449492730963093
 33
0.0
  0
SOLID
  5
294
330
271
100
AcDbEntity
  8
SOLID
 62
     1
100
AcDbTrace
 10
8.492196428717766
 20
1.551448485838069
 30
0.0
 11
8.839353573738133
 21
1.644468962492971
 31
0.0
 12
8.789893708963075
 22
1.551448485838069
 32
0.0
 13
8.789893708963075
 23
1.551448485838069
 33
0.0
  0
SOLID
  5
295
330
271
100
AcDbEntity
  8
SOLID
 62
     1
100
AcDbTrace
 10
8.710751962356022
 20
1.539026435684056
 30
0.0
 11
8.902260685370517
 21
1.539026435684056
 31
0.0
 12
8.71634990291487
 22
1.529709898068546
 32
0.0
 13
8.882281305978867
 23
1.529709898068546
 33
0.0
  0
SOLID
  5
296
330
271
100
AcDbEntity
  8
SOLID
 62
     1
100
AcDbTrace
 10
8.551084307973546
 20
1.589732887642179
 30
0.0
 11
8.88201899275149
 21
1.678406569175877
 31
0.0
 12
8.532799128396392
 22
1.575188199063791
 32
0.0
 13
8.863733813174338
 23
1.663861880597489
 33
0.0
  0
SOLID
  5
297
330
271
100
AcDbEntity
  8
SOLID
 62
     1
100
AcDbTrace
 10
8.532799128396392
 20
1.575188199063791
 30
0.0
 11
8.579947761208007
 21
1.663861880597489
 31
0.0
 12
8.551084307973546
 22
1.589732887642179
 32
0.0
 13
8.598232940785159
 23
1.678406569175877
 33
0.0
  0
SOLID
  5
298
330
271
100
AcDbEntity
  8
SOLID
 62
     1
100
AcDbTrace
 10
8.593127360178915
 20
1.423260046220356
 30
0.0
 11
8.638464998265758
 21
1.403074429219956
 31
0.0
 12
8.597274694021209
 22
1.411215314162212
 32
0.0
 13
8.642612332108052
 23
1.391029697161812
 33
0.0
  0
SOLID
  5
299
330
271
100
AcDbEntity
  8
SOLID
 62
     1
100
AcDbTrace
 10
8.518783281642729
 20
1.4699577893195
 30
0.0
 11
8.687749358113208
 21
1.522224472547337
 31
0.0
 12
8.632935219809365
 22
1.419134071964148
 32
0.0
 13
8.632935219809365
 23
1.419134071964148
 33
0.0
  0
SOLID
  5
29A
330
271
100
AcDbEntity
  8
SOLID
 62
     1
100
AcDbTrace
 10
8.584707068052781
 20
1.490350152884122
 30
0.0
 11
8.635974656699984
 21
1.551448485838069
 31
0.0
 12
8.620641230585929
 22
1.501465753893571
 32
0.0
 13
8.647217520581028
 23
1.551448485838069
 33
0.0
  0
SOLID
  5
29B
330
271
100
AcDbEntity
  8
SOLID
 62
     1
100
AcDbTrace
 10
8.589356104786135
 20
1.529709898068546
 30
0.0
 11
8.572168427478533
 21
1.509226421888862
 31
0.0
 12
8.609335484177783
 22
1.539026435684056
 32
0.0
 13
8.577542130581782
 23
1.501136592315402
 33
0.0
  0
SOLID
  5
29C
330
271
100
AcDbEntity
  8
SOLID
 62
     1
100
AcDbTrace
 10
8.638464998265758
 20
1.403074429219956
 30
0.0
 11
8.710751962356022
 21
1.539026435684056
 31
0.0
 12
8.642612332108052
 22
1.391029697161812
 32
0.0
 13
8.71634990291487
 23
1.529709898068546
 33
0.0
  0
SOLID
  5
29D
330
271
100
AcDbEntity
  8
SOLID
 62
     1
100
AcDbTrace
 10
8.645754237745254
 20
1.522236807647912
 30
0.0
 11
8.70003121496035
 21
1.539026435684056
 31
0.0
 12
8.654681441326159
 22
1.539026435684056
 32
0.0
 13
8.654681441326159
 23
1.539026435684056
 33
0.0
  0
SOLID
  5
29E
330
271
100
AcDbEntity
  8
SOLID
 62
     1
100
AcDbTrace
 10
8.816585180362723
 20
1.57518819906379
 30
0.0
 11
8.863733813174338
 21
1.663861880597489
 31
0.0
 12
8.834870359939877
 22
1.589732887642179
 32
0.0
 13
8.88201899275149
 23
1.678406569175877
 33
0.0
  0
LINE
  5
29F
330
271
100
AcDbEntity
  8
TRIM
100
AcDbLine
 10
10.41999999853406
 20
1.780339596352224
 30
0.0
 11
10.41999999853406
 21
2.402499998273461
 31
0.0
  0
LINE
  5
2A0
330
271
100
AcDbEntity
  8
TRIM
100
AcDbLine
 10
9.212094455479999
 20
1.750339596352224
 30
0.0
 11
9.212094455480064
 21
0.3543154034249878
 31
0.0
  0
LINE
  5
2A1
330
271
100
AcDbEntity
  8
TRIM
100
AcDbLine
 10
10.41999999853406
 20
0.3543154034249873
 30
0.0
 11
10.41999999853406
 21
1.750339596352224
 31
0.0
  0
LINE
  5
2A2
330
271
100
AcDbEntity
  8
TRIM
100
AcDbLine
 10
9.212094455479999
 20
1.750339596352224
 30
0.0
 11
10.41999999853406
 21
1.750339596352224
 31
0.0
  0
LINE
  5
2A3
330
271
100
AcDbEntity
  8
TRIM
100
AcDbLine
 10
9.182094455479997
 20
1.780339596352224
 30
0.0
 11
10.41999999853406
 21
1.780339596352224
 31
0.0
  0
TEXT
  5
2A4
330
271
100
AcDbEntity
  8
DIM
100
AcDbText
 10
9.571579664239893
 20
1.615565403424988
 30
0.0
 40
0.09
  1
DATE
 41
0.9
 72
     1
 11
9.714293949954178
 21
1.615565403424988
 31
0.0
100
AcDbText
  0
LINE
  5
2A5
330
271
100
AcDbEntity
  8
TRIM
100
AcDbLine
 10
9.994468264419049
 20
1.584315403424988
 30
0.0
 11
9.434119635489306
 21
1.584315403424988
 31
0.0
  0
LINE
  5
2A6
330
271
100
AcDbEntity
  8
TRIM
100
AcDbLine
 10
10.41999999853406
 20
1.404315403424988
 30
0.0
 11
9.212094455480011
 21
1.404315403424988
 31
0.0
  0
LINE
  5
2A7
330
271
100
AcDbEntity
  8
TRIM
100
AcDbLine
 10
9.434119635489306
 20
1.750339596352224
 30
0.0
 11
9.434119635489302
 21
0.6843154034249875
 31
0.0
  0
LINE
  5
2A8
330
271
100
AcDbEntity
  8
TRIM
100
AcDbLine
 10
9.182094455479997
 20
1.780339596352224
 30
0.0
 11
9.182094455480022
 21
1.224315403424987
 31
0.0
  0
TEXT
  5
2A9
330
271
100
AcDbEntity
  8
DIM
100
AcDbText
 10
9.227107045484656
 20
1.615565403424988
 30
0.0
 40
0.09
  1
REV
 41
0.8
 72
     1
 11
9.323107045484656
 21
1.615565403424988
 31
0.0
100
AcDbText
  0
LINE
  5
2AA
330
271
100
AcDbEntity
  8
TRIM
100
AcDbLine
 10
9.434119635489306
 20
1.584315403424988
 30
0.0
 11
9.212094455480006
 21
1.584315403424988
 31
0.0
  0
SOLID
  5
2AB
330
271
100
AcDbEntity
  8
SOLID
 62
     1
100
AcDbTrace
 10
9.086741622233388
 20
1.529709898068546
 30
0.0
 11
9.165805044717822
 21
1.678406569175877
 31
0.0
 12
9.081143681674539
 22
1.539026435684056
 32
0.0
 13
9.147519865140669
 23
1.663861880597488
 33
0.0
  0
SOLID
  5
2AC
330
271
100
AcDbEntity
  8
SOLID
 62
     1
100
AcDbTrace
 10
8.953204583077742
 20
1.529709898068546
 30
0.0
 11
9.086741622233388
 21
1.529709898068546
 31
0.0
 12
8.947606642518891
 22
1.539026435684056
 32
0.0
 13
9.081143681674539
 23
1.539026435684056
 33
0.0
  0
LINE
  5
2AD
330
271
100
AcDbEntity
  8
TRIM
100
AcDbLine
 10
9.994468264419047
 20
1.750339596352224
 30
0.0
 11
9.994468264419047
 21
0.684315403424987
 31
0.0
  0
TEXT
  5
2AE
330
271
100
AcDbEntity
  8
DIM
100
AcDbText
 10
10.0105817160691
 20
1.615565403424988
 30
0.0
 40
0.09
  1
INITIALS
 41
0.8
 72
     1
 11
10.21115314464053
 21
1.615565403424988
 31
0.0
100
AcDbText
  0
LINE
  5
2AF
330
271
100
AcDbEntity
  8
TRIM
100
AcDbLine
 10
10.41999999853406
 20
1.584315403424988
 30
0.0
 11
9.994468264419049
 21
1.584315403424988
 31
0.0
  0
LINE
  5
2B0
330
271
100
AcDbEntity
  8
TRIM
100
AcDbLine
 10
0.0299999985341133
 20
0.3492358197914696
 30
0.0
 11
7.996999998534064
 21
0.3492358197914633
 31
0.0
  0
LINE
  5
2B1
330
271
100
AcDbEntity
  8
TRIM
100
AcDbLine
 10
0.0299999985340644
 20
0.6384716413094696
 30
0.0
 11
7.996999998534064
 21
0.6384716413094634
 31
0.0
  0
LINE
  5
2B2
330
271
100
AcDbEntity
  8
TRIM
100
AcDbLine
 10
-0.0000000014659349
 20
-0.000000001726538
 30
0.0
 11
10.44999999853406
 21
-0.0000000017265371
 31
0.0
  0
LINE
  5
2B3
330
271
100
AcDbEntity
  8
TRIM
100
AcDbLine
 10
0.0299999985340644
 20
0.3192358197914693
 30
0.0
 11
7.996999998534064
 21
0.3192358197914626
 31
0.0
  0
LINE
  5
2B4
330
271
100
AcDbEntity
  8
TRIM
100
AcDbLine
 10
0.0299999985341133
 20
0.0299999982734693
 30
0.0
 11
7.996999998534064
 21
0.0299999982734627
 31
0.0
  0
LINE
  5
2B5
330
271
100
AcDbEntity
  8
TRIM
100
AcDbLine
 10
0.0299999985340652
 20
0.9877074628274646
 30
0.0
 11
4.123749998534062
 21
0.9877074628274638
 31
0.0
  0
LINE
  5
2B6
330
271
100
AcDbEntity
  8
TRIM
100
AcDbLine
 10
0.0299999985341142
 20
0.9577074628274647
 30
0.0
 11
3.312499998534065
 21
0.9577074628274647
 31
0.0
  0
LINE
  5
2B7
330
271
100
AcDbEntity
  8
TRIM
100
AcDbLine
 10
0.0299999985340644
 20
0.6684716413094645
 30
0.0
 11
3.312499998534113
 21
0.6684716413094645
 31
0.0
  0
TEXT
  5
2B8
330
271
100
AcDbEntity
  8
TRIM
100
AcDbText
 10
0.1075473542991792
 20
0.4200287859488796
 30
0.0
 40
0.14
  1
DESCRIPTION:
 41
0.9
  7
SIMPLEX
100
AcDbText
  0
TEXT
  5
2B9
330
271
100
AcDbEntity
  8
TRIM
100
AcDbText
 10
0.1075473542991792
 20
0.1075287859488796
 30
0.0
 40
0.14
  1
EXTRA DESC:
 41
0.9
  7
SIMPLEX
100
AcDbText
  0
TEXT
  5
2BA
330
271
100
AcDbEntity
  8
TRIM
100
AcDbText
 10
0.1101805216547635
 20
0.7431394110287762
 30
0.0
 40
0.14
  1
PART NUMBER:
 41
0.8
  7
SIMPLEX
100
AcDbText
  0
LINE
  5
2BB
330
271
100
AcDbEntity
  8
TRIM
100
AcDbLine
 10
0.0299999985340644
 20
0.6384716413094696
 30
0.0
 11
0.0299999985341133
 21
0.3492358197914696
 31
0.0
  0
LINE
  5
2BC
330
271
100
AcDbEntity
  8
TRIM
100
AcDbLine
 10
0.0299999985340644
 20
0.3192358197914693
 30
0.0
 11
0.0299999985341133
 21
0.0299999982734693
 31
0.0
  0
LINE
  5
2BD
330
271
100
AcDbEntity
  8
TRIM
100
AcDbLine
 10
0.0299999985340653
 20
0.9577074628274653
 30
0.0
 11
0.0299999985340644
 21
0.6684716413094645
 31
0.0
  0
LINE
  5
2BE
330
271
100
AcDbEntity
  8
TRIM
100
AcDbLine
 10
3.342499998534066
 20
0.9577074628274647
 30
0.0
 11
4.093749998534065
 21
0.9577074628274647
 31
0.0
  0
TEXT
  5
2BF
330
271
100
AcDbEntity
  8
DIM
 62
     1
100
AcDbText
 10
3.539702379486445
 20
0.8537499982734622
 30
0.0
 40
0.08
  1
SHEET
 72
     1
 11
3.718749998534065
 21
0.8537499982734622
 31
0.0
100
AcDbText
  0
LINE
  5
2C0
330
271
100
AcDbEntity
  8
TRIM
100
AcDbLine
 10
3.342499998534066
 20
0.9577074628274647
 30
0.0
 11
3.342499998534113
 21
0.6684716413094672
 31
0.0
  0
LINE
  5
2C1
330
271
100
AcDbEntity
  8
TRIM
100
AcDbLine
 10
3.312499998534065
 20
0.9577074628274644
 30
0.0
 11
3.312499998534113
 21
0.6684716413094645
 31
0.0
  0
LINE
  5
2C2
330
271
100
AcDbEntity
  8
TRIM
100
AcDbLine
 10
4.123749998534062
 20
0.9877074628274638
 30
0.0
 11
4.123749998534114
 21
0.6684716413094672
 31
0.0
  0
LINE
  5
2C3
330
271
100
AcDbEntity
  8
TRIM
100
AcDbLine
 10
4.093749998534065
 20
0.9577074628274647
 30
0.0
 11
4.093749998534113
 21
0.6684716413094645
 31
0.0
  0
LINE
  5
2C4
330
271
100
AcDbEntity
  8
TRIM
100
AcDbLine
 10
4.123749998534114
 20
0.6684716413094663
 30
0.0
 11
7.996999998534064
 21
0.6684716413094632
 31
0.0
  0
LINE
  5
2C5
330
271
100
AcDbEntity
  8
TRIM
100
AcDbLine
 10
9.182094455480024
 20
1.224315403424987
 30
0.0
 11
8.026999998534062
 21
1.224315403424987
 31
0.0
  0
TEXT
  5
2C6
330
271
100
AcDbEntity
  8
DIM
100
AcDbText
 10
8.043249998534063
 20
0.2653392262302923
 30
0.0
 40
0.056
  1
DIMENSIONS IN 'INCHES' UNLESS SPECIFIED OTHERWISE
100
AcDbText
  0
LINE
  5
2C7
330
271
100
AcDbEntity
  8
TRIM
100
AcDbLine
 10
9.182094455480005
 20
1.044315403424988
 30
0.0
 11
8.026999998534051
 21
1.044315403424987
 31
0.0
  0
LINE
  5
2C8
330
271
100
AcDbEntity
  8
TRIM
100
AcDbLine
 10
9.182094455480024
 20
1.194315403424987
 30
0.0
 11
8.026999998534066
 21
1.194315403424987
 31
0.0
  0
LINE
  5
2C9
330
271
100
AcDbEntity
  8
TRIM
100
AcDbLine
 10
8.026999998534064
 20
0.0749999982734631
 30
0.0
 11
10.41999999853406
 21
0.0749999982734622
 31
0.0
  0
LINE
  5
2CA
330
271
100
AcDbEntity
  8
TRIM
100
AcDbLine
 10
8.026999998534064
 20
0.2249999982734629
 30
0.0
 11
10.41999999853406
 21
0.2249999982734625
 31
0.0
  0
TEXT
  5
2CB
330
271
100
AcDbEntity
  8
TRIM
100
AcDbText
 10
8.074563651603105
 20
0.5810145276027239
 30
0.0
 40
0.07
  1
PRINT APPROVED
 41
1.058889550608496
  7
SIMPLEX
 72
     5
 11
9.02403461531539
 21
0.5810145276027239
 31
0.0
100
AcDbText
  0
LINE
  5
2CC
330
271
100
AcDbEntity
  8
TRIM
100
AcDbLine
 10
9.182094455480063
 20
0.3543154034249878
 30
0.0
 11
8.026999998534064
 21
0.3543154034249878
 31
0.0
  0
LINE
  5
2CD
330
271
100
AcDbEntity
  8
TRIM
 62
     2
100
AcDbLine
 10
9.182094455480012
 20
0.8643154034249874
 30
0.0
 11
8.026999998534064
 21
0.8643154034249874
 31
0.0
  0
LINE
  5
2CE
330
271
100
AcDbEntity
  8
TRIM
100
AcDbLine
 10
9.182094455480017
 20
0.6843154034249875
 30
0.0
 11
8.026999998534064
 21
0.684315403424987
 31
0.0
  0
LINE
  5
2CF
330
271
100
AcDbEntity
  8
TRIM
 62
     2
100
AcDbLine
 10
9.182094455480024
 20
0.5457609724770878
 30
0.0
 11
8.026999998534064
 21
0.5457609724770878
 31
0.0
  0
LINE
  5
2D0
330
271
100
AcDbEntity
  8
TRIM
100
AcDbLine
 10
9.182094455480031
 20
0.3543154034249873
 30
0.0
 11
8.026999998534064
 21
0.3543154034249873
 31
0.0
  0
LINE
  5
2D1
330
271
100
AcDbEntity
  8
TRIM
100
AcDbLine
 10
7.996999998534064
 20
0.3492358197914598
 30
0.0
 11
7.996999998534064
 21
0.6384716413094598
 31
0.0
  0
LINE
  5
2D2
330
271
100
AcDbEntity
  8
TRIM
100
AcDbLine
 10
8.026999998534064
 20
0.3543154034249878
 30
0.0
 11
8.026999998534064
 21
0.864315403424988
 31
0.0
  0
TEXT
  5
2D3
330
271
100
AcDbEntity
  8
TRIM
100
AcDbText
 10
8.062499998534065
 20
0.1099999982734623
 30
0.0
 40
0.08
  1
FILE:
  7
SIMPLEX
100
AcDbText
  0
LINE
  5
2D4
330
271
100
AcDbEntity
  8
TRIM
100
AcDbLine
 10
8.026999998534064
 20
0.0749999982734653
 30
0.0
 11
8.099999998534064
 21
0.0749999982734648
 31
0.0
  0
LINE
  5
2D5
330
271
100
AcDbEntity
  8
TRIM
100
AcDbLine
 10
8.026999998534064
 20
0.0749999982734622
 30
0.0
 11
8.026999998534064
 21
0.2249999982734629
 31
0.0
  0
LINE
  5
2D6
330
271
100
AcDbEntity
  8
TRIM
100
AcDbLine
 10
7.996999998534064
 20
0.0299999982734596
 30
0.0
 11
7.996999998534064
 21
0.3192358197914595
 31
0.0
  0
TEXT
  5
2D7
330
271
100
AcDbEntity
  8
TRIM
100
AcDbText
 10
8.074563651603092
 20
0.8995689585506237
 30
0.0
 40
0.07
  1
PRINT DRAWN
 41
1.047995828933662
  7
SIMPLEX
 72
     5
 11
8.811654051286435
 21
0.8995689585506237
 31
0.0
100
AcDbText
  0
TEXT
  5
2D8
330
271
100
AcDbEntity
  8
TRIM
100
AcDbText
 10
8.074583587926003
 20
1.067921744520258
 30
0.0
 40
0.09
  1
SCALE:
  7
SIMPLEX
100
AcDbText
  0
LINE
  5
2D9
330
271
100
AcDbEntity
  8
TRIM
100
AcDbLine
 10
8.026999998534064
 20
0.864315403424988
 30
0.0
 11
8.026999998534064
 21
1.194315403424987
 31
0.0
  0
LINE
  5
2DA
330
271
100
AcDbEntity
  8
TRIM
100
AcDbLine
 10
10.41999999853406
 20
0.3543154034249873
 30
0.0
 11
9.212094455480064
 21
0.3543154034249878
 31
0.0
  0
LINE
  5
2DB
330
271
100
AcDbEntity
  8
TRIM
100
AcDbLine
 10
10.41999999853406
 20
0.0749999982734622
 30
0.0
 11
10.41999999853406
 21
0.2249999982734625
 31
0.0
  0
LINE
  5
2DC
330
271
100
AcDbEntity
  8
TRIM
100
AcDbLine
 10
10.41999999853406
 20
0.684315403424987
 30
0.0
 11
9.212094455480039
 21
0.6843154034249875
 31
0.0
  0
LINE
  5
2DD
330
271
100
AcDbEntity
  8
TRIM
100
AcDbLine
 10
10.41999999853406
 20
0.8643154034249874
 30
0.0
 11
9.212094455480032
 21
0.8643154034249874
 31
0.0
  0
LINE
  5
2DE
330
271
100
AcDbEntity
  8
TRIM
100
AcDbLine
 10
10.41999999853406
 20
1.044315403424987
 30
0.0
 11
9.212094455480025
 21
1.044315403424988
 31
0.0
  0
LINE
  5
2DF
330
271
100
AcDbEntity
  8
TRIM
100
AcDbLine
 10
10.41999999853406
 20
1.224315403424987
 30
0.0
 11
9.212094455480018
 21
1.224315403424987
 31
0.0
  0
TEXT
  5
2E0
330
271
100
AcDbEntity
  8
TRIM
100
AcDbText
 10
9.277645854177304
 20
0.5810145276027239
 30
0.0
 40
0.07
  1
DESIGN ENGINEER
  7
SIMPLEX
100
AcDbText
  0
LINE
  5
2E1
330
271
100
AcDbEntity
  8
TRIM
 62
     2
100
AcDbLine
 10
10.41418891242604
 20
0.5457609724770874
 30
0.0
 11
9.212094455480064
 21
0.5457609724770878
 31
0.0
  0
LINE
  5
2E2
330
271
100
AcDbEntity
  8
TRIM
100
AcDbLine
 10
9.182094455480024
 20
1.194315403424987
 30
0.0
 11
9.182094455480063
 21
0.3543154034249878
 31
0.0
  0
LINE
  5
2E3
330
271
100
AcDbEntity
  8
TRIM
 62
     2
100
AcDbLine
 10
8.736598446570452
 20
0.5457609724770878
 30
0.0
 11
8.73659844657045
 21
0.3543154034249878
 31
0.0
  0
LINE
  5
2E4
330
271
100
AcDbEntity
  8
TRIM
 62
     2
100
AcDbLine
 10
8.736598446570452
 20
0.8643154034249874
 30
0.0
 11
8.736598446570452
 21
0.6843154034249875
 31
0.0
  0
LINE
  5
2E5
330
271
100
AcDbEntity
  8
TRIM
100
AcDbLine
 10
3.342499998534113
 20
0.6684716413094672
 30
0.0
 11
4.093749998534113
 21
0.6684716413094663
 31
0.0
  0
ENDBLK
  5
2E7
330
271
100
AcDbEntity
  8
0
100
AcDbBlockEnd
  0
BLOCK
  5
2EA
330
2E8
100
AcDbEntity
  8
0
100
AcDbBlockBegin
  2
A$C4FB65283
 70
     2
 10
0.0
 20
0.0
 30
0.0
  3
A$C4FB65283
  1

  0
ATTDEF
  5
2E9
330
2E8
100
AcDbEntity
  8
DIM
100
AcDbText
 10
0.0000000025669991
 20
0.0433333427455174
 30
0.0
 40
0.13
  1

  7
SIMPLEX
100
AcDbAttributeDefinition
  3
PART_#
  2
PART_#
 70
     0
  0
ENDBLK
  5
2EB
330
2E8
100
AcDbEntity
  8
0
100
AcDbBlockEnd
  0
BLOCK
  5
2EE
330
2EC
100
AcDbEntity
  8
0
100
AcDbBlockBegin
  2
A$C2BBE0097
 70
     2
 10
0.0
 20
0.0
 30
0.0
  3
A$C2BBE0097
  1

  0
ATTDEF
  5
2ED
330
2EC
100
AcDbEntity
  8
DIM
100
AcDbText
 10
0.0000000025669991
 20
0.0123809372330444
 30
0.0
 40
0.13
  1

  7
SIMPLEX
100
AcDbAttributeDefinition
  3
PART_DESCRIPTION
  2
PART_DESCRIPTION
 70
     0
  0
ENDBLK
  5
2EF
330
2EC
100
AcDbEntity
  8
0
100
AcDbBlockEnd
  0
BLOCK
  5
2F2
330
2F0
100
AcDbEntity
  8
0
100
AcDbBlockBegin
  2
A$C10236829
 70
     2
 10
0.0
 20
0.0
 30
0.0
  3
A$C10236829
  1

  0
ATTDEF
  5
2F1
330
2F0
100
AcDbEntity
  8
DIM
100
AcDbText
 10
0.0000000025669991
 20
0.0123809528212267
 30
0.0
 40
0.13
  1

  7
SIMPLEX
100
AcDbAttributeDefinition
  3
EXTRA_DESCRIPTION
  2
EXTRA_DESCRIPTION
 70
     0
  0
ENDBLK
  5
2F3
330
2F0
100
AcDbEntity
  8
0
100
AcDbBlockEnd
  0
BLOCK
  5
2F6
330
2F4
100
AcDbEntity
  8
0
100
AcDbBlockBegin
  2
A$C794932C0
 70
     2
 10
0.0
 20
0.0
 30
0.0
  3
A$C794932C0
  1

  0
ATTDEF
  5
2F5
330
2F4
100
AcDbEntity
  8
DIM
100
AcDbText
 10
0.2238095347306626
 20
0.0499999881906419
 30
0.0
 40
0.1
  1

  7
SIMPLEX
 72
     4
 11
0.2238095347306626
 21
0.0499999881906419
 31
0.0
100
AcDbAttributeDefinition
  3
SHEET
  2
SHEET
 70
     0
  0
ENDBLK
  5
2F7
330
2F4
100
AcDbEntity
  8
0
100
AcDbBlockEnd
  0
BLOCK
  5
374
330
2F8
100
AcDbEntity
  8
0
100
AcDbBlockBegin
  2
TEST
 70
     2
 10
0.0
 20
0.0
 30
0.0
  3
TEST
  1

  0
INSERT
  5
2F9
330
2F8
100
AcDbEntity
  8
DIM
100
AcDbBlockReference
 66
     1
  2
A$C4FB65283
 10
0.9375
 20
-0.9375
 30
0.0
  0
ATTRIB
  5
2FA
330
2F9
100
AcDbEntity
  8
DIM
100
AcDbText
 10
0.937500002566999
 20
-0.8941666572544825
 30
0.0
 40
0.13
  1

  7
SIMPLEX
100
AcDbAttribute
  2
PART_#
 70
     0
  0
SEQEND
  5
2FB
330
2F9
100
AcDbEntity
  8
DIM
  0
LINE
  5
2FC
330
2F8
100
AcDbEntity
  8
TRIM
100
AcDbLine
 10
10.66999999853406
 20
8.11999999827346
 30
0.0
 11
0.2799999985340644
 21
8.11999999827346
 31
0.0
  0
LINE
  5
2FD
330
2F8
100
AcDbEntity
  8
TRIM
100
AcDbLine
 10
0.2499999985340655
 20
8.149999998273461
 30
0.0
 11
10.69999999853406
 21
8.149999998273461
 31
0.0
  0
LINE
  5
2FE
330
2F8
100
AcDbEntity
  8
TRIM
100
AcDbLine
 10
0.2799999985340644
 20
8.11999999827346
 30
0.0
 11
0.2799999985340651
 21
1.237707462827464
 31
0.0
  0
LINE
  5
2FF
330
2F8
100
AcDbEntity
  8
TRIM
100
AcDbLine
 10
0.2499999985340651
 20
8.149999998273461
 30
0.0
 11
0.2499999985340651
 21
0.249999998273462
 31
0.0
  0
LINE
  5
300
330
2F8
100
AcDbEntity
  8
TRIM
100
AcDbLine
 10
10.66999999853406
 20
2.682499998273461
 30
0.0
 11
10.66999999853406
 21
8.119999998273458
 31
0.0
  0
LINE
  5
301
330
2F8
100
AcDbEntity
  8
TRIM
100
AcDbLine
 10
10.69999999853406
 20
0.2499999982734593
 30
0.0
 11
10.69999999853406
 21
8.149999998273459
 31
0.0
  0
SOLID
  5
302
330
2F8
100
AcDbEntity
  8
SOLID
 62
     1
100
AcDbTrace
 10
9.100645714660327
 20
1.586824719979944
 30
0.0
 11
9.203204583077742
 21
1.779709898068546
 31
0.0
 12
9.094321504076491
 22
1.594775342338473
 32
0.0
 13
9.197606642518891
 23
1.789026435684056
 33
0.0
  0
SOLID
  5
303
330
2F8
100
AcDbEntity
  8
SOLID
 62
     1
100
AcDbTrace
 10
8.993633161575985
 20
1.580656234914544
 30
0.0
 11
9.178899857892716
 21
1.80144848583807
 31
0.0
 12
9.085889223298043
 22
1.605376172149846
 32
0.0
 13
9.19014272177376
 23
1.80144848583807
 33
0.0
  0
SOLID
  5
304
330
2F8
100
AcDbEntity
  8
SOLID
 62
     1
100
AcDbTrace
 10
9.025982480684099
 20
1.801448485838069
 30
0.0
 11
9.373139625704464
 21
1.894468962492971
 31
0.0
 12
9.323679760929408
 22
1.801448485838069
 32
0.0
 13
9.323679760929408
 23
1.801448485838069
 33
0.0
  0
SOLID
  5
305
330
2F8
100
AcDbEntity
  8
SOLID
 62
     1
100
AcDbTrace
 10
9.066585180362723
 20
1.82518819906379
 30
0.0
 11
9.397519865140669
 21
1.913861880597488
 31
0.0
 12
9.084870359939877
 22
1.839732887642179
 32
0.0
 13
9.415805044717822
 23
1.928406569175877
 33
0.0
  0
LINE
  5
306
330
2F8
100
AcDbEntity
  8
TRIM
100
AcDbLine
 10
10.66999999853406
 20
2.652499998273461
 30
0.0
 11
8.276999998534064
 21
2.652499998273462
 31
0.0
  0
TEXT
  5
307
330
2F8
100
AcDbEntity
  8
TRIM
100
AcDbText
 10
8.343749998534065
 20
2.482876334230538
 30
0.0
 40
0.1
  1
TASK FORCE TIPS, INC.
 51
10.0
  7
ROMAND
100
AcDbText
  0
TEXT
  5
308
330
2F8
100
AcDbEntity
  8
TRIM
100
AcDbText
 10
8.378853318574009
 20
2.045200536343402
 30
0.0
 40
0.09
  1
219-462-6161
  7
SIMPLEX
100
AcDbText
  0
TEXT
  5
309
330
2F8
100
AcDbEntity
  8
TRIM
 62
     2
100
AcDbText
 10
8.378853318574009
 20
2.195864616217594
 30
0.0
 40
0.09
  1
VALPARAISO, IN 46383
  7
SIMPLEX
100
AcDbText
  0
TEXT
  5
30A
330
2F8
100
AcDbEntity
  8
TRIM
 62
     2
100
AcDbText
 10
8.378853318574009
 20
2.340582801482295
 30
0.0
 40
0.09
  1
2800 E. EVANS AVE.
  7
SIMPLEX
100
AcDbText
  0
LINE
  5
30B
330
2F8
100
AcDbEntity
  8
TRIM
100
AcDbLine
 10
10.66999999853406
 20
2.682499998273461
 30
0.0
 11
8.246999998534068
 21
2.682499998273462
 31
0.0
  0
LINE
  5
30C
330
2F8
100
AcDbEntity
  8
TRIM
100
AcDbLine
 10
8.276999998534062
 20
1.474315403424987
 30
0.0
 11
8.276999998534064
 21
2.652499998273462
 31
0.0
  0
LINE
  5
30D
330
2F8
100
AcDbEntity
  8
TRIM
100
AcDbLine
 10
8.246999998534064
 20
0.9184716413094635
 30
0.0
 11
8.246999998534068
 21
2.682499998273462
 31
0.0
  0
SOLID
  5
30E
330
2F8
100
AcDbEntity
  8
SOLID
 62
     1
100
AcDbTrace
 10
8.293289409296239
 20
1.779709898068546
 30
0.0
 11
8.557257975069029
 21
1.779709898068546
 31
0.0
 12
8.364055538205608
 22
1.789026435684056
 32
0.0
 13
8.577237354460679
 23
1.789026435684056
 33
0.0
  0
SOLID
  5
30F
330
2F8
100
AcDbEntity
  8
SOLID
 62
     1
100
AcDbTrace
 10
8.293289409296239
 20
1.779709898068546
 30
0.0
 11
8.848232940785159
 21
1.928406569175877
 31
0.0
 12
8.364055538205608
 22
1.789026435684056
 32
0.0
 13
8.829947761208007
 23
1.913861880597489
 33
0.0
  0
SOLID
  5
310
330
2F8
100
AcDbEntity
  8
SOLID
 62
     1
100
AcDbTrace
 10
8.418609830666147
 20
1.580656234914544
 30
0.0
 11
8.603876526982878
 21
1.801448485838069
 31
0.0
 12
8.510865892388205
 22
1.605376172149845
 32
0.0
 13
8.615119390863922
 23
1.801448485838069
 33
0.0
  0
SOLID
  5
311
330
2F8
100
AcDbEntity
  8
SOLID
 62
     1
100
AcDbTrace
 10
8.357639476921409
 20
1.54181383575286
 30
0.0
 11
8.557257975069029
 21
1.779709898068546
 31
0.0
 12
8.383769628526296
 22
1.558460578250724
 32
0.0
 13
8.577237354460679
 23
1.789026435684056
 33
0.0
  0
SOLID
  5
312
330
2F8
100
AcDbEntity
  8
SOLID
 62
     1
100
AcDbTrace
 10
8.519298173166653
 20
1.594775342338473
 30
0.0
 11
8.622583311609053
 21
1.789026435684056
 31
0.0
 12
8.525622383750489
 22
1.586824719979944
 32
0.0
 13
8.628181252167903
 23
1.779709898068546
 33
0.0
  0
SOLID
  5
313
330
2F8
100
AcDbEntity
  8
SOLID
 62
     1
100
AcDbTrace
 10
8.769123822871026
 20
1.696010323780124
 30
0.0
 11
8.639737606638517
 21
1.54181383575286
 31
0.0
 12
8.78420778556849
 22
1.699492730963093
 32
0.0
 13
8.665867758243402
 23
1.558460578250724
 33
0.0
  0
SOLID
  5
314
330
2F8
100
AcDbEntity
  8
SOLID
 62
     1
100
AcDbTrace
 10
8.807720513467595
 20
1.586824719979944
 30
0.0
 11
8.847274694021209
 21
1.661215314162212
 31
0.0
 12
8.801396302883759
 22
1.594775342338473
 32
0.0
 13
8.843127360178915
 23
1.673260046220356
 33
0.0
  0
SOLID
  5
315
330
2F8
100
AcDbEntity
  8
SOLID
 62
     1
100
AcDbTrace
 10
9.152260685370517
 20
1.789026435684056
 30
0.0
 11
8.958792959436136
 21
1.558460578250725
 31
0.0
 12
9.132281305978867
 22
1.779709898068546
 32
0.0
 13
8.932662807831249
 23
1.54181383575286
 33
0.0
  0
SOLID
  5
316
330
2F8
100
AcDbEntity
  8
SOLID
 62
     1
100
AcDbTrace
 10
8.700707960383251
 20
1.580656234914544
 30
0.0
 11
8.804319735831773
 21
1.704135940540385
 31
0.0
 12
8.79296402210531
 22
1.605376172149845
 32
0.0
 13
8.837597581722521
 23
1.689319688964547
 33
0.0
  0
SOLID
  5
317
330
2F8
100
AcDbEntity
  8
SOLID
 62
     1
100
AcDbTrace
 10
8.639737606638517
 20
1.54181383575286
 30
0.0
 11
8.807720513467595
 21
1.586824719979944
 31
0.0
 12
8.665867758243402
 22
1.558460578250724
 32
0.0
 13
8.801396302883759
 23
1.594775342338473
 33
0.0
  0
SOLID
  5
318
330
2F8
100
AcDbEntity
  8
SOLID
 62
     1
100
AcDbTrace
 10
8.357639476921409
 20
1.54181383575286
 30
0.0
 11
8.525622383750489
 21
1.586824719979944
 31
0.0
 12
8.383769628526296
 22
1.558460578250724
 32
0.0
 13
8.519298173166653
 23
1.594775342338473
 33
0.0
  0
SOLID
  5
319
330
2F8
100
AcDbEntity
  8
SOLID
 62
     1
100
AcDbTrace
 10
8.932662807831249
 20
1.54181383575286
 30
0.0
 11
9.100645714660327
 21
1.586824719979944
 31
0.0
 12
8.958792959436136
 22
1.558460578250725
 32
0.0
 13
9.094321504076491
 23
1.594775342338473
 33
0.0
  0
SOLID
  5
31A
330
2F8
100
AcDbEntity
  8
SOLID
 62
     1
100
AcDbTrace
 10
8.458410376751436
 20
1.801448485838069
 30
0.0
 11
8.805567521771804
 21
1.894468962492971
 31
0.0
 12
8.756107656996745
 22
1.801448485838069
 32
0.0
 13
8.756107656996745
 23
1.801448485838069
 33
0.0
  0
SOLID
  5
31B
330
2F8
100
AcDbEntity
  8
SOLID
 62
     1
100
AcDbTrace
 10
8.622583311609053
 20
1.789026435684056
 30
0.0
 11
8.859335484177783
 21
1.789026435684056
 31
0.0
 12
8.628181252167903
 22
1.779709898068546
 32
0.0
 13
8.839356104786135
 23
1.779709898068546
 33
0.0
  0
SOLID
  5
31C
330
2F8
100
AcDbEntity
  8
SOLID
 62
     1
100
AcDbTrace
 10
8.822168427478533
 20
1.759226421888862
 30
0.0
 11
8.707090830046876
 21
1.723629191620975
 31
0.0
 12
8.827542130581782
 22
1.751136592315402
 32
0.0
 13
8.733530452159383
 23
1.722055733491771
 33
0.0
  0
SOLID
  5
31D
330
2F8
100
AcDbEntity
  8
SOLID
 62
     1
100
AcDbTrace
 10
8.707090830046876
 20
1.723629191620975
 30
0.0
 11
8.769123822871026
 21
1.696010323780124
 31
0.0
 12
8.733530452159383
 22
1.722055733491771
 32
0.0
 13
8.78420778556849
 23
1.699492730963093
 33
0.0
  0
SOLID
  5
31E
330
2F8
100
AcDbEntity
  8
SOLID
 62
     1
100
AcDbTrace
 10
8.742196428717766
 20
1.801448485838069
 30
0.0
 11
9.089353573738133
 21
1.894468962492971
 31
0.0
 12
9.039893708963075
 22
1.801448485838069
 32
0.0
 13
9.039893708963075
 23
1.801448485838069
 33
0.0
  0
SOLID
  5
31F
330
2F8
100
AcDbEntity
  8
SOLID
 62
     1
100
AcDbTrace
 10
8.960751962356022
 20
1.789026435684056
 30
0.0
 11
9.152260685370517
 21
1.789026435684056
 31
0.0
 12
8.96634990291487
 22
1.779709898068546
 32
0.0
 13
9.132281305978867
 23
1.779709898068546
 33
0.0
  0
SOLID
  5
320
330
2F8
100
AcDbEntity
  8
SOLID
 62
     1
100
AcDbTrace
 10
8.801084307973546
 20
1.839732887642179
 30
0.0
 11
9.13201899275149
 21
1.928406569175877
 31
0.0
 12
8.782799128396392
 22
1.825188199063791
 32
0.0
 13
9.113733813174338
 23
1.913861880597489
 33
0.0
  0
SOLID
  5
321
330
2F8
100
AcDbEntity
  8
SOLID
 62
     1
100
AcDbTrace
 10
8.782799128396392
 20
1.825188199063791
 30
0.0
 11
8.829947761208007
 21
1.913861880597489
 31
0.0
 12
8.801084307973546
 22
1.839732887642179
 32
0.0
 13
8.848232940785159
 23
1.928406569175877
 33
0.0
  0
SOLID
  5
322
330
2F8
100
AcDbEntity
  8
SOLID
 62
     1
100
AcDbTrace
 10
8.843127360178915
 20
1.673260046220356
 30
0.0
 11
8.888464998265758
 21
1.653074429219956
 31
0.0
 12
8.847274694021209
 22
1.661215314162212
 32
0.0
 13
8.892612332108052
 23
1.641029697161812
 33
0.0
  0
SOLID
  5
323
330
2F8
100
AcDbEntity
  8
SOLID
 62
     1
100
AcDbTrace
 10
8.768783281642729
 20
1.7199577893195
 30
0.0
 11
8.937749358113208
 21
1.772224472547337
 31
0.0
 12
8.882935219809365
 22
1.669134071964148
 32
0.0
 13
8.882935219809365
 23
1.669134071964148
 33
0.0
  0
SOLID
  5
324
330
2F8
100
AcDbEntity
  8
SOLID
 62
     1
100
AcDbTrace
 10
8.834707068052781
 20
1.740350152884122
 30
0.0
 11
8.885974656699984
 21
1.801448485838069
 31
0.0
 12
8.870641230585929
 22
1.751465753893571
 32
0.0
 13
8.897217520581028
 23
1.801448485838069
 33
0.0
  0
SOLID
  5
325
330
2F8
100
AcDbEntity
  8
SOLID
 62
     1
100
AcDbTrace
 10
8.839356104786135
 20
1.779709898068546
 30
0.0
 11
8.822168427478533
 21
1.759226421888862
 31
0.0
 12
8.859335484177783
 22
1.789026435684056
 32
0.0
 13
8.827542130581782
 23
1.751136592315402
 33
0.0
  0
SOLID
  5
326
330
2F8
100
AcDbEntity
  8
SOLID
 62
     1
100
AcDbTrace
 10
8.888464998265758
 20
1.653074429219956
 30
0.0
 11
8.960751962356022
 21
1.789026435684056
 31
0.0
 12
8.892612332108052
 22
1.641029697161812
 32
0.0
 13
8.96634990291487
 23
1.779709898068546
 33
0.0
  0
SOLID
  5
327
330
2F8
100
AcDbEntity
  8
SOLID
 62
     1
100
AcDbTrace
 10
8.895754237745254
 20
1.772236807647912
 30
0.0
 11
8.95003121496035
 21
1.789026435684056
 31
0.0
 12
8.904681441326159
 22
1.789026435684056
 32
0.0
 13
8.904681441326159
 23
1.789026435684056
 33
0.0
  0
SOLID
  5
328
330
2F8
100
AcDbEntity
  8
SOLID
 62
     1
100
AcDbTrace
 10
9.066585180362723
 20
1.82518819906379
 30
0.0
 11
9.113733813174338
 21
1.913861880597489
 31
0.0
 12
9.084870359939877
 22
1.839732887642179
 32
0.0
 13
9.13201899275149
 23
1.928406569175877
 33
0.0
  0
LINE
  5
329
330
2F8
100
AcDbEntity
  8
TRIM
100
AcDbLine
 10
10.66999999853406
 20
2.030339596352224
 30
0.0
 11
10.66999999853406
 21
2.652499998273461
 31
0.0
  0
LINE
  5
32A
330
2F8
100
AcDbEntity
  8
TRIM
100
AcDbLine
 10
9.462094455479999
 20
2.000339596352224
 30
0.0
 11
9.462094455480064
 21
0.6043154034249878
 31
0.0
  0
LINE
  5
32B
330
2F8
100
AcDbEntity
  8
TRIM
100
AcDbLine
 10
10.66999999853406
 20
0.6043154034249874
 30
0.0
 11
10.66999999853406
 21
2.000339596352224
 31
0.0
  0
LINE
  5
32C
330
2F8
100
AcDbEntity
  8
TRIM
100
AcDbLine
 10
9.462094455479999
 20
2.000339596352224
 30
0.0
 11
10.66999999853406
 21
2.000339596352224
 31
0.0
  0
LINE
  5
32D
330
2F8
100
AcDbEntity
  8
TRIM
100
AcDbLine
 10
9.432094455479997
 20
2.030339596352224
 30
0.0
 11
10.66999999853406
 21
2.030339596352224
 31
0.0
  0
TEXT
  5
32E
330
2F8
100
AcDbEntity
  8
DIM
100
AcDbText
 10
9.821579664239893
 20
1.865565403424988
 30
0.0
 40
0.09
  1
DATE
 41
0.9
 72
     1
 11
9.964293949954178
 21
1.865565403424988
 31
0.0
100
AcDbText
  0
LINE
  5
32F
330
2F8
100
AcDbEntity
  8
TRIM
100
AcDbLine
 10
10.24446826441905
 20
1.834315403424988
 30
0.0
 11
9.684119635489306
 21
1.834315403424988
 31
0.0
  0
LINE
  5
330
330
2F8
100
AcDbEntity
  8
TRIM
100
AcDbLine
 10
10.66999999853406
 20
1.654315403424988
 30
0.0
 11
9.462094455480011
 21
1.654315403424988
 31
0.0
  0
LINE
  5
331
330
2F8
100
AcDbEntity
  8
TRIM
100
AcDbLine
 10
9.684119635489306
 20
2.000339596352224
 30
0.0
 11
9.684119635489302
 21
0.9343154034249874
 31
0.0
  0
LINE
  5
332
330
2F8
100
AcDbEntity
  8
TRIM
100
AcDbLine
 10
9.432094455479997
 20
2.030339596352224
 30
0.0
 11
9.432094455480022
 21
1.474315403424987
 31
0.0
  0
TEXT
  5
333
330
2F8
100
AcDbEntity
  8
DIM
100
AcDbText
 10
9.477107045484656
 20
1.865565403424988
 30
0.0
 40
0.09
  1
REV
 41
0.8
 72
     1
 11
9.573107045484656
 21
1.865565403424988
 31
0.0
100
AcDbText
  0
LINE
  5
334
330
2F8
100
AcDbEntity
  8
TRIM
100
AcDbLine
 10
9.684119635489306
 20
1.834315403424988
 30
0.0
 11
9.462094455480006
 21
1.834315403424988
 31
0.0
  0
SOLID
  5
335
330
2F8
100
AcDbEntity
  8
SOLID
 62
     1
100
AcDbTrace
 10
9.336741622233388
 20
1.779709898068546
 30
0.0
 11
9.415805044717822
 21
1.928406569175877
 31
0.0
 12
9.331143681674539
 22
1.789026435684056
 32
0.0
 13
9.397519865140669
 23
1.913861880597488
 33
0.0
  0
SOLID
  5
336
330
2F8
100
AcDbEntity
  8
SOLID
 62
     1
100
AcDbTrace
 10
9.203204583077742
 20
1.779709898068546
 30
0.0
 11
9.336741622233388
 21
1.779709898068546
 31
0.0
 12
9.197606642518891
 22
1.789026435684056
 32
0.0
 13
9.331143681674539
 23
1.789026435684056
 33
0.0
  0
LINE
  5
337
330
2F8
100
AcDbEntity
  8
TRIM
100
AcDbLine
 10
10.24446826441905
 20
2.000339596352224
 30
0.0
 11
10.24446826441905
 21
0.934315403424987
 31
0.0
  0
TEXT
  5
338
330
2F8
100
AcDbEntity
  8
DIM
100
AcDbText
 10
10.2605817160691
 20
1.865565403424988
 30
0.0
 40
0.09
  1
INITIALS
 41
0.8
 72
     1
 11
10.46115314464053
 21
1.865565403424988
 31
0.0
100
AcDbText
  0
LINE
  5
339
330
2F8
100
AcDbEntity
  8
TRIM
100
AcDbLine
 10
10.66999999853406
 20
1.834315403424988
 30
0.0
 11
10.24446826441905
 21
1.834315403424988
 31
0.0
  0
LINE
  5
33A
330
2F8
100
AcDbEntity
  8
TRIM
100
AcDbLine
 10
0.2799999985341133
 20
0.5992358197914696
 30
0.0
 11
8.246999998534064
 21
0.5992358197914634
 31
0.0
  0
LINE
  5
33B
330
2F8
100
AcDbEntity
  8
TRIM
100
AcDbLine
 10
0.2799999985340644
 20
0.8884716413094695
 30
0.0
 11
8.246999998534064
 21
0.8884716413094633
 31
0.0
  0
LINE
  5
33C
330
2F8
100
AcDbEntity
  8
TRIM
100
AcDbLine
 10
0.2499999985340651
 20
0.249999998273462
 30
0.0
 11
10.69999999853406
 21
0.2499999982734629
 31
0.0
  0
LINE
  5
33D
330
2F8
100
AcDbEntity
  8
TRIM
100
AcDbLine
 10
0.2799999985340644
 20
0.5692358197914693
 30
0.0
 11
8.246999998534064
 21
0.5692358197914627
 31
0.0
  0
LINE
  5
33E
330
2F8
100
AcDbEntity
  8
TRIM
100
AcDbLine
 10
0.2799999985341133
 20
0.2799999982734693
 30
0.0
 11
8.246999998534064
 21
0.2799999982734627
 31
0.0
  0
LINE
  5
33F
330
2F8
100
AcDbEntity
  8
TRIM
100
AcDbLine
 10
0.2799999985340651
 20
1.237707462827464
 30
0.0
 11
4.373749998534062
 21
1.237707462827463
 31
0.0
  0
LINE
  5
340
330
2F8
100
AcDbEntity
  8
TRIM
100
AcDbLine
 10
0.2799999985341142
 20
1.207707462827464
 30
0.0
 11
3.562499998534065
 21
1.207707462827464
 31
0.0
  0
LINE
  5
341
330
2F8
100
AcDbEntity
  8
TRIM
100
AcDbLine
 10
0.2799999985340644
 20
0.9184716413094644
 30
0.0
 11
3.562499998534113
 21
0.9184716413094644
 31
0.0
  0
TEXT
  5
342
330
2F8
100
AcDbEntity
  8
TRIM
100
AcDbText
 10
0.3575473542991792
 20
0.6700287859488796
 30
0.0
 40
0.14
  1
DESCRIPTION:
 41
0.9
  7
SIMPLEX
100
AcDbText
  0
TEXT
  5
343
330
2F8
100
AcDbEntity
  8
TRIM
100
AcDbText
 10
0.3575473542991792
 20
0.3575287859488796
 30
0.0
 40
0.14
  1
EXTRA DESC:
 41
0.9
  7
SIMPLEX
100
AcDbText
  0
TEXT
  5
344
330
2F8
100
AcDbEntity
  8
TRIM
100
AcDbText
 10
0.3601805216547635
 20
0.9931394110287762
 30
0.0
 40
0.14
  1
PART NUMBER:
 41
0.8
  7
SIMPLEX
100
AcDbText
  0
LINE
  5
345
330
2F8
100
AcDbEntity
  8
TRIM
100
AcDbLine
 10
0.2799999985340644
 20
0.8884716413094695
 30
0.0
 11
0.2799999985341133
 21
0.5992358197914696
 31
0.0
  0
LINE
  5
346
330
2F8
100
AcDbEntity
  8
TRIM
100
AcDbLine
 10
0.2799999985340644
 20
0.5692358197914693
 30
0.0
 11
0.2799999985341133
 21
0.2799999982734693
 31
0.0
  0
LINE
  5
347
330
2F8
100
AcDbEntity
  8
TRIM
100
AcDbLine
 10
0.2799999985340653
 20
1.207707462827465
 30
0.0
 11
0.2799999985340644
 21
0.9184716413094644
 31
0.0
  0
LINE
  5
348
330
2F8
100
AcDbEntity
  8
TRIM
100
AcDbLine
 10
3.592499998534066
 20
1.207707462827464
 30
0.0
 11
4.343749998534065
 21
1.207707462827464
 31
0.0
  0
TEXT
  5
349
330
2F8
100
AcDbEntity
  8
DIM
 62
     1
100
AcDbText
 10
3.789702379486445
 20
1.103749998273462
 30
0.0
 40
0.08
  1
SHEET
 72
     1
 11
3.968749998534065
 21
1.103749998273462
 31
0.0
100
AcDbText
  0
LINE
  5
34A
330
2F8
100
AcDbEntity
  8
TRIM
100
AcDbLine
 10
3.592499998534066
 20
1.207707462827464
 30
0.0
 11
3.592499998534113
 21
0.9184716413094671
 31
0.0
  0
LINE
  5
34B
330
2F8
100
AcDbEntity
  8
TRIM
100
AcDbLine
 10
3.562499998534065
 20
1.207707462827464
 30
0.0
 11
3.562499998534113
 21
0.9184716413094644
 31
0.0
  0
LINE
  5
34C
330
2F8
100
AcDbEntity
  8
TRIM
100
AcDbLine
 10
4.373749998534062
 20
1.237707462827463
 30
0.0
 11
4.373749998534114
 21
0.9184716413094671
 31
0.0
  0
LINE
  5
34D
330
2F8
100
AcDbEntity
  8
TRIM
100
AcDbLine
 10
4.343749998534065
 20
1.207707462827464
 30
0.0
 11
4.343749998534113
 21
0.9184716413094644
 31
0.0
  0
LINE
  5
34E
330
2F8
100
AcDbEntity
  8
TRIM
100
AcDbLine
 10
4.373749998534114
 20
0.9184716413094662
 30
0.0
 11
8.246999998534064
 21
0.918471641309463
 31
0.0
  0
LINE
  5
34F
330
2F8
100
AcDbEntity
  8
TRIM
100
AcDbLine
 10
9.432094455480024
 20
1.474315403424987
 30
0.0
 11
8.276999998534062
 21
1.474315403424987
 31
0.0
  0
TEXT
  5
350
330
2F8
100
AcDbEntity
  8
DIM
100
AcDbText
 10
8.293249998534063
 20
0.5153392262302923
 30
0.0
 40
0.056
  1
DIMENSIONS IN 'INCHES' UNLESS SPECIFIED OTHERWISE
100
AcDbText
  0
LINE
  5
351
330
2F8
100
AcDbEntity
  8
TRIM
100
AcDbLine
 10
9.432094455480005
 20
1.294315403424988
 30
0.0
 11
8.276999998534051
 21
1.294315403424987
 31
0.0
  0
LINE
  5
352
330
2F8
100
AcDbEntity
  8
TRIM
100
AcDbLine
 10
9.432094455480024
 20
1.444315403424987
 30
0.0
 11
8.276999998534066
 21
1.444315403424987
 31
0.0
  0
LINE
  5
353
330
2F8
100
AcDbEntity
  8
TRIM
100
AcDbLine
 10
8.276999998534064
 20
0.324999998273463
 30
0.0
 11
10.66999999853406
 21
0.3249999982734621
 31
0.0
  0
LINE
  5
354
330
2F8
100
AcDbEntity
  8
TRIM
100
AcDbLine
 10
8.276999998534064
 20
0.474999998273463
 30
0.0
 11
10.66999999853406
 21
0.4749999982734625
 31
0.0
  0
TEXT
  5
355
330
2F8
100
AcDbEntity
  8
TRIM
100
AcDbText
 10
8.324563651603105
 20
0.8310145276027238
 30
0.0
 40
0.07
  1
PRINT APPROVED
 41
1.058889550608496
  7
SIMPLEX
 72
     5
 11
9.27403461531539
 21
0.8310145276027238
 31
0.0
100
AcDbText
  0
LINE
  5
356
330
2F8
100
AcDbEntity
  8
TRIM
100
AcDbLine
 10
9.432094455480063
 20
0.6043154034249878
 30
0.0
 11
8.276999998534064
 21
0.6043154034249878
 31
0.0
  0
LINE
  5
357
330
2F8
100
AcDbEntity
  8
TRIM
 62
     2
100
AcDbLine
 10
9.432094455480012
 20
1.114315403424987
 30
0.0
 11
8.276999998534064
 21
1.114315403424987
 31
0.0
  0
LINE
  5
358
330
2F8
100
AcDbEntity
  8
TRIM
100
AcDbLine
 10
9.432094455480017
 20
0.9343154034249874
 30
0.0
 11
8.276999998534064
 21
0.934315403424987
 31
0.0
  0
LINE
  5
359
330
2F8
100
AcDbEntity
  8
TRIM
 62
     2
100
AcDbLine
 10
9.432094455480024
 20
0.7957609724770878
 30
0.0
 11
8.276999998534064
 21
0.7957609724770878
 31
0.0
  0
LINE
  5
35A
330
2F8
100
AcDbEntity
  8
TRIM
100
AcDbLine
 10
9.432094455480031
 20
0.6043154034249874
 30
0.0
 11
8.276999998534064
 21
0.6043154034249874
 31
0.0
  0
LINE
  5
35B
330
2F8
100
AcDbEntity
  8
TRIM
100
AcDbLine
 10
8.246999998534064
 20
0.5992358197914598
 30
0.0
 11
8.246999998534064
 21
0.8884716413094597
 31
0.0
  0
LINE
  5
35C
330
2F8
100
AcDbEntity
  8
TRIM
100
AcDbLine
 10
8.276999998534064
 20
0.6043154034249878
 30
0.0
 11
8.276999998534064
 21
1.114315403424988
 31
0.0
  0
TEXT
  5
35D
330
2F8
100
AcDbEntity
  8
TRIM
100
AcDbText
 10
8.312499998534065
 20
0.3599999982734623
 30
0.0
 40
0.08
  1
FILE:
  7
SIMPLEX
100
AcDbText
  0
LINE
  5
35E
330
2F8
100
AcDbEntity
  8
TRIM
100
AcDbLine
 10
8.276999998534064
 20
0.3249999982734653
 30
0.0
 11
8.349999998534064
 21
0.3249999982734648
 31
0.0
  0
LINE
  5
35F
330
2F8
100
AcDbEntity
  8
TRIM
100
AcDbLine
 10
8.276999998534064
 20
0.3249999982734621
 30
0.0
 11
8.276999998534064
 21
0.474999998273463
 31
0.0
  0
LINE
  5
360
330
2F8
100
AcDbEntity
  8
TRIM
100
AcDbLine
 10
8.246999998534064
 20
0.2799999982734596
 30
0.0
 11
8.246999998534064
 21
0.5692358197914596
 31
0.0
  0
TEXT
  5
361
330
2F8
100
AcDbEntity
  8
TRIM
100
AcDbText
 10
8.324563651603092
 20
1.149568958550623
 30
0.0
 40
0.07
  1
PRINT DRAWN
 41
1.047995828933661
  7
SIMPLEX
 72
     5
 11
9.061654051286435
 21
1.149568958550623
 31
0.0
100
AcDbText
  0
TEXT
  5
362
330
2F8
100
AcDbEntity
  8
TRIM
100
AcDbText
 10
8.324583587926003
 20
1.317921744520258
 30
0.0
 40
0.09
  1
SCALE:
  7
SIMPLEX
100
AcDbText
  0
LINE
  5
363
330
2F8
100
AcDbEntity
  8
TRIM
100
AcDbLine
 10
8.276999998534064
 20
1.114315403424988
 30
0.0
 11
8.276999998534064
 21
1.444315403424987
 31
0.0
  0
LINE
  5
364
330
2F8
100
AcDbEntity
  8
TRIM
100
AcDbLine
 10
10.66999999853406
 20
0.6043154034249874
 30
0.0
 11
9.462094455480064
 21
0.6043154034249878
 31
0.0
  0
LINE
  5
365
330
2F8
100
AcDbEntity
  8
TRIM
100
AcDbLine
 10
10.66999999853406
 20
0.3249999982734621
 30
0.0
 11
10.66999999853406
 21
0.4749999982734625
 31
0.0
  0
LINE
  5
366
330
2F8
100
AcDbEntity
  8
TRIM
100
AcDbLine
 10
10.66999999853406
 20
0.934315403424987
 30
0.0
 11
9.462094455480039
 21
0.9343154034249874
 31
0.0
  0
LINE
  5
367
330
2F8
100
AcDbEntity
  8
TRIM
100
AcDbLine
 10
10.66999999853406
 20
1.114315403424987
 30
0.0
 11
9.462094455480032
 21
1.114315403424987
 31
0.0
  0
LINE
  5
368
330
2F8
100
AcDbEntity
  8
TRIM
100
AcDbLine
 10
10.66999999853406
 20
1.294315403424987
 30
0.0
 11
9.462094455480025
 21
1.294315403424988
 31
0.0
  0
LINE
  5
369
330
2F8
100
AcDbEntity
  8
TRIM
100
AcDbLine
 10
10.66999999853406
 20
1.474315403424987
 30
0.0
 11
9.462094455480018
 21
1.474315403424987
 31
0.0
  0
TEXT
  5
36A
330
2F8
100
AcDbEntity
  8
TRIM
100
AcDbText
 10
9.527645854177304
 20
0.8310145276027238
 30
0.0
 40
0.07
  1
DESIGN ENGINEER
  7
SIMPLEX
100
AcDbText
  0
LINE
  5
36B
330
2F8
100
AcDbEntity
  8
TRIM
 62
     2
100
AcDbLine
 10
10.66418891242604
 20
0.7957609724770874
 30
0.0
 11
9.462094455480064
 21
0.7957609724770878
 31
0.0
  0
LINE
  5
36C
330
2F8
100
AcDbEntity
  8
TRIM
100
AcDbLine
 10
9.432094455480024
 20
1.444315403424987
 30
0.0
 11
9.432094455480063
 21
0.6043154034249878
 31
0.0
  0
LINE
  5
36D
330
2F8
100
AcDbEntity
  8
TRIM
 62
     2
100
AcDbLine
 10
8.986598446570452
 20
0.7957609724770878
 30
0.0
 11
8.98659844657045
 21
0.6043154034249878
 31
0.0
  0
LINE
  5
36E
330
2F8
100
AcDbEntity
  8
TRIM
 62
     2
100
AcDbLine
 10
8.986598446570452
 20
1.114315403424987
 30
0.0
 11
8.986598446570452
 21
0.9343154034249874
 31
0.0
  0
LINE
  5
36F
330
2F8
100
AcDbEntity
  8
TRIM
100
AcDbLine
 10
3.592499998534113
 20
0.9184716413094671
 30
0.0
 11
4.343749998534113
 21
0.9184716413094662
 31
0.0
  0
ATTDEF
  5
370
330
2F8
100
AcDbEntity
  8
DIM
100
AcDbText
 10
1.748750001101063
 20
0.9930549840549819
 30
0.0
 40
0.13
  1

  7
SIMPLEX
100
AcDbAttributeDefinition
  3
PART_#
  2
PART_#
 70
     0
  0
ATTDEF
  5
371
330
2F8
100
AcDbEntity
  8
DIM
100
AcDbText
 10
1.754683743625886
 20
0.6688693887053426
 30
0.0
 40
0.13
  1

  7
SIMPLEX
100
AcDbAttributeDefinition
  3
PART_DESCRIPTION
  2
PART_DESCRIPTION
 70
     0
  0
ATTDEF
  5
372
330
2F8
100
AcDbEntity
  8
DIM
100
AcDbText
 10
1.75
 20
0.3555424452224223
 30
0.0
 40
0.13
  1

  7
SIMPLEX
100
AcDbAttributeDefinition
  3
EXTRA_DESCRIPTION
  2
EXTRA_DESCRIPTION
 70
     0
  0
ATTDEF
  5
373
330
2F8
100
AcDbEntity
  8
DIM
100
AcDbText
 10
3.96875
 20
1.0
 30
0.0
 40
0.1
  1

  7
SIMPLEX
 72
     4
 11
3.96875
 21
1.0
 31
0.0
100
AcDbAttributeDefinition
  3
SHEET
  2
SHEET
 70
     0
  0
ENDBLK
  5
375
330
2F8
100
AcDbEntity
  8
0
100
AcDbBlockEnd
  0
BLOCK
  5
378
330
376
100
AcDbEntity
  8
0
100
AcDbBlockBegin
  2
A$C56887695
 70
     2
 10
0.0
 20
0.0
 30
0.0
  3
A$C56887695
  1

  0
ATTDEF
  5
377
330
376
100
AcDbEntity
  8
DIM
100
AcDbText
 10
0.0000000016510064
 20
0.0076190448079387
 30
0.0
 40
0.08
  1

  7
SIMPLEX
100
AcDbAttributeDefinition
  3
FILE_NAME
  2
FILE_NAME
 70
     0
  0
ENDBLK
  5
379
330
376
100
AcDbEntity
  8
0
100
AcDbBlockEnd
  0
BLOCK
  5
37C
330
37A
100
AcDbEntity
  8
0
100
AcDbBlockBegin
  2
A$C406F4052
 70
     2
 10
0.0
 20
0.0
 30
0.0
  3
A$C406F4052
  1

  0
ATTDEF
  5
37B
330
37A
100
AcDbEntity
  8
DIM
100
AcDbText
 10
0.0000000097657775
 20
0.0000000059644165
 30
0.0
 40
0.08
  1

  7
SIMPLEX
100
AcDbAttributeDefinition
  3
DRAWING_SCALE
  2
SCALE
 70
     0
  0
ENDBLK
  5
37D
330
37A
100
AcDbEntity
  8
0
100
AcDbBlockEnd
  0
BLOCK
  5
380
330
37E
100
AcDbEntity
  8
0
100
AcDbBlockBegin
  2
A$C217D2A32
 70
     2
 10
0.0
 20
0.0
 30
0.0
  3
A$C217D2A32
  1

  0
ATTDEF
  5
37F
330
37E
100
AcDbEntity
  8
DIM
100
AcDbText
 10
0.1409523881144832
 20
0.0400000152139821
 30
0.0
 40
0.08
  1

  7
SIMPLEX
 72
     4
 11
0.1409523881144832
 21
0.0400000152139821
 31
0.0
100
AcDbAttributeDefinition
  3
DATE_DRAWN
  2
DATE
 70
     0
  0
ENDBLK
  5
381
330
37E
100
AcDbEntity
  8
0
100
AcDbBlockEnd
  0
BLOCK
  5
384
330
382
100
AcDbEntity
  8
0
100
AcDbBlockBegin
  2
A$C26835032
 70
     2
 10
0.0
 20
0.0
 30
0.0
  3
A$C26835032
  1

  0
ATTDEF
  5
383
330
382
100
AcDbEntity
  8
DIM
100
AcDbText
 10
0.1504761941594115
 20
0.0400000152139821
 30
0.0
 40
0.08
  1

  7
SIMPLEX
 72
     4
 11
0.1504761941594115
 21
0.0400000152139821
 31
0.0
100
AcDbAttributeDefinition
  3
DRAWN_BY?
  2
WHO?
 70
     0
  0
ENDBLK
  5
385
330
382
100
AcDbEntity
  8
0
100
AcDbBlockEnd
  0
BLOCK
  5
388
330
386
100
AcDbEntity
  8
0
100
AcDbBlockBegin
  2
A$C11730435
 70
     2
 10
0.0
 20
0.0
 30
0.0
  3
A$C11730435
  1

  0
ATTDEF
  5
387
330
386
100
AcDbEntity
  8
DIM
100
AcDbText
 10
0.1542857245995872
 20
0.0399999866443972
 30
0.0
 40
0.08
  1

  7
SCRIPT
 72
     4
 11
0.1542857245995872
 21
0.0399999866443972
 31
0.0
100
AcDbAttributeDefinition
  3
DATE_APPROVED
  2
DATE
 70
     0
  0
ENDBLK
  5
389
330
386
100
AcDbEntity
  8
0
100
AcDbBlockEnd
  0
BLOCK
  5
38C
330
38A
100
AcDbEntity
  8
0
100
AcDbBlockBegin
  2
A$C740A492C
 70
     2
 10
0.0
 20
0.0
 30
0.0
  3
A$C740A492C
  1

  0
ATTDEF
  5
38B
330
38A
100
AcDbEntity
  8
DIM
100
AcDbText
 10
0.1676190447818424
 20
0.0399999866443968
 30
0.0
 40
0.08
  1

  7
SCRIPT
 72
     4
 11
0.1676190447818424
 21
0.0399999866443968
 31
0.0
100
AcDbAttributeDefinition
  3
APPROVED_BY?
  2
WHO?
 70
     0
  0
ENDBLK
  5
38D
330
38A
100
AcDbEntity
  8
0
100
AcDbBlockEnd
  0
BLOCK
  5
390
330
38E
100
AcDbEntity
  8
0
100
AcDbBlockBegin
  2
A$C251463E3
 70
     2
 10
0.0
 20
0.0
 30
0.0
  3
A$C251463E3
  1

  0
ATTDEF
  5
38F
330
38E
100
AcDbEntity
  8
DIM
100
AcDbText
 10
-0.0076190422628919
 20
-0.0000000133556033
 30
0.0
 40
0.08
  1

  7
SCRIPT
 11
-0.0076190422628919
 21
0.0399999866443968
 31
0.0
100
AcDbAttributeDefinition
  3
ENGINEER_IN_CHARGE
  2
WHO?
 70
     0
 74
     2
  0
ENDBLK
  5
391
330
38E
100
AcDbEntity
  8
0
100
AcDbBlockEnd
  0
BLOCK
  5
394
330
392
100
AcDbEntity
  8
0
100
AcDbBlockBegin
  2
A$C46507260
 70
     0
 10
0.0
 20
0.0
 30
0.0
  3
A$C46507260
  1

  0
TEXT
  5
393
330
392
100
AcDbEntity
  8
DIM
100
AcDbText
 10
0.0000000011396958
 20
0.0000000091671084
 30
0.0
 40
0.04
  1
F04-0001-01 REV. 00
 72
     2
 11
0.6933333344730297
 21
0.0000000091671084
 31
0.0
100
AcDbText
  0
ENDBLK
  5
395
330
392
100
AcDbEntity
  8
0
100
AcDbBlockEnd
  0
BLOCK
  5
425
330
3A1
100
AcDbEntity
  8
0
100
AcDbBlockBegin
  2
tft_aprlist
 70
     2
 10
0.0
 20
0.0
 30
0.0
  3
tft_aprlist
  1

  0
INSERT
  5
3A2
330
3A1
100
AcDbEntity
  8
DIM
100
AcDbBlockReference
 66
     1
  2
A$C4FB65283
 10
0.9375
 20
-0.9375
 30
0.0
  0
ATTRIB
  5
3A3
330
3A2
100
AcDbEntity
  8
DIM
100
AcDbText
 10
0.937500002566999
 20
-0.8941666572544825
 30
0.0
 40
0.13
  1

  7
SIMPLEX
100
AcDbAttribute
  2
PART_#
 70
     0
  0
SEQEND
  5
3A4
330
3A2
100
AcDbEntity
  8
DIM
  0
LINE
  5
3A5
330
3A1
100
AcDbEntity
  8
TRIM
100
AcDbLine
 10
10.42
 20
3.919999999999998
 30
0.0
 11
0.0299999999999994
 21
3.919999999999998
 31
0.0
  0
LINE
  5
3A6
330
3A1
100
AcDbEntity
  8
TRIM
100
AcDbLine
 10
0.0000000000000004
 20
3.949999999999999
 30
0.0
 11
10.45
 21
3.949999999999999
 31
0.0
  0
LINE
  5
3A7
330
3A1
100
AcDbEntity
  8
TRIM
100
AcDbLine
 10
0.0299999999999994
 20
3.919999999999998
 30
0.0
 11
0.0300000000000001
 21
-2.962292535445997
 31
0.0
  0
LINE
  5
3A8
330
3A1
100
AcDbEntity
  8
TRIM
100
AcDbLine
 10
0.0
 20
3.949999999999999
 30
0.0
 11
0.0
 21
-3.95
 31
0.0
  0
LINE
  5
3A9
330
3A1
100
AcDbEntity
  8
TRIM
100
AcDbLine
 10
10.42
 20
-1.5175
 30
0.0
 11
10.42
 21
3.919999999999996
 31
0.0
  0
LINE
  5
3AA
330
3A1
100
AcDbEntity
  8
TRIM
100
AcDbLine
 10
10.45
 20
-3.950000000000002
 30
0.0
 11
10.45
 21
3.949999999999997
 31
0.0
  0
SOLID
  5
3AB
330
3A1
100
AcDbEntity
  8
SOLID
 62
     1
100
AcDbTrace
 10
8.850645716126262
 20
-2.583175278293517
 30
0.0
 11
8.953204584543676
 21
-2.390290100204915
 31
0.0
 12
8.844321505542426
 22
-2.575224655934988
 32
0.0
 13
8.947606643984826
 23
-2.380973562589405
 33
0.0
  0
SOLID
  5
3AC
330
3A1
100
AcDbEntity
  8
SOLID
 62
     1
100
AcDbTrace
 10
8.74363316304192
 20
-2.589343763358917
 30
0.0
 11
8.928899859358651
 21
-2.368551512435391
 31
0.0
 12
8.835889224763977
 22
-2.564623826123615
 32
0.0
 13
8.940142723239695
 23
-2.368551512435391
 33
0.0
  0
SOLID
  5
3AD
330
3A1
100
AcDbEntity
  8
SOLID
 62
     1
100
AcDbTrace
 10
8.775982482150034
 20
-2.368551512435392
 30
0.0
 11
9.123139627170399
 21
-2.27553103578049
 31
0.0
 12
9.073679762395343
 22
-2.368551512435391
 32
0.0
 13
9.073679762395343
 23
-2.368551512435391
 33
0.0
  0
SOLID
  5
3AE
330
3A1
100
AcDbEntity
  8
SOLID
 62
     1
100
AcDbTrace
 10
8.816585181828658
 20
-2.344811799209671
 30
0.0
 11
9.147519866606604
 21
-2.256138117675972
 31
0.0
 12
8.834870361405812
 22
-2.330267110631282
 32
0.0
 13
9.165805046183757
 23
-2.241593429097584
 33
0.0
  0
LINE
  5
3AF
330
3A1
100
AcDbEntity
  8
TRIM
100
AcDbLine
 10
10.42
 20
-1.5475
 30
0.0
 11
8.026999999999999
 21
-1.547499999999999
 31
0.0
  0
TEXT
  5
3B0
330
3A1
100
AcDbEntity
  8
TRIM
100
AcDbText
 10
8.09375
 20
-1.717123664042923
 30
0.0
 40
0.1
  1
TASK FORCE TIPS, INC.
 51
10.0
  7
ROMAND
100
AcDbText
  0
TEXT
  5
3B1
330
3A1
100
AcDbEntity
  8
TRIM
100
AcDbText
 10
8.128853320039944
 20
-2.15479946193006
 30
0.0
 40
0.09
  1
219-462-6161
  7
SIMPLEX
100
AcDbText
  0
TEXT
  5
3B2
330
3A1
100
AcDbEntity
  8
TRIM
 62
     2
100
AcDbText
 10
8.128853320039944
 20
-2.004135382055867
 30
0.0
 40
0.09
  1
VALPARAISO, IN 46383
  7
SIMPLEX
100
AcDbText
  0
TEXT
  5
3B3
330
3A1
100
AcDbEntity
  8
TRIM
 62
     2
100
AcDbText
 10
8.128853320039944
 20
-1.859417196791166
 30
0.0
 40
0.09
  1
2800 E. EVANS AVE.
  7
SIMPLEX
100
AcDbText
  0
LINE
  5
3B4
330
3A1
100
AcDbEntity
  8
TRIM
100
AcDbLine
 10
10.42
 20
-1.5175
 30
0.0
 11
7.997000000000003
 21
-1.5175
 31
0.0
  0
LINE
  5
3B5
330
3A1
100
AcDbEntity
  8
TRIM
100
AcDbLine
 10
8.026999999999997
 20
-2.695684594848474
 30
0.0
 11
8.026999999999999
 21
-1.547499999999999
 31
0.0
  0
LINE
  5
3B6
330
3A1
100
AcDbEntity
  8
TRIM
100
AcDbLine
 10
7.996999999999999
 20
-3.281528356963998
 30
0.0
 11
7.997000000000003
 21
-1.5175
 31
0.0
  0
SOLID
  5
3B7
330
3A1
100
AcDbEntity
  8
SOLID
 62
     1
100
AcDbTrace
 10
8.043289410762174
 20
-2.390290100204915
 30
0.0
 11
8.307257976534964
 21
-2.390290100204915
 31
0.0
 12
8.114055539671543
 22
-2.380973562589405
 32
0.0
 13
8.327237355926614
 23
-2.380973562589405
 33
0.0
  0
SOLID
  5
3B8
330
3A1
100
AcDbEntity
  8
SOLID
 62
     1
100
AcDbTrace
 10
8.043289410762174
 20
-2.390290100204915
 30
0.0
 11
8.598232942251094
 21
-2.241593429097584
 31
0.0
 12
8.114055539671543
 22
-2.380973562589405
 32
0.0
 13
8.579947762673942
 23
-2.256138117675972
 33
0.0
  0
SOLID
  5
3B9
330
3A1
100
AcDbEntity
  8
SOLID
 62
     1
100
AcDbTrace
 10
8.168609832132082
 20
-2.589343763358917
 30
0.0
 11
8.353876528448813
 21
-2.368551512435391
 31
0.0
 12
8.260865893854139
 22
-2.564623826123616
 32
0.0
 13
8.365119392329857
 23
-2.368551512435391
 33
0.0
  0
SOLID
  5
3BA
330
3A1
100
AcDbEntity
  8
SOLID
 62
     1
100
AcDbTrace
 10
8.107639478387344
 20
-2.628186162520601
 30
0.0
 11
8.307257976534964
 21
-2.390290100204915
 31
0.0
 12
8.133769629992231
 22
-2.611539420022737
 32
0.0
 13
8.327237355926614
 23
-2.380973562589405
 33
0.0
  0
SOLID
  5
3BB
330
3A1
100
AcDbEntity
  8
SOLID
 62
     1
100
AcDbTrace
 10
8.269298174632588
 20
-2.575224655934988
 30
0.0
 11
8.372583313074988
 21
-2.380973562589405
 31
0.0
 12
8.275622385216424
 22
-2.583175278293517
 32
0.0
 13
8.378181253633838
 23
-2.390290100204915
 33
0.0
  0
SOLID
  5
3BC
330
3A1
100
AcDbEntity
  8
SOLID
 62
     1
100
AcDbTrace
 10
8.519123824336961
 20
-2.473989674493337
 30
0.0
 11
8.389737608104452
 21
-2.628186162520601
 31
0.0
 12
8.534207787034425
 22
-2.470507267310368
 32
0.0
 13
8.415867759709337
 23
-2.611539420022737
 33
0.0
  0
SOLID
  5
3BD
330
3A1
100
AcDbEntity
  8
SOLID
 62
     1
100
AcDbTrace
 10
8.55772051493353
 20
-2.583175278293517
 30
0.0
 11
8.597274695487143
 21
-2.508784684111249
 31
0.0
 12
8.551396304349694
 22
-2.575224655934988
 32
0.0
 13
8.59312736164485
 23
-2.496739952053105
 33
0.0
  0
SOLID
  5
3BE
330
3A1
100
AcDbEntity
  8
SOLID
 62
     1
100
AcDbTrace
 10
8.902260686836452
 20
-2.380973562589405
 30
0.0
 11
8.708792960902071
 21
-2.611539420022736
 31
0.0
 12
8.882281307444802
 22
-2.390290100204915
 32
0.0
 13
8.682662809297184
 23
-2.628186162520601
 33
0.0
  0
SOLID
  5
3BF
330
3A1
100
AcDbEntity
  8
SOLID
 62
     1
100
AcDbTrace
 10
8.450707961849186
 20
-2.589343763358917
 30
0.0
 11
8.554319737297708
 21
-2.465864057733076
 31
0.0
 12
8.542964023571245
 22
-2.564623826123616
 32
0.0
 13
8.587597583188456
 23
-2.480680309308914
 33
0.0
  0
SOLID
  5
3C0
330
3A1
100
AcDbEntity
  8
SOLID
 62
     1
100
AcDbTrace
 10
8.389737608104452
 20
-2.628186162520601
 30
0.0
 11
8.55772051493353
 21
-2.583175278293517
 31
0.0
 12
8.415867759709337
 22
-2.611539420022737
 32
0.0
 13
8.551396304349694
 23
-2.575224655934988
 33
0.0
  0
SOLID
  5
3C1
330
3A1
100
AcDbEntity
  8
SOLID
 62
     1
100
AcDbTrace
 10
8.107639478387344
 20
-2.628186162520601
 30
0.0
 11
8.275622385216424
 21
-2.583175278293517
 31
0.0
 12
8.133769629992231
 22
-2.611539420022737
 32
0.0
 13
8.269298174632588
 23
-2.575224655934988
 33
0.0
  0
SOLID
  5
3C2
330
3A1
100
AcDbEntity
  8
SOLID
 62
     1
100
AcDbTrace
 10
8.682662809297184
 20
-2.628186162520601
 30
0.0
 11
8.850645716126262
 21
-2.583175278293517
 31
0.0
 12
8.708792960902071
 22
-2.611539420022736
 32
0.0
 13
8.844321505542426
 23
-2.575224655934988
 33
0.0
  0
SOLID
  5
3C3
330
3A1
100
AcDbEntity
  8
SOLID
 62
     1
100
AcDbTrace
 10
8.20841037821737
 20
-2.368551512435391
 30
0.0
 11
8.555567523237739
 21
-2.27553103578049
 31
0.0
 12
8.50610765846268
 22
-2.368551512435391
 32
0.0
 13
8.50610765846268
 23
-2.368551512435391
 33
0.0
  0
SOLID
  5
3C4
330
3A1
100
AcDbEntity
  8
SOLID
 62
     1
100
AcDbTrace
 10
8.372583313074988
 20
-2.380973562589405
 30
0.0
 11
8.609335485643718
 21
-2.380973562589405
 31
0.0
 12
8.378181253633838
 22
-2.390290100204915
 32
0.0
 13
8.58935610625207
 23
-2.390290100204915
 33
0.0
  0
SOLID
  5
3C5
330
3A1
100
AcDbEntity
  8
SOLID
 62
     1
100
AcDbTrace
 10
8.572168428944468
 20
-2.410773576384599
 30
0.0
 11
8.457090831512811
 21
-2.446370806652486
 31
0.0
 12
8.577542132047717
 22
-2.418863405958059
 32
0.0
 13
8.483530453625318
 23
-2.44794426478169
 33
0.0
  0
SOLID
  5
3C6
330
3A1
100
AcDbEntity
  8
SOLID
 62
     1
100
AcDbTrace
 10
8.457090831512811
 20
-2.446370806652486
 30
0.0
 11
8.519123824336961
 21
-2.473989674493337
 31
0.0
 12
8.483530453625318
 22
-2.44794426478169
 32
0.0
 13
8.534207787034425
 23
-2.470507267310368
 33
0.0
  0
SOLID
  5
3C7
330
3A1
100
AcDbEntity
  8
SOLID
 62
     1
100
AcDbTrace
 10
8.492196430183701
 20
-2.368551512435392
 30
0.0
 11
8.839353575204068
 21
-2.27553103578049
 31
0.0
 12
8.78989371042901
 22
-2.368551512435391
 32
0.0
 13
8.78989371042901
 23
-2.368551512435391
 33
0.0
  0
SOLID
  5
3C8
330
3A1
100
AcDbEntity
  8
SOLID
 62
     1
100
AcDbTrace
 10
8.710751963821957
 20
-2.380973562589405
 30
0.0
 11
8.902260686836452
 21
-2.380973562589405
 31
0.0
 12
8.716349904380805
 22
-2.390290100204915
 32
0.0
 13
8.882281307444802
 23
-2.390290100204915
 33
0.0
  0
SOLID
  5
3C9
330
3A1
100
AcDbEntity
  8
SOLID
 62
     1
100
AcDbTrace
 10
8.551084309439481
 20
-2.330267110631282
 30
0.0
 11
8.882018994217425
 21
-2.241593429097584
 31
0.0
 12
8.532799129862327
 22
-2.34481179920967
 32
0.0
 13
8.863733814640273
 23
-2.256138117675972
 33
0.0
  0
SOLID
  5
3CA
330
3A1
100
AcDbEntity
  8
SOLID
 62
     1
100
AcDbTrace
 10
8.532799129862327
 20
-2.34481179920967
 30
0.0
 11
8.579947762673942
 21
-2.256138117675972
 31
0.0
 12
8.551084309439481
 22
-2.330267110631282
 32
0.0
 13
8.598232942251094
 23
-2.241593429097584
 33
0.0
  0
SOLID
  5
3CB
330
3A1
100
AcDbEntity
  8
SOLID
 62
     1
100
AcDbTrace
 10
8.59312736164485
 20
-2.496739952053105
 30
0.0
 11
8.638464999731693
 21
-2.516925569053505
 31
0.0
 12
8.597274695487143
 22
-2.508784684111249
 32
0.0
 13
8.642612333573987
 23
-2.528970301111649
 33
0.0
  0
SOLID
  5
3CC
330
3A1
100
AcDbEntity
  8
SOLID
 62
     1
100
AcDbTrace
 10
8.518783283108664
 20
-2.450042208953961
 30
0.0
 11
8.687749359579143
 21
-2.397775525726124
 31
0.0
 12
8.6329352212753
 22
-2.500865926309313
 32
0.0
 13
8.6329352212753
 23
-2.500865926309313
 33
0.0
  0
SOLID
  5
3CD
330
3A1
100
AcDbEntity
  8
SOLID
 62
     1
100
AcDbTrace
 10
8.584707069518715
 20
-2.429649845389338
 30
0.0
 11
8.635974658165919
 21
-2.368551512435391
 31
0.0
 12
8.620641232051864
 22
-2.41853424437989
 32
0.0
 13
8.647217522046963
 23
-2.368551512435391
 33
0.0
  0
SOLID
  5
3CE
330
3A1
100
AcDbEntity
  8
SOLID
 62
     1
100
AcDbTrace
 10
8.58935610625207
 20
-2.390290100204915
 30
0.0
 11
8.572168428944468
 21
-2.410773576384599
 31
0.0
 12
8.609335485643718
 22
-2.380973562589405
 32
0.0
 13
8.577542132047717
 23
-2.418863405958059
 33
0.0
  0
SOLID
  5
3CF
330
3A1
100
AcDbEntity
  8
SOLID
 62
     1
100
AcDbTrace
 10
8.638464999731693
 20
-2.516925569053505
 30
0.0
 11
8.710751963821957
 21
-2.380973562589405
 31
0.0
 12
8.642612333573987
 22
-2.528970301111649
 32
0.0
 13
8.716349904380805
 23
-2.390290100204915
 33
0.0
  0
SOLID
  5
3D0
330
3A1
100
AcDbEntity
  8
SOLID
 62
     1
100
AcDbTrace
 10
8.645754239211189
 20
-2.397763190625549
 30
0.0
 11
8.700031216426285
 21
-2.380973562589405
 31
0.0
 12
8.654681442792094
 22
-2.380973562589405
 32
0.0
 13
8.654681442792094
 23
-2.380973562589405
 33
0.0
  0
SOLID
  5
3D1
330
3A1
100
AcDbEntity
  8
SOLID
 62
     1
100
AcDbTrace
 10
8.816585181828658
 20
-2.344811799209671
 30
0.0
 11
8.863733814640273
 21
-2.256138117675972
 31
0.0
 12
8.834870361405812
 22
-2.330267110631282
 32
0.0
 13
8.882018994217425
 23
-2.241593429097584
 33
0.0
  0
LINE
  5
3D2
330
3A1
100
AcDbEntity
  8
TRIM
100
AcDbLine
 10
10.42
 20
-2.169660401921237
 30
0.0
 11
10.42
 21
-1.5475
 31
0.0
  0
LINE
  5
3D3
330
3A1
100
AcDbEntity
  8
TRIM
100
AcDbLine
 10
9.212094456945933
 20
-2.199660401921237
 30
0.0
 11
9.212094456945999
 21
-3.595684594848474
 31
0.0
  0
LINE
  5
3D4
330
3A1
100
AcDbEntity
  8
TRIM
100
AcDbLine
 10
10.42
 20
-3.595684594848474
 30
0.0
 11
10.42
 21
-2.199660401921237
 31
0.0
  0
LINE
  5
3D5
330
3A1
100
AcDbEntity
  8
TRIM
100
AcDbLine
 10
9.212094456945933
 20
-2.199660401921237
 30
0.0
 11
10.42
 21
-2.199660401921237
 31
0.0
  0
LINE
  5
3D6
330
3A1
100
AcDbEntity
  8
TRIM
100
AcDbLine
 10
9.182094456945932
 20
-2.169660401921237
 30
0.0
 11
10.42
 21
-2.169660401921237
 31
0.0
  0
TEXT
  5
3D7
330
3A1
100
AcDbEntity
  8
DIM
100
AcDbText
 10
9.571579665705828
 20
-2.334434594848473
 30
0.0
 40
0.09
  1
DATE
 41
0.9
 72
     1
 11
9.714293951420113
 21
-2.334434594848473
 31
0.0
100
AcDbText
  0
LINE
  5
3D8
330
3A1
100
AcDbEntity
  8
TRIM
100
AcDbLine
 10
9.994468265884984
 20
-2.365684594848473
 30
0.0
 11
9.434119636955241
 21
-2.365684594848473
 31
0.0
  0
LINE
  5
3D9
330
3A1
100
AcDbEntity
  8
TRIM
100
AcDbLine
 10
10.42
 20
-2.545684594848474
 30
0.0
 11
9.212094456945946
 21
-2.545684594848474
 31
0.0
  0
LINE
  5
3DA
330
3A1
100
AcDbEntity
  8
TRIM
100
AcDbLine
 10
9.434119636955241
 20
-2.199660401921237
 30
0.0
 11
9.434119636955237
 21
-3.265684594848474
 31
0.0
  0
LINE
  5
3DB
330
3A1
100
AcDbEntity
  8
TRIM
100
AcDbLine
 10
9.182094456945932
 20
-2.169660401921237
 30
0.0
 11
9.182094456945957
 21
-2.695684594848474
 31
0.0
  0
TEXT
  5
3DC
330
3A1
100
AcDbEntity
  8
DIM
100
AcDbText
 10
9.227107046950591
 20
-2.334434594848473
 30
0.0
 40
0.09
  1
REV
 41
0.8
 72
     1
 11
9.323107046950591
 21
-2.334434594848473
 31
0.0
100
AcDbText
  0
LINE
  5
3DD
330
3A1
100
AcDbEntity
  8
TRIM
100
AcDbLine
 10
9.434119636955241
 20
-2.365684594848473
 30
0.0
 11
9.212094456945941
 21
-2.365684594848473
 31
0.0
  0
SOLID
  5
3DE
330
3A1
100
AcDbEntity
  8
SOLID
 62
     1
100
AcDbTrace
 10
9.086741623699323
 20
-2.390290100204915
 30
0.0
 11
9.165805046183757
 21
-2.241593429097584
 31
0.0
 12
9.081143683140474
 22
-2.380973562589405
 32
0.0
 13
9.147519866606604
 23
-2.256138117675972
 33
0.0
  0
SOLID
  5
3DF
330
3A1
100
AcDbEntity
  8
SOLID
 62
     1
100
AcDbTrace
 10
8.953204584543676
 20
-2.390290100204915
 30
0.0
 11
9.086741623699323
 21
-2.390290100204915
 31
0.0
 12
8.947606643984826
 22
-2.380973562589405
 32
0.0
 13
9.081143683140474
 23
-2.380973562589405
 33
0.0
  0
LINE
  5
3E0
330
3A1
100
AcDbEntity
  8
TRIM
100
AcDbLine
 10
9.994468265884982
 20
-2.199660401921237
 30
0.0
 11
9.994468265884982
 21
-3.265684594848475
 31
0.0
  0
TEXT
  5
3E1
330
3A1
100
AcDbEntity
  8
DIM
100
AcDbText
 10
10.01058171753503
 20
-2.334434594848473
 30
0.0
 40
0.09
  1
INITIALS
 41
0.8
 72
     1
 11
10.21115314610646
 21
-2.334434594848473
 31
0.0
100
AcDbText
  0
LINE
  5
3E2
330
3A1
100
AcDbEntity
  8
TRIM
100
AcDbLine
 10
10.42
 20
-2.365684594848473
 30
0.0
 11
9.994468265884984
 21
-2.365684594848473
 31
0.0
  0
LINE
  5
3E3
330
3A1
100
AcDbEntity
  8
TRIM
100
AcDbLine
 10
0.0300000000000482
 20
-3.600764178481992
 30
0.0
 11
7.996999999999999
 21
-3.600764178481998
 31
0.0
  0
LINE
  5
3E4
330
3A1
100
AcDbEntity
  8
TRIM
100
AcDbLine
 10
0.0299999999999994
 20
-3.311528356963992
 30
0.0
 11
7.996999999999999
 21
-3.311528356963998
 31
0.0
  0
LINE
  5
3E5
330
3A1
100
AcDbEntity
  8
TRIM
100
AcDbLine
 10
0.0
 20
-3.95
 30
0.0
 11
10.45
 21
-3.949999999999999
 31
0.0
  0
LINE
  5
3E6
330
3A1
100
AcDbEntity
  8
TRIM
100
AcDbLine
 10
0.0299999999999994
 20
-3.630764178481992
 30
0.0
 11
7.996999999999999
 21
-3.630764178481999
 31
0.0
  0
LINE
  5
3E7
330
3A1
100
AcDbEntity
  8
TRIM
100
AcDbLine
 10
0.0300000000000482
 20
-3.919999999999992
 30
0.0
 11
7.996999999999999
 21
-3.919999999999999
 31
0.0
  0
LINE
  5
3E8
330
3A1
100
AcDbEntity
  8
TRIM
100
AcDbLine
 10
0.0300000000000001
 20
-2.962292535445997
 30
0.0
 11
6.060374999999972
 21
-2.962292535446001
 31
0.0
  0
LINE
  5
3E9
330
3A1
100
AcDbEntity
  8
TRIM
100
AcDbLine
 10
0.0300000000000491
 20
-2.992292535445997
 30
0.0
 11
5.249124999999975
 21
-2.992292535445999
 31
0.0
  0
LINE
  5
3EA
330
3A1
100
AcDbEntity
  8
TRIM
100
AcDbLine
 10
0.0299999999999994
 20
-3.281528356963997
 30
0.0
 11
5.249125000000024
 21
-3.281528356964
 31
0.0
  0
TEXT
  5
3EB
330
3A1
100
AcDbEntity
  8
TRIM
100
AcDbText
 10
0.1075473557651141
 20
-3.529971212324582
 30
0.0
 40
0.14
  1
DESCRIPTION:
 41
0.9
  7
SIMPLEX
100
AcDbText
  0
TEXT
  5
3EC
330
3A1
100
AcDbEntity
  8
TRIM
100
AcDbText
 10
0.1075473557651141
 20
-3.842471212324582
 30
0.0
 40
0.14
  1
EXTRA DESC:
 41
0.9
  7
SIMPLEX
100
AcDbText
  0
TEXT
  5
3ED
330
3A1
100
AcDbEntity
  8
TRIM
100
AcDbText
 10
0.1101805231206985
 20
-3.206860587244686
 30
0.0
 40
0.14
  1
PART NUMBER:
 41
0.8
  7
SIMPLEX
100
AcDbText
  0
LINE
  5
3EE
330
3A1
100
AcDbEntity
  8
TRIM
100
AcDbLine
 10
0.0299999999999994
 20
-3.311528356963992
 30
0.0
 11
0.0300000000000482
 21
-3.600764178481992
 31
0.0
  0
LINE
  5
3EF
330
3A1
100
AcDbEntity
  8
TRIM
100
AcDbLine
 10
0.0299999999999994
 20
-3.630764178481992
 30
0.0
 11
0.0300000000000482
 21
-3.919999999999992
 31
0.0
  0
LINE
  5
3F0
330
3A1
100
AcDbEntity
  8
TRIM
100
AcDbLine
 10
0.0300000000000003
 20
-2.992292535445996
 30
0.0
 11
0.0299999999999994
 21
-3.281528356963997
 31
0.0
  0
LINE
  5
3F1
330
3A1
100
AcDbEntity
  8
TRIM
100
AcDbLine
 10
5.279124999999976
 20
-2.992292535445999
 30
0.0
 11
6.030374999999975
 21
-2.992292535445999
 31
0.0
  0
TEXT
  5
3F2
330
3A1
100
AcDbEntity
  8
DIM
 62
     1
100
AcDbText
 10
5.476327380952356
 20
-3.096250000000002
 30
0.0
 40
0.08
  1
SHEET
 72
     1
 11
5.655374999999975
 21
-3.096250000000002
 31
0.0
100
AcDbText
  0
LINE
  5
3F3
330
3A1
100
AcDbEntity
  8
TRIM
100
AcDbLine
 10
5.279124999999976
 20
-2.992292535445999
 30
0.0
 11
5.279125000000023
 21
-3.281528356963997
 31
0.0
  0
LINE
  5
3F4
330
3A1
100
AcDbEntity
  8
TRIM
100
AcDbLine
 10
5.249124999999975
 20
-2.992292535446
 30
0.0
 11
5.249125000000024
 21
-3.281528356964
 31
0.0
  0
LINE
  5
3F5
330
3A1
100
AcDbEntity
  8
TRIM
100
AcDbLine
 10
6.060374999999972
 20
-2.962292535446001
 30
0.0
 11
6.060375000000024
 21
-3.281528356963997
 31
0.0
  0
LINE
  5
3F6
330
3A1
100
AcDbEntity
  8
TRIM
100
AcDbLine
 10
6.030374999999975
 20
-2.992292535445999
 30
0.0
 11
6.030375000000024
 21
-3.281528356964
 31
0.0
  0
LINE
  5
3F7
330
3A1
100
AcDbEntity
  8
TRIM
100
AcDbLine
 10
6.060375000000024
 20
-3.281528356963998
 30
0.0
 11
7.996999999999999
 21
-3.281528356963999
 31
0.0
  0
LINE
  5
3F8
330
3A1
100
AcDbEntity
  8
TRIM
100
AcDbLine
 10
9.182094456945959
 20
-2.695684594848474
 30
0.0
 11
8.026999999999997
 21
-2.695684594848474
 31
0.0
  0
TEXT
  5
3F9
330
3A1
100
AcDbEntity
  8
DIM
100
AcDbText
 10
8.043249999999998
 20
-3.684660772043169
 30
0.0
 40
0.056
  1
DIMENSIONS IN 'INCHES' UNLESS SPECIFIED OTHERWISE
100
AcDbText
  0
LINE
  5
3FA
330
3A1
100
AcDbEntity
  8
TRIM
100
AcDbLine
 10
9.182094456945939
 20
-2.905684594848473
 30
0.0
 11
8.026999999999986
 21
-2.905684594848474
 31
0.0
  0
LINE
  5
3FB
330
3A1
100
AcDbEntity
  8
TRIM
100
AcDbLine
 10
9.182094456945959
 20
-2.725684594848474
 30
0.0
 11
8.027000000000001
 21
-2.725684594848474
 31
0.0
  0
LINE
  5
3FC
330
3A1
100
AcDbEntity
  8
TRIM
100
AcDbLine
 10
8.026999999999999
 20
-3.874999999999999
 30
0.0
 11
10.42
 21
-3.875
 31
0.0
  0
LINE
  5
3FD
330
3A1
100
AcDbEntity
  8
TRIM
100
AcDbLine
 10
8.026999999999999
 20
-3.724999999999999
 30
0.0
 11
10.42
 21
-3.724999999999999
 31
0.0
  0
TEXT
  5
3FE
330
3A1
100
AcDbEntity
  8
TRIM
100
AcDbText
 10
8.07456365306904
 20
-3.368985470670738
 30
0.0
 40
0.07
  1
PRINT APPROVED
 41
1.058889550608496
  7
SIMPLEX
 72
     5
 11
9.024034616781325
 21
-3.368985470670738
 31
0.0
100
AcDbText
  0
LINE
  5
3FF
330
3A1
100
AcDbEntity
  8
TRIM
100
AcDbLine
 10
9.182094456945998
 20
-3.595684594848474
 30
0.0
 11
8.026999999999999
 21
-3.595684594848474
 31
0.0
  0
LINE
  5
400
330
3A1
100
AcDbEntity
  8
TRIM
 62
     2
100
AcDbLine
 10
9.182094456945947
 20
-3.085684594848474
 30
0.0
 11
8.026999999999999
 21
-3.085684594848474
 31
0.0
  0
LINE
  5
401
330
3A1
100
AcDbEntity
  8
TRIM
100
AcDbLine
 10
9.182094456945952
 20
-3.265684594848474
 30
0.0
 11
8.026999999999999
 21
-3.265684594848475
 31
0.0
  0
LINE
  5
402
330
3A1
100
AcDbEntity
  8
TRIM
 62
     2
100
AcDbLine
 10
9.182094456945959
 20
-3.404239025796374
 30
0.0
 11
8.026999999999999
 21
-3.404239025796374
 31
0.0
  0
LINE
  5
403
330
3A1
100
AcDbEntity
  8
TRIM
100
AcDbLine
 10
9.182094456945966
 20
-3.595684594848474
 30
0.0
 11
8.026999999999999
 21
-3.595684594848474
 31
0.0
  0
LINE
  5
404
330
3A1
100
AcDbEntity
  8
TRIM
100
AcDbLine
 10
7.996999999999999
 20
-3.600764178482002
 30
0.0
 11
7.996999999999999
 21
-3.311528356964002
 31
0.0
  0
LINE
  5
405
330
3A1
100
AcDbEntity
  8
TRIM
100
AcDbLine
 10
8.026999999999999
 20
-3.595684594848474
 30
0.0
 11
8.026999999999999
 21
-3.085684594848474
 31
0.0
  0
TEXT
  5
406
330
3A1
100
AcDbEntity
  8
TRIM
100
AcDbText
 10
8.0625
 20
-3.839999999999999
 30
0.0
 40
0.08
  1
FILE:
  7
SIMPLEX
100
AcDbText
  0
LINE
  5
407
330
3A1
100
AcDbEntity
  8
TRIM
100
AcDbLine
 10
8.026999999999999
 20
-3.874999999999996
 30
0.0
 11
8.099999999999999
 21
-3.874999999999997
 31
0.0
  0
LINE
  5
408
330
3A1
100
AcDbEntity
  8
TRIM
100
AcDbLine
 10
8.026999999999999
 20
-3.875
 30
0.0
 11
8.026999999999999
 21
-3.724999999999999
 31
0.0
  0
LINE
  5
409
330
3A1
100
AcDbEntity
  8
TRIM
100
AcDbLine
 10
7.996999999999999
 20
-3.920000000000002
 30
0.0
 11
7.996999999999999
 21
-3.630764178482002
 31
0.0
  0
TEXT
  5
40A
330
3A1
100
AcDbEntity
  8
TRIM
100
AcDbText
 10
8.074563653069027
 20
-3.050431039722838
 30
0.0
 40
0.07
  1
PRINT DRAWN
 41
1.047995828933662
  7
SIMPLEX
 72
     5
 11
8.81165405275237
 21
-3.050431039722838
 31
0.0
100
AcDbText
  0
TEXT
  5
40B
330
3A1
100
AcDbEntity
  8
TRIM
100
AcDbText
 10
8.074583589391938
 20
-2.867078253753203
 30
0.0
 40
0.09
  1
SCALE:
  7
SIMPLEX
100
AcDbText
  0
LINE
  5
40C
330
3A1
100
AcDbEntity
  8
TRIM
100
AcDbLine
 10
8.026999999999999
 20
-3.085684594848474
 30
0.0
 11
8.026999999999999
 21
-2.725684594848474
 31
0.0
  0
LINE
  5
40D
330
3A1
100
AcDbEntity
  8
TRIM
100
AcDbLine
 10
10.42
 20
-3.595684594848474
 30
0.0
 11
9.212094456945999
 21
-3.595684594848474
 31
0.0
  0
LINE
  5
40E
330
3A1
100
AcDbEntity
  8
TRIM
100
AcDbLine
 10
10.42
 20
-3.875
 30
0.0
 11
10.42
 21
-3.724999999999999
 31
0.0
  0
LINE
  5
40F
330
3A1
100
AcDbEntity
  8
TRIM
100
AcDbLine
 10
10.42
 20
-3.265684594848475
 30
0.0
 11
9.212094456945974
 21
-3.265684594848474
 31
0.0
  0
LINE
  5
410
330
3A1
100
AcDbEntity
  8
TRIM
100
AcDbLine
 10
10.42
 20
-3.085684594848474
 30
0.0
 11
9.212094456945967
 21
-3.085684594848474
 31
0.0
  0
LINE
  5
411
330
3A1
100
AcDbEntity
  8
TRIM
100
AcDbLine
 10
10.42
 20
-2.905684594848474
 30
0.0
 11
9.21209445694596
 21
-2.905684594848473
 31
0.0
  0
LINE
  5
412
330
3A1
100
AcDbEntity
  8
TRIM
100
AcDbLine
 10
10.42
 20
-2.725684594848474
 30
0.0
 11
9.212094456945953
 21
-2.725684594848474
 31
0.0
  0
TEXT
  5
413
330
3A1
100
AcDbEntity
  8
TRIM
100
AcDbText
 10
9.277645855643239
 20
-3.368985470670738
 30
0.0
 40
0.07
  1
DESIGN ENGINEER
  7
SIMPLEX
100
AcDbText
  0
LINE
  5
414
330
3A1
100
AcDbEntity
  8
TRIM
 62
     2
100
AcDbLine
 10
10.41418891389197
 20
-3.404239025796374
 30
0.0
 11
9.212094456945999
 21
-3.404239025796374
 31
0.0
  0
LINE
  5
415
330
3A1
100
AcDbEntity
  8
TRIM
100
AcDbLine
 10
9.182094456945959
 20
-2.725684594848474
 30
0.0
 11
9.182094456945998
 21
-3.595684594848474
 31
0.0
  0
LINE
  5
416
330
3A1
100
AcDbEntity
  8
TRIM
 62
     2
100
AcDbLine
 10
8.736598448036387
 20
-3.404239025796374
 30
0.0
 11
8.736598448036385
 21
-3.595684594848474
 31
0.0
  0
LINE
  5
417
330
3A1
100
AcDbEntity
  8
TRIM
 62
     2
100
AcDbLine
 10
8.736598448036387
 20
-3.085684594848474
 30
0.0
 11
8.736598448036387
 21
-3.265684594848474
 31
0.0
  0
LINE
  5
418
330
3A1
100
AcDbEntity
  8
TRIM
100
AcDbLine
 10
5.279125000000023
 20
-3.281528356963997
 30
0.0
 11
6.030375000000023
 21
-3.281528356963998
 31
0.0
  0
ATTDEF
  5
419
330
3A1
100
AcDbEntity
  8
DIM
100
AcDbText
 10
1.498750002566998
 20
-3.20694501421848
 30
0.0
 40
0.13
  1

  7
SIMPLEX
100
AcDbAttributeDefinition
  3
PART_#
  2
PART_#
 70
     0
  0
ATTDEF
  5
41A
330
3A1
100
AcDbEntity
  8
DIM
100
AcDbText
 10
1.504683745091821
 20
-3.531130609568119
 30
0.0
 40
0.13
  1

  7
SIMPLEX
100
AcDbAttributeDefinition
  3
PART_DESCRIPTION
  2
PART_DESCRIPTION
 70
     0
  0
ATTDEF
  5
41B
330
3A1
100
AcDbEntity
  8
DIM
100
AcDbText
 10
1.500000001465934
 20
-3.844457553051039
 30
0.0
 40
0.13
  1

  7
SIMPLEX
100
AcDbAttributeDefinition
  3
EXTRA_DESCRIPTION
  2
EXTRA_DESCRIPTION
 70
     0
  0
ATTDEF
  5
41C
330
3A1
100
AcDbEntity
  8
DIM
100
AcDbText
 10
5.65537500146591
 20
-3.199999998273464
 30
0.0
 40
0.1
  1

  7
SIMPLEX
 72
     4
 11
5.65537500146591
 21
-3.199999998273464
 31
0.0
100
AcDbAttributeDefinition
  3
SHEET
  2
SHEET
 70
     0
  0
ATTDEF
  5
41D
330
3A1
100
AcDbEntity
  8
DIM
100
AcDbText
 10
8.370750001651005
 20
-3.841069024870303
 30
0.0
 40
0.08
  1

  7
SIMPLEX
100
AcDbAttributeDefinition
  3
FILE_NAME
  2
FILE_NAME
 70
     0
  0
ATTDEF
  5
41E
330
3A1
100
AcDbEntity
  8
DIM
100
AcDbText
 10
8.593750001465934
 20
-2.867243860095429
 30
0.0
 40
0.08
  1

  7
SIMPLEX
100
AcDbAttributeDefinition
  3
DRAWING_SCALE
  2
SCALE
 70
     0
  0
ATTDEF
  5
41F
330
3A1
100
AcDbEntity
  8
DIM
100
AcDbText
 10
8.381799224018193
 20
-3.175684594848474
 30
0.0
 40
0.08
  1

  7
SIMPLEX
 72
     4
 11
8.381799224018193
 21
-3.175684594848474
 31
0.0
100
AcDbAttributeDefinition
  3
DATE_DRAWN
  2
DATE
 70
     0
  0
ATTDEF
  5
420
330
3A1
100
AcDbEntity
  8
DIM
100
AcDbText
 10
8.959346452491169
 20
-3.175684594848474
 30
0.0
 40
0.08
  1

  7
SIMPLEX
 72
     4
 11
8.959346452491169
 21
-3.175684594848474
 31
0.0
100
AcDbAttributeDefinition
  3
DRAWN_BY?
  2
WHO?
 70
     0
  0
ATTDEF
  5
421
330
3A1
100
AcDbEntity
  8
DIM
100
AcDbText
 10
8.381799224018193
 20
-3.499961810322424
 30
0.0
 40
0.08
  1

  7
SCRIPT
 72
     4
 11
8.381799224018193
 21
-3.499961810322424
 31
0.0
100
AcDbAttributeDefinition
  3
DATE_APPROVED
  2
DATE
 70
     0
  0
ATTDEF
  5
422
330
3A1
100
AcDbEntity
  8
DIM
100
AcDbText
 10
8.959346452491192
 20
-3.499961810322424
 30
0.0
 40
0.08
  1

  7
SCRIPT
 72
     4
 11
8.959346452491192
 21
-3.499961810322424
 31
0.0
100
AcDbAttributeDefinition
  3
APPROVED_BY?
  2
WHO?
 70
     0
  0
ATTDEF
  5
423
330
3A1
100
AcDbEntity
  8
DIM
100
AcDbText
 10
9.277645855643239
 20
-3.539961810322424
 30
0.0
 40
0.08
  1

  7
SCRIPT
 11
9.277645855643239
 21
-3.499961810322424
 31
0.0
100
AcDbAttributeDefinition
  3
ENGINEER_IN_CHARGE
  2
WHO?
 70
     0
 74
     2
  0
TEXT
  5
424
330
3A1
100
AcDbEntity
  8
DIM
100
AcDbText
 10
9.716766296807861
 20
-3.931972942467266
 30
0.0
 40
0.04
  1
F04-0052-01 REV. 00
 72
     2
 11
10.41771867776024
 21
-3.931972942467266
 31
0.0
100
AcDbText
  0
ENDBLK
  5
426
330
3A1
100
AcDbEntity
  8
0
100
AcDbBlockEnd
  0
BLOCK
  5
442
330
43E
100
AcDbEntity
  8
0
100
AcDbBlockBegin
  2
rvsn_blk
 70
     2
 10
0.0
 20
0.0
 30
0.0
  3
rvsn_blk
  1

  0
ATTDEF
  5
43F
330
43E
100
AcDbEntity
  8
DIM
100
AcDbText
 10
-0.1443252782292399
 20
0.0442732402878181
 30
1.0
 40
0.07
  1

  7
SIMPLEX
100
AcDbAttributeDefinition
  3
REV_#
  2
X
 70
     0
  0
ATTDEF
  5
440
330
43E
100
AcDbEntity
  8
DIM
100
AcDbText
 10
0.269150253848311
 20
0.0469563354417511
 30
1.0
 40
0.07
  1

  7
SIMPLEX
 72
     1
 11
0.269150253848311
 21
0.0469563354417511
 31
1.0
100
AcDbAttributeDefinition
  3
DATE
  2
DATE
 70
     0
  0
ATTDEF
  5
441
330
43E
100
AcDbEntity
  8
DIM
100
AcDbText
 10
0.7631729674994113
 20
0.0469563354417511
 30
1.0
 40
0.07
  1

  7
SIMPLEX
 72
     1
 11
0.7631729674994113
 21
0.0469563354417511
 31
1.0
100
AcDbAttributeDefinition
  3
INITIALS
  2
XXX
 70
     0
  0
ENDBLK
  5
443
330
43E
100
AcDbEntity
  8
0
100
AcDbBlockEnd
  0
BLOCK
  5
4DB
330
4D4
100
AcDbEntity
  8
0
100
AcDbBlockBegin
  2
safety_sym
 70
     0
 10
0.0
 20
0.0
 30
0.0
  3
safety_sym
  1

  0
LWPOLYLINE
  5
4D5
330
4D4
100
AcDbEntity
  8
DIM
100
AcDbPolyline
 90
        6
 70
     1
 43
0.0
 10
0.7586602540378529
 20
1.0
 10
1.030015505349698
 20
1.0
 42
0.5773502691490997
 10
1.034345632368925
 20
1.007499999999473
 10
0.8986680066572922
 20
1.242500541085421
 42
0.5773502691903687
 10
0.8900077526194422
 20
1.242500541086464
 10
0.7543301270184882
 20
1.007499999999233
 42
0.5773502691306194
  0
CIRCLE
  5
4D6
330
4D4
100
AcDbEntity
  8
DIM
100
AcDbCircle
 10
0.8943378796935284
 20
1.038207085801228
 30
0.0
 40
0.016980927022768
  0
LINE
  5
4D7
330
4D4
100
AcDbEntity
  8
DIM
100
AcDbLine
 10
0.919391706448432
 20
1.152480373388871
 30
0.0
 11
0.9069475215547043
 21
1.074626752773892
 31
0.0
  0
LINE
  5
4D8
330
4D4
100
AcDbEntity
  8
DIM
100
AcDbLine
 10
0.8690346245147825
 20
1.154151758213688
 30
0.0
 11
0.8817256390380642
 21
1.074645183308409
 31
0.0
  0
ARC
  5
4D9
330
4D4
100
AcDbEntity
  8
DIM
100
AcDbCircle
 10
0.8943378796935284
 20
1.076414171602456
 30
0.0
 40
0.012735695267076
100
AcDbArc
 50
187.9842000023703
 51
351.9320638487962
  0
ARC
  5
4DA
330
4D4
100
AcDbEntity
  8
DIM
100
AcDbCircle
 10
0.8943378796935284
 20
1.157073574960604
 30
0.0
 40
0.0254713905341521
100
AcDbArc
 50
349.6111421845341
 51
186.5868839506858
  0
ENDBLK
  5
4DC
330
4D4
100
AcDbEntity
  8
0
100
AcDbBlockEnd
  0
BLOCK
  5
4E5
330
4DE
100
AcDbEntity
  8
0
100
AcDbBlockBegin
  2
rvsn_sym
 70
     2
 10
0.0
 20
0.0
 30
0.0
  3
rvsn_sym
  1

  0
ATTDEF
  5
4DF
330
4DE
100
AcDbEntity
  8
PART
 62
     2
100
AcDbText
 10
-0.0105718175815284
 20
-0.0211293743372223
 30
0.0
 40
0.07
  1

 72
     1
 11
-0.0105718175815284
 21
-0.0211293743372223
 31
0.0
100
AcDbAttributeDefinition
  3
REVISION_#
  2
#
 70
     0
  0
LINE
  5
4E0
330
4DE
100
AcDbEntity
  8
NOTES
100
AcDbLine
 10
-0.0640704948746427
 20
-0.0837435829103912
 30
0.0
 11
-0.0640704948746427
 21
0.0662564170896092
 31
0.0
  0
LINE
  5
4E1
330
4DE
100
AcDbEntity
  8
NOTES
100
AcDbLine
 10
-0.0640704948746427
 20
0.0662564170896092
 30
0.0
 11
0.0172516073044453
 21
0.0662564170896092
 31
0.0
  0
LINE
  5
4E2
330
4DE
100
AcDbEntity
  8
NOTES
100
AcDbLine
 10
-0.0640704948746427
 20
-0.053743582910391
 30
0.0
 11
0.0172516081509615
 21
-0.053743582910391
 31
0.0
  0
ARC
  5
4E3
330
4DE
100
AcDbEntity
  8
NOTES
100
AcDbCircle
 10
0.0172516073044453
 20
0.0062564170896091
 30
0.0
 40
0.06
100
AcDbArc
 50
270.0
 51
90.0
  0
LINE
  5
4E4
330
4DE
100
AcDbEntity
  8
NOTES
100
AcDbLine
 10
0.0172516073044453
 20
-0.053743582910391
 30
0.0
 11
0.0429016660194259
 21
-0.0837435829103912
 31
0.0
  0
ENDBLK
  5
4E6
330
4DE
100
AcDbEntity
  8
0
100
AcDbBlockEnd
  0
ENDSEC
  0
SECTION
  2
ENTITIES
  0
LINE
  5
1E
330
2
100
AcDbEntity
  8
PART
100
AcDbLine
 10
5.032401314577942
 20
3.73749999999999
 30
0.0
 11
5.03240131457797
 21
8.737499999999982
 31
0.0
  0
LINE
  5
20
330
2
100
AcDbEntity
  8
PART
100
AcDbLine
 10
7.6518853536659
 20
8.153821500967282
 30
0.0
 11
7.651885353665907
 21
9.434739286145926
 31
0.0
  0
LINE
  5
21
330
2
100
AcDbEntity
  8
PART
100
AcDbLine
 10
7.5893853536659
 20
8.473984494473448
 30
0.0
 11
7.5893853536659
 21
9.497239286145926
 31
0.0
  0
LINE
  5
22
330
2
100
AcDbEntity
  8
PART
100
AcDbLine
 10
7.301506200571441
 20
8.391450768830985
 30
0.0
 11
7.301506200571441
 21
9.434739286145926
 31
0.0
  0
LINE
  5
23
330
2
100
AcDbEntity
  8
PART
100
AcDbLine
 10
7.063619392753839
 20
6.237499999999982
 30
0.0
 11
7.063619392753853
 21
9.934578175895747
 31
0.0
  0
LINE
  5
24
330
2
100
AcDbEntity
  8
PART
100
AcDbLine
 10
5.089494148454175
 20
6.237499999999982
 30
0.0
 11
5.089494148454175
 21
9.212499999999984
 31
0.0
  0
LINE
  5
25
330
2
100
AcDbEntity
  8
PART
100
AcDbLine
 10
5.032401314577956
 20
6.237499999999982
 30
0.0
 11
5.032401314577956
 21
9.155407166123762
 31
0.0
  0
LINE
  5
26
330
2
100
AcDbEntity
  8
PART
100
AcDbLine
 10
6.0893853536659
 20
6.237499999999982
 30
0.0
 11
6.0893853536659
 21
9.934578175895747
 31
0.0
  0
LINE
  5
27
330
2
100
AcDbEntity
  8
PART
100
AcDbLine
 10
7.063619392753853
 20
9.285890779630783
 30
0.0
 11
7.239006200571441
 21
9.285890779630783
 31
0.0
  0
LINE
  5
28
330
2
100
AcDbEntity
  8
PART
100
AcDbLine
 10
7.364006200571441
 20
9.497239286145926
 30
0.0
 11
7.5893853536659
 21
9.497239286145926
 31
0.0
  0
ARC
  5
29
330
2
100
AcDbEntity
  8
PART
100
AcDbCircle
 10
7.5893853536659
 20
9.434739286145926
 30
0.0
 40
0.0625
100
AcDbArc
 50
0.0
 51
89.99999999999992
  0
ARC
  5
2A
330
2
100
AcDbEntity
  8
PART
100
AcDbCircle
 10
7.364006200571441
 20
9.434739286145926
 30
0.0
 40
0.0625
100
AcDbArc
 50
90.0
 51
180.0
  0
ARC
  5
2B
330
2
100
AcDbEntity
  8
PART
100
AcDbCircle
 10
7.239006200571441
 20
9.348390779630783
 30
0.0
 40
0.0625
100
AcDbArc
 50
270.0
 51
0.0000000000000799
  0
LINE
  5
2C
330
2
100
AcDbEntity
  8
PART
100
AcDbLine
 10
5.089494148454168
 20
9.212499999999984
 30
0.0
 11
6.0893853536659
 21
9.212499999999984
 31
0.0
  0
LINE
  5
2D
330
2
100
AcDbEntity
  8
PART
100
AcDbLine
 10
5.313719392753842
 20
9.682377567173062
 30
0.0
 11
6.0893853536659
 21
9.682377567173062
 31
0.0
  0
LINE
  5
2E
330
2
100
AcDbEntity
  8
PART
100
AcDbLine
 10
5.839761420921139
 20
9.809119396460719
 30
0.0
 11
6.0893853536659
 21
9.809119396460719
 31
0.0
  0
LINE
  5
2F
330
2
100
AcDbEntity
  8
PART
100
AcDbLine
 10
5.795262527927096
 20
9.790506735435695
 30
0.0
 11
5.706976257580581
 21
9.700990228198087
 31
0.0
  0
ARC
  5
30
330
2
100
AcDbEntity
  8
PART
100
AcDbCircle
 10
5.839761420921139
 20
9.746619396460719
 30
0.0
 40
0.0625
100
AcDbArc
 50
90.00000000000007
 51
135.3964294473453
  0
ARC
  5
31
330
2
100
AcDbEntity
  8
PART
100
AcDbCircle
 10
5.662477364586539
 20
9.744877567173062
 30
0.0
 40
0.0625
100
AcDbArc
 50
269.9999999999999
 51
315.3964294473453
  0
ARC
  5
32
330
2
100
AcDbEntity
  8
PART
100
AcDbCircle
 10
5.313719392753842
 20
9.588577567173064
 30
0.0
 40
0.0938
100
AcDbArc
 50
89.99999999999992
 51
180.0000000000003
  0
LINE
  5
33
330
2
100
AcDbEntity
  8
PART
100
AcDbLine
 10
5.21991939275384
 20
9.588577567173064
 30
0.0
 11
5.21991939275384
 21
9.212499999999984
 31
0.0
  0
ARC
  5
34
330
2
100
AcDbEntity
  8
PART
100
AcDbCircle
 10
6.865697568649611
 20
9.934578175895747
 30
0.0
 40
0.1979218241042345
100
AcDbArc
 50
0.0
 51
90.0
  0
LINE
  5
35
330
2
100
AcDbEntity
  8
PART
100
AcDbLine
 10
6.865697568649611
 20
10.13249999999998
 30
0.0
 11
6.287307177770134
 21
10.13249999999998
 31
0.0
  0
ARC
  5
36
330
2
100
AcDbEntity
  8
PART
100
AcDbCircle
 10
6.287307177770134
 20
9.934578175895747
 30
0.0
 40
0.1979218241042345
100
AcDbArc
 50
90.0
 51
180.0
  0
LINE
  5
37
330
2
100
AcDbEntity
  8
PART
100
AcDbLine
 10
5.089494148454168
 20
9.212499999999984
 30
0.0
 11
5.032401314577956
 21
9.155407166123762
 31
0.0
  0
LINE
  5
38
330
2
100
AcDbEntity
  8
PART
100
AcDbLine
 10
6.0893853536659
 20
6.237499999999982
 30
0.0
 11
6.0893853536659
 21
2.540421824104214
 31
0.0
  0
LINE
  5
39
330
2
100
AcDbEntity
  8
PART
100
AcDbLine
 10
7.063619392753839
 20
6.237499999999982
 30
0.0
 11
7.063619392753853
 21
2.540421824104214
 31
0.0
  0
LINE
  5
3A
330
2
100
AcDbEntity
  8
PART
100
AcDbLine
 10
5.032401314577956
 20
6.237499999999982
 30
0.0
 11
5.032401314577956
 21
3.3195928338762
 31
0.0
  0
LINE
  5
3B
330
2
100
AcDbEntity
  8
PART
100
AcDbLine
 10
5.089494148454175
 20
6.237499999999982
 30
0.0
 11
5.089494148454175
 21
3.262499999999981
 31
0.0
  0
LINE
  5
3C
330
2
100
AcDbEntity
  8
PART
100
AcDbLine
 10
5.032401314577956
 20
3.737499999999982
 30
0.0
 11
5.032401314577956
 21
8.737499999999986
 31
0.0
  0
LINE
  5
3D
330
2
100
AcDbEntity
  8
PART
100
AcDbLine
 10
7.063619392753846
 20
8.091321500967282
 30
0.0
 11
7.5893853536659
 21
8.091321500967282
 31
0.0
  0
LINE
  5
3E
330
2
100
AcDbEntity
  8
PART
100
AcDbLine
 10
7.063619392753846
 20
8.328950768830985
 30
0.0
 11
7.239006200571441
 21
8.328950768830985
 31
0.0
  0
LINE
  5
3F
330
2
100
AcDbEntity
  8
PART
100
AcDbLine
 10
7.301506200571441
 20
8.473984494473448
 30
0.0
 11
7.5893853536659
 21
8.473984494473448
 31
0.0
  0
ARC
  5
40
330
2
100
AcDbEntity
  8
PART
100
AcDbCircle
 10
7.5893853536659
 20
8.411484494473448
 30
0.0
 40
0.0625
100
AcDbArc
 50
360.0
 51
90.0
  0
ARC
  5
41
330
2
100
AcDbEntity
  8
PART
100
AcDbCircle
 10
7.5893853536659
 20
8.153821500967282
 30
0.0
 40
0.0625
100
AcDbArc
 50
270.0
 51
0.0
  0
ARC
  5
42
330
2
100
AcDbEntity
  8
PART
100
AcDbCircle
 10
7.239006200571441
 20
8.391450768830985
 30
0.0
 40
0.0625
100
AcDbArc
 50
270.0
 51
0.0000000000000799
  0
LINE
  5
43
330
2
100
AcDbEntity
  8
PART
100
AcDbLine
 10
5.347171835750589
 20
6.4375
 30
0.0
 11
6.0893853536659
 21
6.437499999999992
 31
0.0
  0
LINE
  5
44
330
2
100
AcDbEntity
  8
PART
100
AcDbLine
 10
5.347171835750589
 20
6.037499999999965
 30
0.0
 11
6.0893853536659
 21
6.037499999999972
 31
0.0
  0
ARC
  5
45
330
2
100
AcDbEntity
  8
PART
100
AcDbCircle
 10
5.347171835750589
 20
6.278908794788279
 30
0.0
 40
0.1585912052117264
100
AcDbArc
 50
89.99999999999927
 51
180.0
  0
LINE
  5
46
330
2
100
AcDbEntity
  8
PART
100
AcDbLine
 10
5.188580630538869
 20
6.237499999999982
 30
0.0
 11
5.188580630538869
 21
6.278908794788279
 31
0.0
  0
LINE
  5
47
330
2
100
AcDbEntity
  8
PART
100
AcDbLine
 10
5.188580630538869
 20
6.237499999999982
 30
0.0
 11
5.188580630538869
 21
6.196091205211686
 31
0.0
  0
ARC
  5
48
330
2
100
AcDbEntity
  8
PART
100
AcDbCircle
 10
5.347171835750589
 20
6.196091205211686
 30
0.0
 40
0.1585912052117264
100
AcDbArc
 50
180.0
 51
270.0000000000007
  0
LINE
  5
49
330
2
100
AcDbEntity
  8
PART
100
AcDbLine
 10
7.063619392753853
 20
3.189109220369182
 30
0.0
 11
7.239006200571441
 21
3.189109220369182
 31
0.0
  0
LINE
  5
4A
330
2
100
AcDbEntity
  8
PART
100
AcDbLine
 10
7.063619392753846
 20
4.383678499032683
 30
0.0
 11
7.5893853536659
 21
4.383678499032683
 31
0.0
  0
LINE
  5
4B
330
2
100
AcDbEntity
  8
PART
100
AcDbLine
 10
7.063619392753846
 20
4.14604923116898
 30
0.0
 11
7.239006200571441
 21
4.14604923116898
 31
0.0
  0
ARC
  5
4C
330
2
100
AcDbEntity
  8
PART
100
AcDbCircle
 10
7.239006200571441
 20
4.08354923116898
 30
0.0
 40
0.0625
100
AcDbArc
 50
0.0
 51
90.0
  0
LINE
  5
4D
330
2
100
AcDbEntity
  8
PART
100
AcDbLine
 10
7.6518853536659
 20
4.321178499032683
 30
0.0
 11
7.651885353665907
 21
3.040260713854038
 31
0.0
  0
ARC
  5
4E
330
2
100
AcDbEntity
  8
PART
100
AcDbCircle
 10
7.5893853536659
 20
4.321178499032683
 30
0.0
 40
0.0625
100
AcDbArc
 50
0.0
 51
90.0
  0
LINE
  5
4F
330
2
100
AcDbEntity
  8
PART
100
AcDbLine
 10
7.364006200571441
 20
2.977760713854038
 30
0.0
 11
7.5893853536659
 21
2.977760713854038
 31
0.0
  0
ARC
  5
50
330
2
100
AcDbEntity
  8
PART
100
AcDbCircle
 10
7.5893853536659
 20
3.040260713854038
 30
0.0
 40
0.0625
100
AcDbArc
 50
270.0000000000001
 51
0.0
  0
ARC
  5
51
330
2
100
AcDbEntity
  8
PART
100
AcDbCircle
 10
7.239006200571441
 20
3.126609220369182
 30
0.0
 40
0.0625
100
AcDbArc
 50
360.0
 51
90.0
  0
ARC
  5
52
330
2
100
AcDbEntity
  8
PART
100
AcDbCircle
 10
7.364006200571441
 20
3.040260713854038
 30
0.0
 40
0.0625
100
AcDbArc
 50
180.0
 51
270.0
  0
LINE
  5
53
330
2
100
AcDbEntity
  8
PART
100
AcDbLine
 10
7.301506200571441
 20
4.001015505526517
 30
0.0
 11
7.5893853536659
 21
4.001015505526517
 31
0.0
  0
LINE
  5
54
330
2
100
AcDbEntity
  8
PART
100
AcDbLine
 10
7.5893853536659
 20
4.001015505526517
 30
0.0
 11
7.5893853536659
 21
2.977760713854038
 31
0.0
  0
ARC
  5
55
330
2
100
AcDbEntity
  8
PART
100
AcDbCircle
 10
7.5893853536659
 20
4.063515505526517
 30
0.0
 40
0.0625
100
AcDbArc
 50
270.0
 51
0.0000000000000799
  0
LINE
  5
56
330
2
100
AcDbEntity
  8
PART
100
AcDbLine
 10
7.301506200571441
 20
4.08354923116898
 30
0.0
 11
7.301506200571441
 21
3.040260713854038
 31
0.0
  0
LINE
  5
57
330
2
100
AcDbEntity
  8
PART
100
AcDbLine
 10
5.089494148454168
 20
3.262499999999981
 30
0.0
 11
6.0893853536659
 21
3.262499999999981
 31
0.0
  0
LINE
  5
58
330
2
100
AcDbEntity
  8
PART
100
AcDbLine
 10
5.313719392753842
 20
2.792622432826902
 30
0.0
 11
6.0893853536659
 21
2.792622432826902
 31
0.0
  0
ARC
  5
59
330
2
100
AcDbEntity
  8
PART
100
AcDbCircle
 10
5.662477364586539
 20
2.730122432826902
 30
0.0
 40
0.0625
100
AcDbArc
 50
44.60357055265467
 51
90.00000000000007
  0
ARC
  5
5A
330
2
100
AcDbEntity
  8
PART
100
AcDbCircle
 10
5.839761420921139
 20
2.72838060353925
 30
0.0
 40
0.0625
100
AcDbArc
 50
224.6035705526548
 51
269.9999999999999
  0
LINE
  5
5B
330
2
100
AcDbEntity
  8
PART
100
AcDbLine
 10
5.795262527927096
 20
2.684493264564267
 30
0.0
 11
5.706976257580581
 21
2.774009771801878
 31
0.0
  0
LINE
  5
5C
330
2
100
AcDbEntity
  8
PART
100
AcDbLine
 10
5.839761420921139
 20
2.66588060353925
 30
0.0
 11
6.0893853536659
 21
2.66588060353925
 31
0.0
  0
LINE
  5
5D
330
2
100
AcDbEntity
  8
PART
100
AcDbLine
 10
5.21991939275384
 20
2.886422432826904
 30
0.0
 11
5.21991939275384
 21
3.262499999999981
 31
0.0
  0
ARC
  5
5E
330
2
100
AcDbEntity
  8
PART
100
AcDbCircle
 10
5.313719392753842
 20
2.886422432826904
 30
0.0
 40
0.0938
100
AcDbArc
 50
179.9999999999996
 51
270.0000000000001
  0
LINE
  5
5F
330
2
100
AcDbEntity
  8
PART
100
AcDbLine
 10
5.089494148454168
 20
3.262499999999981
 30
0.0
 11
5.032401314577956
 21
3.3195928338762
 31
0.0
  0
LINE
  5
60
330
2
100
AcDbEntity
  8
PART
100
AcDbLine
 10
6.865697568649611
 20
2.342499999999986
 30
0.0
 11
6.287307177770134
 21
2.342499999999986
 31
0.0
  0
ARC
  5
61
330
2
100
AcDbEntity
  8
PART
100
AcDbCircle
 10
6.287307177770134
 20
2.540421824104214
 30
0.0
 40
0.1979218241042345
100
AcDbArc
 50
180.0
 51
270.0
  0
ARC
  5
62
330
2
100
AcDbEntity
  8
PART
100
AcDbCircle
 10
6.865697568649611
 20
2.540421824104214
 30
0.0
 40
0.1979218241042345
100
AcDbArc
 50
270.0
 51
0.0
  0
LINE
  5
1FB
330
2
100
AcDbEntity
  8
PART
100
AcDbLine
 10
3.865875648044461
 20
3.745945425361891
 30
0.0
 11
0.5740634100526912
 21
2.547823753939663
 31
0.0
  0
ARC
  5
204
330
2
100
AcDbEntity
  8
PART
100
AcDbCircle
 10
0.4586640333774419
 20
2.682143160563775
 30
0.0
 40
0.0625
100
AcDbArc
 50
19.99999999999969
 51
110.0
  0
LINE
  5
205
330
2
100
AcDbEntity
  8
PART
100
AcDbLine
 10
0.5740634100526912
 20
2.547823753939663
 30
0.0
 11
-0.547997924283429
 21
5.630661933269565
 31
0.0
  0
ARC
  5
207
330
2
100
AcDbEntity
  8
PART
100
AcDbCircle
 10
-0.6067287130820099
 20
5.609285674311895
 30
0.0
 40
0.0625
100
AcDbArc
 50
289.9999999999995
 51
19.99999999999951
  0
ARC
  5
211
330
2
100
AcDbEntity
  8
PART
100
AcDbCircle
 10
-0.6067287130820063
 20
6.865714325688074
 30
0.0
 40
0.0625
100
AcDbArc
 50
339.9999999999994
 51
70.00000000000042
  0
LINE
  5
212
330
2
100
AcDbEntity
  8
PART
100
AcDbLine
 10
-0.7307516613173064
 20
6.342226300907206
 30
0.0
 11
-0.547997924282889
 21
6.84433806673022
 31
0.0
  0
LINE
  5
213
330
2
100
AcDbEntity
  8
PART
100
AcDbLine
 10
-0.7307516613173064
 20
6.132773699092773
 30
0.0
 11
-0.7307516613173064
 21
6.342226300907206
 31
0.0
  0
LINE
  5
214
330
2
100
AcDbEntity
  8
PART
100
AcDbLine
 10
-0.7307516613173064
 20
6.132773699092773
 30
0.0
 11
-0.5479979242828854
 21
5.630661933269752
 31
0.0
  0
LINE
  5
21C
330
2
100
AcDbEntity
  8
PART
100
AcDbLine
 10
3.842672049736695
 20
3.737500006249995
 30
0.0
 11
5.032401314577956
 21
3.737500006249998
 31
0.0
  0
LINE
  5
21D
330
2
100
AcDbEntity
  8
PART
100
AcDbLine
 10
3.865875648044475
 20
8.729054574638082
 30
0.0
 11
0.5740634100526698
 21
9.927176246060327
 31
0.0
  0
LINE
  5
21E
330
2
100
AcDbEntity
  8
PART
100
AcDbLine
 10
-0.5479979242828481
 20
6.844338066730207
 30
0.0
 11
0.574063410052677
 21
9.927176246060341
 31
0.0
  0
ARC
  5
21F
330
2
100
AcDbEntity
  8
PART
100
AcDbCircle
 10
0.4586640333774632
 20
9.79285683943619
 30
0.0
 40
0.0625
100
AcDbArc
 50
249.9999999999995
 51
339.9999999999998
  0
LINE
  5
228
330
2
100
AcDbEntity
  8
PART
100
AcDbLine
 10
3.842672049736695
 20
8.737499993749985
 30
0.0
 11
5.032401314577956
 21
8.737499993749985
 31
0.0
  0
LINE
  5
229
330
2
100
AcDbEntity
  8
PART
100
AcDbLine
 10
5.032401314577956
 20
3.737500006249998
 30
0.0
 11
5.032401314577956
 21
8.737499993749985
 31
0.0
  0
ARC
  5
230
330
2
100
AcDbEntity
  8
PART
100
AcDbCircle
 10
1.383084367106992
 20
6.237499999999982
 30
0.0
 40
0.75
100
AcDbArc
 50
95.06279770078442
 51
264.9372022992156
  0
ARC
  5
231
330
2
100
AcDbEntity
  8
PART
100
AcDbCircle
 10
1.383084367106992
 20
6.237499999999982
 30
0.0
 40
0.8156164974804127
100
AcDbArc
 50
95.06279770078441
 51
134.9848251383175
  0
LINE
  5
232
330
2
100
AcDbEntity
  8
PART
100
AcDbLine
 10
1.316898707525105
 20
5.490426068942483
 30
0.0
 11
5.032401314577956
 21
5.170939814038025
 31
0.0
  0
LINE
  5
233
330
2
100
AcDbEntity
  8
PART
100
AcDbLine
 10
3.842672049736695
 20
5.245788788782078
 30
0.0
 11
1.311108212638181
 21
5.42506556932259
 31
0.0
  0
ARC
  5
234
330
2
100
AcDbEntity
  8
PART
100
AcDbCircle
 10
0.011101314577946
 20
6.237499999999982
 30
0.0
 40
1.073223302020297
100
AcDbArc
 50
289.9999999999995
 51
323.5538982173468
  0
ARC
  5
235
330
2
100
AcDbEntity
  8
PART
100
AcDbCircle
 10
1.383084367106992
 20
6.237499999999982
 30
0.0
 40
0.8156164974804127
100
AcDbArc
 50
225.0151748616825
 51
264.9372022992156
  0
LINE
  5
236
330
2
100
AcDbEntity
  8
PART
100
AcDbLine
 10
1.916308024037459
 20
5.381583753065143
 30
0.0
 11
2.146173826993656
 21
5.229499999999987
 31
0.0
  0
LINE
  5
237
330
2
100
AcDbEntity
  8
PART
100
AcDbLine
 10
1.316898707525105
 20
5.490426068942483
 30
0.0
 11
1.311108212638181
 21
5.42506556932259
 31
0.0
  0
LINE
  5
238
330
2
100
AcDbEntity
  8
PART
100
AcDbLine
 10
2.146173826993656
 20
5.229499999999987
 30
0.0
 11
2.54174084796303
 21
5.03458845592484
 31
0.0
  0
ARC
  5
239
330
2
100
AcDbEntity
  8
PART
100
AcDbCircle
 10
1.265818763735012
 20
6.237499999999982
 30
0.0
 40
0.7373985475160918
100
AcDbArc
 50
179.9999999999999
 51
231.4733676450046
  0
ARC
  5
23A
330
2
100
AcDbEntity
  8
PART
100
AcDbCircle
 10
1.265818763735012
 20
6.237499999999982
 30
0.0
 40
0.7373985475160918
100
AcDbArc
 50
128.5266323549954
 51
180.0
  0
LINE
  5
23B
330
2
100
AcDbEntity
  8
PART
100
AcDbLine
 10
3.845015309425175
 20
5.273040000212603
 30
0.0
 11
4.942672046736699
 21
5.17865539676524
 31
0.0
  0
LINE
  5
23C
330
2
100
AcDbEntity
  8
PART
100
AcDbLine
 10
3.843901583528808
 20
5.260087795202345
 30
0.0
 11
5.032401314577956
 21
5.15789184267977
 31
0.0
  0
LINE
  5
23D
330
2
100
AcDbEntity
  8
PART
100
AcDbLine
 10
1.316898707525105
 20
6.984573931057489
 30
0.0
 11
3.845015309425175
 21
7.201959999787369
 31
0.0
  0
LINE
  5
23E
330
2
100
AcDbEntity
  8
PART
100
AcDbLine
 10
1.311108212638181
 20
7.049934430677375
 30
0.0
 11
3.842672049736695
 21
7.22921121121789
 31
0.0
  0
ARC
  5
23F
330
2
100
AcDbEntity
  8
PART
100
AcDbCircle
 10
0.011101314577946
 20
6.237499999999982
 30
0.0
 40
1.073223302020297
100
AcDbArc
 50
36.44610178265317
 51
70.00000000000011
  0
LINE
  5
240
330
2
100
AcDbEntity
  8
PART
100
AcDbLine
 10
1.916308024037459
 20
7.093416246934822
 30
0.0
 11
2.146173826993656
 21
7.245499999999985
 31
0.0
  0
LINE
  5
241
330
2
100
AcDbEntity
  8
PART
100
AcDbLine
 10
2.146173826993656
 20
7.245499999999985
 30
0.0
 11
2.54174084796303
 21
7.440411544075129
 31
0.0
  0
LINE
  5
242
330
2
100
AcDbEntity
  8
PART
100
AcDbLine
 10
3.845015309425175
 20
7.201959999787369
 30
0.0
 11
5.032401314577956
 21
7.304060185961942
 31
0.0
  0
LINE
  5
243
330
2
100
AcDbEntity
  8
PART
100
AcDbLine
 10
3.843901583528808
 20
7.214912204797627
 30
0.0
 11
5.032401314577956
 21
7.317108157320189
 31
0.0
  0
LINE
  5
244
330
2
100
AcDbEntity
  8
PART
100
AcDbLine
 10
0.1644027131112402
 20
6.658692130841032
 30
0.0
 11
0.3781653021553666
 21
7.246000017363947
 31
0.0
  0
LINE
  5
245
330
2
100
AcDbEntity
  8
PART
100
AcDbLine
 10
-0.5251697623135101
 20
6.907057926268748
 30
0.0
 11
0.1644027131112402
 21
6.658692130841032
 31
0.0
  0
ARC
  5
246
330
2
100
AcDbEntity
  8
PART
100
AcDbCircle
 10
0.011101314577946
 20
6.237499999999982
 30
0.0
 40
0.4482233035828092
100
AcDbArc
 50
289.9999999999995
 51
70.38463833292578
  0
LINE
  5
247
330
2
100
AcDbEntity
  8
PART
100
AcDbLine
 10
0.3781653021553666
 20
7.246000017363947
 30
0.0
 11
-0.3105657450059063
 21
7.496677617945646
 31
0.0
  0
LINE
  5
248
330
2
100
AcDbEntity
  8
PART
100
AcDbLine
 10
-0.5251697623135101
 20
5.56794207373122
 30
0.0
 11
0.1644027131112402
 21
5.816307869158933
 31
0.0
  0
LINE
  5
249
330
2
100
AcDbEntity
  8
PART
100
AcDbLine
 10
0.3781653021553666
 20
5.228999982636022
 30
0.0
 11
-0.3105657450059098
 21
4.978322382054329
 31
0.0
  0
LINE
  5
24A
330
2
100
AcDbEntity
  8
PART
100
AcDbLine
 10
0.1644027131112402
 20
5.816307869158933
 30
0.0
 11
0.3781653021553701
 21
5.228999982636011
 31
0.0
  0
LINE
  5
24B
330
2
100
AcDbEntity
  8
PART
100
AcDbLine
 10
3.215706716782545
 20
8.016927327176794
 30
0.0
 11
2.54174084796303
 21
7.440411544075125
 31
0.0
  0
LINE
  5
24C
330
2
100
AcDbEntity
  8
PART
100
AcDbLine
 10
3.842672049736695
 20
8.737236322215856
 30
0.0
 11
3.842672049736695
 21
7.22921121121789
 31
0.0
  0
LINE
  5
24D
330
2
100
AcDbEntity
  8
PART
100
AcDbLine
 10
3.865875648044475
 20
8.729054574638082
 30
0.0
 11
3.215706716782545
 21
8.016927327176794
 31
0.0
  0
LINE
  5
24E
330
2
100
AcDbEntity
  8
PART
100
AcDbLine
 10
3.685501289340518
 20
8.545007348749564
 30
0.0
 11
3.488729839359056
 21
8.31596838470061
 31
0.0
  0
LINE
  5
24F
330
2
100
AcDbEntity
  8
PART
100
AcDbLine
 10
3.215706716782545
 20
4.458072672823174
 30
0.0
 11
2.54174084796303
 21
5.03458845592484
 31
0.0
  0
LINE
  5
250
330
2
100
AcDbEntity
  8
PART
100
AcDbLine
 10
3.842672049736695
 20
5.245788788782078
 30
0.0
 11
3.842672049736695
 21
3.737500006249984
 31
0.0
  0
LINE
  5
251
330
2
100
AcDbEntity
  8
PART
100
AcDbLine
 10
3.865875648044461
 20
3.745945425361891
 30
0.0
 11
3.215706716782545
 21
4.458072672823174
 31
0.0
  0
LINE
  5
252
330
2
100
AcDbEntity
  8
PART
100
AcDbLine
 10
3.685501289340518
 20
3.929992651250405
 30
0.0
 11
3.488729839359056
 21
4.159031615299355
 31
0.0
  0
INSERT
  5
429
330
2
100
AcDbEntity
  8
DIM
100
AcDbBlockReference
 66
     1
  2
tft_aprlist
 10
-6.686416596340315
 20
4.839744882671844
 30
0.0
 41
2.0
 42
2.0
 43
2.0
  0
ATTRIB
  5
42A
330
429
100
AcDbEntity
  8
DIM
100
AcDbText
 10
-3.688916591206318
 20
-1.574145145765116
 30
0.0
 40
0.26
  1
AS9NJ-ST
  7
SIMPLEX
100
AcDbAttribute
  2
PART_#
 70
     0
  0
ATTRIB
  5
42B
330
429
100
AcDbEntity
  8
DIM
100
AcDbText
 10
-3.677049106156673
 20
-2.222516336464394
 30
0.0
 40
0.26
  1
SIAMESE 2.5"NHF X 5.0"STORZ
  7
SIMPLEX
100
AcDbAttribute
  2
PART_DESCRIPTION
 70
     0
  0
ATTRIB
  5
42C
330
429
100
AcDbEntity
  8
DIM
100
AcDbText
 10
-3.686416593408445
 20
-2.849170223430235
 30
0.0
 40
0.26
  1
DBL SWIVEL ROCKERLUG TO STORZ SWIVEL
  7
SIMPLEX
100
AcDbAttribute
  2
EXTRA_DESCRIPTION
 70
     0
  0
ATTRIB
  5
42D
330
429
100
AcDbEntity
  8
DIM
100
AcDbText
 10
4.152904835162933
 20
-1.660255113875085
 30
0.0
 40
0.2
  1
1 OF 1
  7
SIMPLEX
 72
     4
 11
4.624333406591505
 21
-1.560255113875085
 31
0.0
100
AcDbAttribute
  2
SHEET
 70
     0
  0
ATTRIB
  5
42E
330
429
100
AcDbEntity
  8
DIM
100
AcDbText
 10
10.05508340696169
 20
-2.842393167068761
 30
0.0
 40
0.16
  1
A\FIN & SUB\AS9NJ-ST
  7
SIMPLEX
100
AcDbAttribute
  2
FILE_NAME
 70
     0
  0
ATTRIB
  5
42F
330
429
100
AcDbEntity
  8
DIM
100
AcDbText
 10
10.50108340659155
 20
-0.894742837519014
 30
0.0
 40
0.16
  1
1/2x
  7
SIMPLEX
100
AcDbAttribute
  2
SCALE
 70
     0
  0
ATTRIB
  5
430
330
429
100
AcDbEntity
  8
DIM
100
AcDbText
 10
9.490515185029405
 20
-1.580195735596533
 30
0.0
 40
0.16
  1
10/25/95
  7
SIMPLEX
 72
     4
 11
10.07718185169607
 21
-1.511624307025105
 31
0.0
100
AcDbAttribute
  2
DATE
 70
     0
  0
ATTRIB
  5
431
330
429
100
AcDbEntity
  8
DIM
100
AcDbText
 10
11.02275249911821
 20
-1.591624307025105
 30
0.0
 40
0.16
  1
MBJ
  7
SIMPLEX
 72
     4
 11
11.23227630864202
 21
-1.511624307025105
 31
0.0
100
AcDbAttribute
  2
WHO?
 70
     0
  0
ATTRIB
  5
432
330
429
100
AcDbEntity
  8
DIM
100
AcDbText
 10
9.604800899315119
 20
-2.228750166544433
 30
0.0
 40
0.16
  1
9/3/02
  7
SCRIPT
 72
     4
 11
10.07718185169607
 21
-2.160178737973004
 31
0.0
100
AcDbAttribute
  2
DATE
 70
     0
  0
ATTRIB
  5
433
330
429
100
AcDbEntity
  8
DIM
100
AcDbText
 10
10.94275249911826
 20
-2.194464452258718
 30
0.0
 40
0.16
  1
RJM
  7
SCRIPT
 72
     4
 11
11.23227630864207
 21
-2.160178737973003
 31
0.0
100
AcDbAttribute
  2
WHO?
 70
     0
  0
ATTRIB
  5
434
330
429
100
AcDbEntity
  8
DIM
100
AcDbText
 10
11.86887511494616
 20
-2.240178737973003
 30
0.0
 40
0.16
  1
Robert W. Steingass
  7
SCRIPT
 11
11.86887511494616
 21
-2.160178737973003
 31
0.0
100
AcDbAttribute
  2
WHO?
 70
     0
 74
     2
  0
SEQEND
  5
435
330
429
100
AcDbEntity
  8
DIM
  0
INSERT
  5
444
330
2
100
AcDbEntity
  8
DIM
100
AcDbBlockReference
 66
     1
  2
rvsn_blk
 10
12.18182267757016
 20
-0.2516243070251036
 30
0.0
 41
2.0
 42
2.0
 43
2.0
  0
ATTRIB
  5
445
330
444
100
AcDbEntity
  8
DIM
100
AcDbText
 10
11.89317212111168
 20
-0.1630778264494674
 30
2.0
 40
0.14
  1
1
  7
SIMPLEX
100
AcDbAttribute
  2
X
 70
     0
  0
ATTRIB
  5
446
330
444
100
AcDbEntity
  8
DIM
100
AcDbText
 10
12.32678985193345
 20
-0.1577116361416015
 30
2.0
 40
0.14
  1
2/4/00
  7
SIMPLEX
 72
     1
 11
12.72012318526679
 21
-0.1577116361416015
 31
2.0
100
AcDbAttribute
  2
DATE
 70
     0
  0
ATTRIB
  5
447
330
444
100
AcDbEntity
  8
DIM
100
AcDbText
 10
13.51150194590232
 20
-0.1577116361416015
 30
2.0
 40
0.14
  1
BMH
  7
SIMPLEX
 72
     1
 11
13.70816861256899
 21
-0.1577116361416015
 31
2.0
100
AcDbAttribute
  2
XXX
 70
     0
  0
SEQEND
  5
448
330
444
100
AcDbEntity
  8
DIM
  0
LINE
  5
45E
330
2
100
AcDbEntity
  8
PART
100
AcDbLine
 10
-0.5935018364355152
 20
6.868828484920274
 30
0.0
 11
0.5365327171124868
 21
9.97357290399692
 31
0.0
  0
LINE
  5
460
330
2
100
AcDbEntity
  8
PART
100
AcDbLine
 10
0.1024230427135099
 20
9.014770728031976
 30
0.0
 11
0.2641452925991067
 21
9.459098957816053
 31
0.0
  0
LINE
  5
461
330
2
100
AcDbEntity
  8
PART
100
AcDbLine
 10
0.1024230427135099
 20
9.014770728031976
 30
0.0
 11
0.1210950812673691
 21
9.173549739391683
 31
0.0
  0
ARC
  5
462
330
2
100
AcDbEntity
  8
PART
100
AcDbCircle
 10
0.0734235789926559
 20
9.17915579601574
 30
0.0
 40
0.0480000000000012
100
AcDbArc
 50
353.2929554962568
 51
84.34081183702913
  0
LINE
  5
463
330
2
100
AcDbEntity
  8
PART
100
AcDbLine
 10
0.0781569043814409
 20
9.226921847043263
 30
0.0
 11
0.0281999455095402
 21
9.231872278085559
 31
0.0
  0
LINE
  5
464
330
2
100
AcDbEntity
  8
PART
100
AcDbLine
 10
-1.344703593296786
 20
9.541481748753499
 30
0.0
 11
0.1024230427135126
 21
9.014770728031974
 31
0.0
  0
LINE
  5
465
330
2
100
AcDbEntity
  8
PART
100
AcDbLine
 10
-1.148295215714415
 20
9.660081497529299
 30
0.0
 11
-0.9931700303762079
 21
10.08628444143474
 31
0.0
  0
LINE
  5
466
330
2
100
AcDbEntity
  8
PART
100
AcDbLine
 10
-1.148295215714413
 20
9.660081497529297
 30
0.0
 11
0.028199945509542
 21
9.231872278085567
 31
0.0
  0
LINE
  5
467
330
2
100
AcDbEntity
  8
PART
100
AcDbLine
 10
-1.344703593296786
 20
9.541481748753499
 30
0.0
 11
-1.182981343411191
 21
9.985809978537577
 31
0.0
  0
LINE
  5
468
330
2
100
AcDbEntity
  8
PART
100
AcDbLine
 10
-0.9931700303762079
 20
10.08628444143474
 30
0.0
 11
0.1833251308477449
 21
9.658075221991007
 31
0.0
  0
LINE
  5
469
330
2
100
AcDbEntity
  8
PART
100
AcDbLine
 10
0.5078444381943929
 20
10.03509511667427
 30
0.0
 11
-0.9994225255462103
 21
10.58369542656864
 31
0.0
  0
LINE
  5
46A
330
2
100
AcDbEntity
  8
PART
100
AcDbLine
 10
-0.9931700303762079
 20
10.08628444143474
 30
0.0
 11
-1.130587106427203
 21
9.944561717559174
 31
0.0
  0
ARC
  5
46B
330
2
100
AcDbEntity
  8
PART
100
AcDbCircle
 10
-1.147817385420151
 20
9.961268527123699
 30
0.0
 40
0.024
100
AcDbArc
 50
201.0540521470631
 51
315.8837001623092
  0
ARC
  5
46C
330
2
100
AcDbEntity
  8
PART
100
AcDbCircle
 10
-1.015839492425842
 20
10.53859018077092
 30
0.0
 40
0.048
100
AcDbArc
 50
70.00000000000018
 51
160.0000000000001
  0
LINE
  5
46D
330
2
100
AcDbEntity
  8
PART
100
AcDbLine
 10
-1.170215191766874
 20
9.952646562680804
 30
0.0
 11
-1.182981343411191
 21
9.985809978537577
 31
0.0
  0
LINE
  5
46E
330
2
100
AcDbEntity
  8
PART
100
AcDbLine
 10
0.028199945509542
 20
9.231872278085567
 30
0.0
 11
0.1833251308477449
 21
9.658075221991007
 31
0.0
  0
LINE
  5
46F
330
2
100
AcDbEntity
  8
PART
100
AcDbLine
 10
0.233048820264345
 20
9.441900231484472
 30
0.0
 11
0.2641452925991067
 21
9.459098957816053
 31
0.0
  0
LINE
  5
470
330
2
100
AcDbEntity
  8
PART
100
AcDbLine
 10
0.1833251308477449
 20
9.658075221991007
 30
0.0
 11
0.197495107428031
 21
9.461179323057518
 31
0.0
  0
ARC
  5
471
330
2
100
AcDbEntity
  8
PART
100
AcDbCircle
 10
0.2214331970894327
 20
9.462902071838554
 30
0.0
 40
0.024
100
AcDbArc
 50
184.116299837691
 51
298.9459478529373
  0
ARC
  5
472
330
2
100
AcDbEntity
  8
PART
100
AcDbCircle
 10
0.491427471314765
 20
9.989989870876552
 30
0.0
 40
0.048
100
AcDbArc
 50
340.0000000000002
 51
70.00000000000018
  0
LINE
  5
473
330
2
100
AcDbEntity
  8
PART
100
AcDbLine
 10
-1.18974654218996
 20
9.688400961518778
 30
0.0
 11
-1.148295215714421
 21
9.660081497529303
 31
0.0
  0
ARC
  5
474
330
2
100
AcDbEntity
  8
PART
100
AcDbCircle
 10
-1.216824030342549
 20
9.648767520646886
 30
0.0
 40
0.048
100
AcDbArc
 50
55.65918816296829
 51
146.7070445037405
  0
LINE
  5
475
330
2
100
AcDbEntity
  8
PART
100
AcDbLine
 10
-1.344703593296786
 20
9.541481748753499
 30
0.0
 11
-1.256946023492379
 21
9.675115683119539
 31
0.0
  0
ARC
  5
476
330
2
100
AcDbEntity
  8
PART
100
AcDbCircle
 10
-0.5300452181323463
 20
7.74488716686224
 30
0.0
 40
0.1612856203950268
100
AcDbArc
 50
230.2661015353809
 51
249.9999999999879
  0
ARC
  5
477
330
2
100
AcDbEntity
  8
PART
100
AcDbCircle
 10
-0.5433363033101398
 20
7.728897235885813
 30
0.0
 40
0.1404930535060099
100
AcDbArc
 50
209.1066053508796
 51
230.2661015354035
  0
ARC
  5
478
330
2
100
AcDbEntity
  8
PART
100
AcDbCircle
 10
-0.5577590007529661
 20
7.720867487503904
 30
0.0
 40
0.123985750255506
100
AcDbArc
 50
185.5614458367923
 51
209.1066053508624
  0
ARC
  5
479
330
2
100
AcDbEntity
  8
PART
100
AcDbCircle
 10
-0.5761947973184722
 20
7.719072365680498
 30
0.0
 40
0.1054627629865584
100
AcDbArc
 50
160.0000000000023
 51
185.5614458367994
  0
ARC
  5
47A
330
2
100
AcDbEntity
  8
PART
100
AcDbCircle
 10
-0.5761947973184578
 20
7.719072365680482
 30
0.0
 40
0.1054627629865769
100
AcDbArc
 50
134.4385541631995
 51
159.9999999999976
  0
ARC
  5
47B
330
2
100
AcDbEntity
  8
PART
100
AcDbCircle
 10
-0.5632260398709822
 20
7.705846920975973
 30
0.0
 40
0.1239857502554675
100
AcDbArc
 50
110.893394649135
 51
134.4385541632074
  0
ARC
  5
47C
330
2
100
AcDbEntity
  8
PART
100
AcDbCircle
 10
-0.5573390354088782
 20
7.690425045633827
 30
0.0
 40
0.140493053506015
100
AcDbArc
 50
89.73389846459999
 51
110.8933946491257
  0
ARC
  5
47D
330
2
100
AcDbEntity
  8
PART
100
AcDbCircle
 10
-0.55743560297683
 20
7.669632702991917
 30
0.0
 40
0.1612856203950208
100
AcDbArc
 50
70.00000000000428
 51
89.73389846461078
  0
ARC
  5
47E
330
2
100
AcDbEntity
  8
PART
100
AcDbCircle
 10
-0.5574356029768687
 20
7.669632702991897
 30
0.0
 40
0.1612856203950526
100
AcDbArc
 50
50.26610153538697
 51
69.9999999999938
  0
ARC
  5
47F
330
2
100
AcDbEntity
  8
PART
100
AcDbCircle
 10
-0.5441445177990669
 20
7.685622633968362
 30
0.0
 40
0.1404930535060001
100
AcDbArc
 50
29.10660535087893
 51
50.26610153540275
  0
ARC
  5
480
330
2
100
AcDbEntity
  8
PART
100
AcDbCircle
 10
-0.529721820356237
 20
7.693652382350276
 30
0.0
 40
0.1239857502554914
100
AcDbArc
 50
5.561445836789465
 51
29.10660535086089
  0
ARC
  5
481
330
2
100
AcDbEntity
  8
PART
100
AcDbCircle
 10
-0.5112860237907432
 20
7.695447504173674
 30
0.0
 40
0.1054627629865568
100
AcDbArc
 50
340.0000000000022
 51
5.561445836799588
  0
ARC
  5
482
330
2
100
AcDbEntity
  8
PART
100
AcDbCircle
 10
-0.5112860237907634
 20
7.695447504173682
 30
0.0
 40
0.105462762986578
100
AcDbArc
 50
314.4385541632008
 51
340.0000000000028
  0
ARC
  5
483
330
2
100
AcDbEntity
  8
PART
100
AcDbCircle
 10
-0.5242547812382224
 20
7.708672948878199
 30
0.0
 40
0.1239857502554627
100
AcDbArc
 50
290.8933946491296
 51
314.4385541632003
  0
ARC
  5
484
330
2
100
AcDbEntity
  8
PART
100
AcDbCircle
 10
-0.530141785700335
 20
7.724094824220338
 30
0.0
 40
0.1404930535060069
100
AcDbArc
 50
269.7338984646025
 51
290.8933946491253
  0
ARC
  5
485
330
2
100
AcDbEntity
  8
PART
100
AcDbCircle
 10
-0.5300452181324045
 20
7.744887166862284
 30
0.0
 40
0.1612856203950482
100
AcDbArc
 50
250.0000000000127
 51
269.7338984646206
  0
LINE
  5
486
330
2
100
AcDbEntity
  8
PART
100
AcDbLine
 10
-0.4873525700496665
 20
7.590276360967155
 30
0.0
 11
-0.6546052490102993
 21
7.789600341989499
 31
0.0
  0
LINE
  5
487
330
2
100
AcDbEntity
  8
PART
100
AcDbLine
 10
-0.4328755720989178
 20
7.624919527864673
 30
0.0
 11
-0.600128251059548
 21
7.824243508887015
 31
0.0
  0
ARC
  5
488
330
2
100
AcDbEntity
  8
PART
100
AcDbCircle
 10
-1.542511524299558
 20
7.163159230254199
 30
0.0
 40
0.6275555555555571
100
AcDbArc
 50
160.0000000000001
 51
199.5977527090499
  0
LINE
  5
489
330
2
100
AcDbEntity
  8
PART
100
AcDbLine
 10
-0.6550240491128721
 20
6.840140206002177
 30
0.0
 11
-2.162291012853472
 21
7.388740515896546
 31
0.0
  0
ARC
  5
48A
330
2
100
AcDbEntity
  8
PART
100
AcDbCircle
 10
-2.14587404597384
 20
7.43384576169427
 30
0.0
 40
0.048
100
AcDbArc
 50
160.0000000000001
 51
250.0000000000002
  0
LINE
  5
48B
330
2
100
AcDbEntity
  8
PART
100
AcDbLine
 10
-2.133713168925413
 20
6.952667922356869
 30
0.0
 11
-0.9572180077014555
 21
6.524458702913143
 31
0.0
  0
LINE
  5
48C
330
2
100
AcDbEntity
  8
PART
100
AcDbLine
 10
-2.168799763168735
 20
7.123296752122642
 30
0.0
 11
-0.8206620195246356
 21
6.632614741745403
 31
0.0
  0
ARC
  5
48D
330
2
100
AcDbEntity
  8
PART
100
AcDbCircle
 10
-1.274803537666779
 20
7.065721491644533
 30
0.0
 40
0.6275555555555571
100
AcDbArc
 50
300.4022472909504
 51
340.0000000000002
  0
ARC
  5
48E
330
2
100
AcDbEntity
  8
PART
100
AcDbCircle
 10
-0.638607082233237
 20
6.885245451799905
 30
0.0
 40
0.048
100
AcDbArc
 50
250.0000000000002
 51
340.0000000000002
  0
LINE
  5
48F
330
2
100
AcDbEntity
  8
PART
100
AcDbLine
 10
-2.190979291771564
 20
7.450262728573902
 30
0.0
 11
-1.060944738223565
 21
10.55500714765055
 31
0.0
  0
LINE
  5
492
330
2
100
AcDbEntity
  8
PART
100
AcDbLine
 10
-0.5935018364355152
 20
5.606171515079691
 30
0.0
 11
0.5365327171124868
 21
2.501427096003045
 31
0.0
  0
ARC
  5
493
330
2
100
AcDbEntity
  8
PART
100
AcDbCircle
 10
0.491427471314765
 20
2.485010129123413
 30
0.0
 40
0.048
100
AcDbArc
 50
289.9999999999998
 51
19.99999999999984
  0
ARC
  5
494
330
2
100
AcDbEntity
  8
PART
100
AcDbCircle
 10
-0.638607082233237
 20
5.58975454820006
 30
0.0
 40
0.048
100
AcDbArc
 50
19.99999999999984
 51
109.9999999999998
  0
ARC
  5
495
330
2
100
AcDbEntity
  8
PART
100
AcDbCircle
 10
-0.6067287130820063
 20
5.609285674311891
 30
0.0
 40
0.0625
100
AcDbArc
 50
289.9999999999995
 51
20.00000000000065
  0
LINE
  5
496
330
2
100
AcDbEntity
  8
PART
100
AcDbLine
 10
-2.190979291771564
 20
5.024737271426063
 30
0.0
 11
-1.060944738223565
 21
1.919992852349412
 31
0.0
  0
LINE
  5
497
330
2
100
AcDbEntity
  8
PART
100
AcDbLine
 10
-2.168799763168735
 20
5.351703247877323
 30
0.0
 11
-0.8206620195246356
 21
5.842385258254561
 31
0.0
  0
LINE
  5
498
330
2
100
AcDbEntity
  8
PART
100
AcDbLine
 10
-2.133713168925413
 20
5.522332077643095
 30
0.0
 11
-0.9572180077014555
 21
5.950541297086822
 31
0.0
  0
LINE
  5
499
330
2
100
AcDbEntity
  8
PART
100
AcDbLine
 10
-0.6550240491128721
 20
5.634859793997788
 30
0.0
 11
-2.162291012853472
 21
5.086259484103419
 31
0.0
  0
ARC
  5
49A
330
2
100
AcDbEntity
  8
PART
100
AcDbCircle
 10
-1.542511524299558
 20
5.311840769745765
 30
0.0
 40
0.6275555555555571
100
AcDbArc
 50
160.40224729095
 51
199.9999999999998
  0
ARC
  5
49B
330
2
100
AcDbEntity
  8
PART
100
AcDbCircle
 10
-2.14587404597384
 20
5.041154238305695
 30
0.0
 40
0.048
100
AcDbArc
 50
109.9999999999998
 51
199.9999999999998
  0
ARC
  5
49C
330
2
100
AcDbEntity
  8
PART
100
AcDbCircle
 10
-1.274803537666779
 20
5.409278508355432
 30
0.0
 40
0.6275555555555571
100
AcDbArc
 50
19.99999999999984
 51
59.59775270904959
  0
LINE
  5
49D
330
2
100
AcDbEntity
  8
PART
100
AcDbLine
 10
-0.7307516613173064
 20
6.132773699092759
 30
0.0
 11
-0.547997924282889
 21
5.630661933269745
 31
0.0
  0
ARC
  5
49E
330
2
100
AcDbEntity
  8
PART
100
AcDbCircle
 10
-0.55743560297683
 20
4.805367297008048
 30
0.0
 40
0.1612856203950208
100
AcDbArc
 50
270.2661015353892
 51
289.9999999999957
  0
ARC
  5
49F
330
2
100
AcDbEntity
  8
PART
100
AcDbCircle
 10
-0.5573390354088782
 20
4.784574954366138
 30
0.0
 40
0.140493053506015
100
AcDbArc
 50
249.1066053508743
 51
270.2661015354
  0
LINE
  5
4A0
330
2
100
AcDbEntity
  8
PART
100
AcDbLine
 10
-0.4873525700496665
 20
4.884723639032809
 30
0.0
 11
-0.6546052490102993
 21
4.685399658010465
 31
0.0
  0
ARC
  5
4A1
330
2
100
AcDbEntity
  8
PART
100
AcDbCircle
 10
-0.5300452181324045
 20
4.730112833137681
 30
0.0
 40
0.1612856203950482
100
AcDbArc
 50
90.26610153537937
 51
109.9999999999873
  0
ARC
  5
4A2
330
2
100
AcDbEntity
  8
PART
100
AcDbCircle
 10
-0.530141785700335
 20
4.750905175779627
 30
0.0
 40
0.1404930535060069
100
AcDbArc
 50
69.1066053508747
 51
90.26610153539747
  0
ARC
  5
4A3
330
2
100
AcDbEntity
  8
PART
100
AcDbCircle
 10
-0.5632260398709822
 20
4.769153079023991
 30
0.0
 40
0.1239857502554675
100
AcDbArc
 50
225.5614458367925
 51
249.106605350865
  0
ARC
  5
4A4
330
2
100
AcDbEntity
  8
PART
100
AcDbCircle
 10
-0.5761947973184578
 20
4.755927634319482
 30
0.0
 40
0.1054627629865769
100
AcDbArc
 50
200.0000000000024
 51
225.5614458368004
  0
ARC
  5
4A5
330
2
100
AcDbEntity
  8
PART
100
AcDbCircle
 10
-0.5761947973184722
 20
4.755927634319467
 30
0.0
 40
0.1054627629865584
100
AcDbArc
 50
174.4385541632006
 51
199.9999999999976
  0
ARC
  5
4A6
330
2
100
AcDbEntity
  8
PART
100
AcDbCircle
 10
-0.5577590007529661
 20
4.754132512496061
 30
0.0
 40
0.123985750255506
100
AcDbArc
 50
150.8933946491376
 51
174.4385541632077
  0
ARC
  5
4A7
330
2
100
AcDbEntity
  8
PART
100
AcDbCircle
 10
-0.5433363033101398
 20
4.746102764114151
 30
0.0
 40
0.1404930535060099
100
AcDbArc
 50
129.7338984645965
 51
150.8933946491204
  0
ARC
  5
4A8
330
2
100
AcDbEntity
  8
PART
100
AcDbCircle
 10
-0.5300452181323463
 20
4.730112833137725
 30
0.0
 40
0.1612856203950268
100
AcDbArc
 50
110.0000000000121
 51
129.7338984646191
  0
LINE
  5
4A9
330
2
100
AcDbEntity
  8
PART
100
AcDbLine
 10
-0.4328755720989178
 20
4.850080472135292
 30
0.0
 11
-0.600128251059548
 21
4.65075649111295
 31
0.0
  0
ARC
  5
4AA
330
2
100
AcDbEntity
  8
PART
100
AcDbCircle
 10
-0.5242547812382224
 20
4.766327051121766
 30
0.0
 40
0.1239857502554627
100
AcDbArc
 50
45.56144583679968
 51
69.10660535087036
  0
ARC
  5
4AB
330
2
100
AcDbEntity
  8
PART
100
AcDbCircle
 10
-0.5112860237907634
 20
4.779552495826283
 30
0.0
 40
0.105462762986578
100
AcDbArc
 50
19.99999999999724
 51
45.56144583679921
  0
ARC
  5
4AC
330
2
100
AcDbEntity
  8
PART
100
AcDbCircle
 10
-0.5112860237907432
 20
4.77955249582629
 30
0.0
 40
0.1054627629865568
100
AcDbArc
 50
354.4385541632004
 51
19.9999999999978
  0
ARC
  5
4AD
330
2
100
AcDbEntity
  8
PART
100
AcDbCircle
 10
-0.529721820356237
 20
4.781347617649688
 30
0.0
 40
0.1239857502554914
100
AcDbArc
 50
330.8933946491391
 51
354.4385541632105
  0
ARC
  5
4AE
330
2
100
AcDbEntity
  8
PART
100
AcDbCircle
 10
-0.5441445177990669
 20
4.789377366031603
 30
0.0
 40
0.1404930535060001
100
AcDbArc
 50
309.7338984645972
 51
330.893394649121
  0
ARC
  5
4AF
330
2
100
AcDbEntity
  8
PART
100
AcDbCircle
 10
-0.5574356029768687
 20
4.805367297008068
 30
0.0
 40
0.1612856203950526
100
AcDbArc
 50
290.0000000000062
 51
309.733898464613
  0
LINE
  5
4B0
330
2
100
AcDbEntity
  8
PART
100
AcDbLine
 10
0.5078444381943929
 20
2.43990488332569
 30
0.0
 11
-0.9994225255462103
 21
1.891304573431321
 31
0.0
  0
LINE
  5
4B1
330
2
100
AcDbEntity
  8
PART
100
AcDbLine
 10
-1.344703593296786
 20
2.933518251246466
 30
0.0
 11
0.1024230427135126
 21
3.460229271967991
 31
0.0
  0
LINE
  5
4B2
330
2
100
AcDbEntity
  8
PART
100
AcDbLine
 10
-1.148295215714413
 20
2.814918502470668
 30
0.0
 11
0.028199945509542
 21
3.243127721914397
 31
0.0
  0
LINE
  5
4B3
330
2
100
AcDbEntity
  8
PART
100
AcDbLine
 10
-0.9931700303762079
 20
2.388715558565221
 30
0.0
 11
0.1833251308477449
 21
2.816924778008958
 31
0.0
  0
LINE
  5
4B4
330
2
100
AcDbEntity
  8
PART
100
AcDbLine
 10
-1.18974654218996
 20
2.786599038481186
 30
0.0
 11
-1.148295215714421
 21
2.814918502470662
 31
0.0
  0
LINE
  5
4B5
330
2
100
AcDbEntity
  8
PART
100
AcDbLine
 10
-1.344703593296786
 20
2.933518251246466
 30
0.0
 11
-1.182981343411191
 21
2.489190021462388
 31
0.0
  0
ARC
  5
4B6
330
2
100
AcDbEntity
  8
PART
100
AcDbCircle
 10
-1.216824030342549
 20
2.826232479353079
 30
0.0
 40
0.048
100
AcDbArc
 50
213.2929554962594
 51
304.3408118370317
  0
LINE
  5
4B7
330
2
100
AcDbEntity
  8
PART
100
AcDbLine
 10
-1.344703593296786
 20
2.933518251246466
 30
0.0
 11
-1.256946023492379
 21
2.799884316880426
 31
0.0
  0
ARC
  5
4B8
330
2
100
AcDbEntity
  8
PART
100
AcDbCircle
 10
-1.147817385420151
 20
2.513731472876266
 30
0.0
 40
0.024
100
AcDbArc
 50
44.11629983769084
 51
158.9459478529369
  0
LINE
  5
4B9
330
2
100
AcDbEntity
  8
PART
100
AcDbLine
 10
-1.148295215714415
 20
2.814918502470666
 30
0.0
 11
-0.9931700303762079
 21
2.388715558565221
 31
0.0
  0
LINE
  5
4BA
330
2
100
AcDbEntity
  8
PART
100
AcDbLine
 10
-1.170215191766874
 20
2.522353437319161
 30
0.0
 11
-1.182981343411191
 21
2.489190021462388
 31
0.0
  0
LINE
  5
4BB
330
2
100
AcDbEntity
  8
PART
100
AcDbLine
 10
-0.9931700303762079
 20
2.388715558565221
 30
0.0
 11
-1.130587106427203
 21
2.53043828244079
 31
0.0
  0
LINE
  5
4BC
330
2
100
AcDbEntity
  8
PART
100
AcDbLine
 10
0.028199945509542
 20
3.243127721914397
 30
0.0
 11
0.1833251308477449
 21
2.816924778008958
 31
0.0
  0
LINE
  5
4BD
330
2
100
AcDbEntity
  8
PART
100
AcDbLine
 10
0.1024230427135099
 20
3.460229271967989
 30
0.0
 11
0.2641452925991067
 21
3.015901042183912
 31
0.0
  0
LINE
  5
4BE
330
2
100
AcDbEntity
  8
PART
100
AcDbLine
 10
0.0781569043814409
 20
3.248078152956702
 30
0.0
 11
0.0281999455095402
 21
3.243127721914406
 31
0.0
  0
ARC
  5
4BF
330
2
100
AcDbEntity
  8
PART
100
AcDbCircle
 10
0.0734235789926559
 20
3.295844203984225
 30
0.0
 40
0.0480000000000012
100
AcDbArc
 50
275.6591881629709
 51
6.707044503743192
  0
LINE
  5
4C0
330
2
100
AcDbEntity
  8
PART
100
AcDbLine
 10
0.1024230427135099
 20
3.460229271967989
 30
0.0
 11
0.1210950812673691
 21
3.301450260608282
 31
0.0
  0
ARC
  5
4C1
330
2
100
AcDbEntity
  8
PART
100
AcDbCircle
 10
0.4586640333774632
 20
2.682143160563775
 30
0.0
 40
0.0625
100
AcDbArc
 50
20.00000000000025
 51
110.0000000000005
  0
ARC
  5
4C2
330
2
100
AcDbEntity
  8
PART
100
AcDbCircle
 10
0.2214331970894327
 20
3.012097928161411
 30
0.0
 40
0.024
100
AcDbArc
 50
61.05405214706271
 51
175.8837001623089
  0
LINE
  5
4C3
330
2
100
AcDbEntity
  8
PART
100
AcDbLine
 10
0.1833251308477449
 20
2.816924778008958
 30
0.0
 11
0.197495107428031
 21
3.013820676942447
 31
0.0
  0
LINE
  5
4C4
330
2
100
AcDbEntity
  8
PART
100
AcDbLine
 10
0.233048820264345
 20
3.033099768515493
 30
0.0
 11
0.2641452925991067
 21
3.015901042183912
 31
0.0
  0
ARC
  5
4C5
330
2
100
AcDbEntity
  8
PART
100
AcDbCircle
 10
-1.015839492425842
 20
1.936409819229044
 30
0.0
 40
0.048
100
AcDbArc
 50
199.9999999999998
 51
289.9999999999998
  0
INSERT
  5
4CF
330
2
100
AcDbEntity
  8
DIM
100
AcDbBlockReference
 66
     1
  2
rvsn_blk
 10
12.18182267757016
 20
-0.611624307025104
 30
0.0
 41
2.0
 42
2.0
 43
2.0
  0
ATTRIB
  5
4D0
330
4CF
100
AcDbEntity
  8
DIM
100
AcDbText
 10
11.89317212111168
 20
-0.5230778264494678
 30
2.0
 40
0.14
  1
2
  7
SIMPLEX
100
AcDbAttribute
  2
X
 70
     0
  0
ATTRIB
  5
4D1
330
4CF
100
AcDbEntity
  8
DIM
100
AcDbText
 10
12.25012318526678
 20
-0.5177116361416019
 30
2.0
 40
0.14
  1
12/13/01
  7
SIMPLEX
 72
     1
 11
12.72012318526678
 21
-0.5177116361416019
 31
2.0
100
AcDbAttribute
  2
DATE
 70
     0
  0
ATTRIB
  5
4D2
330
4CF
100
AcDbEntity
  8
DIM
100
AcDbText
 10
13.52150194590232
 20
-0.5177116361416019
 30
2.0
 40
0.14
  1
CPD
  7
SIMPLEX
 72
     1
 11
13.70816861256898
 21
-0.5177116361416019
 31
2.0
100
AcDbAttribute
  2
XXX
 70
     0
  0
SEQEND
  5
4D3
330
4CF
100
AcDbEntity
  8
DIM
  0
INSERT
  5
4E7
330
2
100
AcDbEntity
  8
DIM
100
AcDbBlockReference
 66
     1
  2
rvsn_sym
 10
-0.7999466454811435
 20
-1.410565648747257
 30
0.0
 41
2.0
 42
2.0
 43
2.0
  0
ATTRIB
  5
4E8
330
4E7
100
AcDbEntity
  8
PART
 62
     2
100
AcDbText
 10
-0.8677569473108668
 20
-1.452824397421702
 30
0.0
 40
0.14
  1
3
 72
     1
 11
-0.8210902806442001
 21
-1.452824397421702
 31
0.0
100
AcDbAttribute
  2
#
 70
     0
  0
SEQEND
  5
4E9
330
4E7
100
AcDbEntity
  8
DIM
  0
INSERT
  5
4F8
330
2
100
AcDbEntity
  8
DIM
100
AcDbBlockReference
 66
     1
  2
rvsn_blk
 10
12.18182267757016
 20
-0.9716243070251035
 30
0.0
 41
2.0
 42
2.0
 43
2.0
  0
ATTRIB
  5
4F9
330
4F8
100
AcDbEntity
  8
DIM
100
AcDbText
 10
11.89317212111168
 20
-0.8830778264494673
 30
2.0
 40
0.14
  1
3
  7
SIMPLEX
100
AcDbAttribute
  2
X
 70
     0
  0
ATTRIB
  5
4FA
330
4F8
100
AcDbEntity
  8
DIM
100
AcDbText
 10
12.32678985193345
 20
-0.8777116361416014
 30
2.0
 40
0.14
  1
9/3/02
  7
SIMPLEX
 72
     1
 11
12.72012318526678
 21
-0.8777116361416014
 31
2.0
100
AcDbAttribute
  2
DATE
 70
     0
  0
ATTRIB
  5
4FB
330
4F8
100
AcDbEntity
  8
DIM
100
AcDbText
 10
13.52150194590232
 20
-0.8777116361416014
 30
2.0
 40
0.14
  1
CPD
  7
SIMPLEX
 72
     1
 11
13.70816861256898
 21
-0.8777116361416014
 31
2.0
100
AcDbAttribute
  2
XXX
 70
     0
  0
SEQEND
  5
4FC
330
4F8
100
AcDbEntity
  8
DIM
  0
ENDSEC
  0
SECTION
  2
OBJECTS
  0
DICTIONARY
  5
1B
330
0
100
AcDbDictionary
281
     1
  3
ACAD_COLOR
350
50A
  3
ACAD_GROUP
350
19
  3
ACAD_LAYOUT
350
26A
  3
ACAD_MATERIAL
350
509
  3
ACAD_MLINESTYLE
350
1A
  3
ACAD_PLOTSETTINGS
350
269
  3
ACAD_PLOTSTYLENAME
350
267
  3
ACAD_TABLESTYLE
350
50B
  3
AcDbVariableDictionary
350
4C7
  3
ASE_INDEX_DICTIONARY
350
513
  0
DICTIONARY
  5
50A
102
{ACAD_REACTORS
330
1B
102
}
330
1B
100
AcDbDictionary
281
     1
  0
DICTIONARY
  5
19
102
{ACAD_REACTORS
330
1B
102
}
330
1B
100
AcDbDictionary
281
     1
  0
DICTIONARY
  5
26A
102
{ACAD_REACTORS
330
1B
102
}
330
1B
100
AcDbDictionary
281
     1
  3
Layout1
350
26C
  3
Model
350
26B
  0
DICTIONARY
  5
509
102
{ACAD_REACTORS
330
1B
102
}
330
1B
100
AcDbDictionary
281
     1
  0
DICTIONARY
  5
1A
102
{ACAD_REACTORS
330
1B
102
}
330
1B
100
AcDbDictionary
281
     1
  3
STANDARD
350
1D
  0
DICTIONARY
  5
269
102
{ACAD_REACTORS
330
1B
102
}
330
1B
100
AcDbDictionary
281
     1
  0
ACDBDICTIONARYWDFLT
  5
267
102
{ACAD_REACTORS
330
1B
102
}
330
1B
100
AcDbDictionary
281
     1
  3
Normal
350
268
100
AcDbDictionaryWithDefault
340
268
  0
DICTIONARY
  5
50B
102
{ACAD_REACTORS
330
1B
102
}
330
1B
100
AcDbDictionary
281
     1
  3
Standard
350
50C
  0
DICTIONARY
  5
4C7
102
{ACAD_REACTORS
330
1B
102
}
330
1B
100
AcDbDictionary
281
     1
  3
CTABLESTYLE
350
516
  3
DIMASSOC
350
4C8
  0
DICTIONARY
  5
513
102
{ACAD_REACTORS
330
1B
102
}
330
1B
100
AcDbDictionary
281
     1
  3
ASEBlockHierarchyIndexRecord
350
515
1001
DCO15
1040
1511513254.886
  0
LAYOUT
  5
26C
102
{ACAD_REACTORS
330
26A
102
}
330
26A
100
AcDbPlotSettings
  1

  2

  4

  6

 40
0.0
 41
0.0
 42
0.0
 43
0.0
 44
0.0
 45
0.0
 46
0.0
 47
0.0
 48
0.0
 49
0.0
140
0.0
141
0.0
142
1.0
143
1.0
 70
   688
 72
     0
 73
     0
 74
     5
  7
monochrome.ctb
 75
    16
147
1.0
 76
     0
 77
     2
 78
   300
148
0.0
149
0.0
100
AcDbLayout
  1
Layout1
 70
     1
 71
     1
 10
0.0
 20
0.0
 11
12.0
 21
9.0
 12
0.0
 22
0.0
 32
0.0
 14
1.000000000000000E+20
 24
1.000000000000000E+20
 34
1.000000000000000E+20
 15
-1.000000000000000E+20
 25
-1.000000000000000E+20
 35
-1.000000000000000E+20
146
0.0
 13
0.0
 23
0.0
 33
0.0
 16
1.0
 26
0.0
 36
0.0
 17
0.0
 27
1.0
 37
0.0
 76
     0
330
3
  0
LAYOUT
  5
26B
102
{ACAD_REACTORS
330
26A
102
}
330
26A
100
AcDbPlotSettings
  1

  2
HPGL.pc3
  4
ANSI_A_(11.00_x_8.50_Inches)
  6

 40
11.5657377243042
 41
9.699920654296875
 42
11.59060668945312
 43
9.737228393554687
 44
279.3999938964844
 45
215.8999938964844
 46
0.0
 47
1.27
 48
-6.686416596340315
 49
-3.060255117328161
140
14.21358340365968
141
12.73974488267184
142
1.0
143
2.071700122409411
 70
 11956
 72
     0
 73
     0
 74
     4
  7
monochrome.ctb
 75
     0
147
0.4826953424306353
 76
     0
 77
     2
 78
   300
148
169.834981547044
149
77.73047998013528
100
AcDbLayout
  1
Model
 70
     1
 71
     0
 10
0.0
 20
0.0
 11
12.0
 21
9.0
 12
0.0
 22
0.0
 32
0.0
 14
0.0
 24
0.0
 34
0.0
 15
0.0
 25
0.0
 35
0.0
146
0.0
 13
0.0
 23
0.0
 33
0.0
 16
1.0
 26
0.0
 36
0.0
 17
0.0
 27
1.0
 37
0.0
 76
     0
330
2
  0
MLINESTYLE
  5
1D
102
{ACAD_REACTORS
330
1A
102
}
330
1A
100
AcDbMlineStyle
  2
STANDARD
 70
     0
  3

 62
     0
 51
90.0
 52
90.0
 71
     2
 49
0.5
 62
   256
  6
BYLAYER
 49
-0.5
 62
   256
  6
BYLAYER
  0
ACDBPLACEHOLDER
  5
268
102
{ACAD_REACTORS
330
267
102
}
330
267
  0
TABLESTYLE
  5
50C
102
{ACAD_REACTORS
330
50B
102
}
330
50B
100
AcDbTableStyle
  3
Standard
 70
     0
 71
     0
 40
0.06
 41
0.06
280
     0
281
     0
  7
STANDARD
140
0.18
170
     2
 62
     0
 63
     7
283
     0
274
    -2
284
     1
 64
     0
275
    -2
285
     1
 65
     0
276
    -2
286
     1
 66
     0
277
    -2
287
     1
 67
     0
278
    -2
288
     1
 68
     0
279
    -2
289
     1
 69
     0
  7
STANDARD
140
0.25
170
     5
 62
     0
 63
     7
283
     0
274
    -2
284
     1
 64
     0
275
    -2
285
     1
 65
     0
276
    -2
286
     1
 66
     0
277
    -2
287
     1
 67
     0
278
    -2
288
     1
 68
     0
279
    -2
289
     1
 69
     0
  7
STANDARD
140
0.18
170
     5
 62
     0
 63
     7
283
     0
274
    -2
284
     1
 64
     0
275
    -2
285
     1
 65
     0
276
    -2
286
     1
 66
     0
277
    -2
287
     1
 67
     0
278
    -2
288
     1
 68
     0
279
    -2
289
     1
 69
     0
  0
DICTIONARYVAR
  5
516
102
{ACAD_REACTORS
330
4C7
102
}
330
4C7
100
DictionaryVariables
280
     0
  1
STANDARD
  0
DICTIONARYVAR
  5
4C8
102
{ACAD_REACTORS
330
4C7
102
}
330
4C7
100
DictionaryVariables
280
     0
  1
0
  0
XRECORD
  5
515
102
{ACAD_REACTORS
330
513
102
}
330
513
100
AcDbXrecord
280
     1
330
429
330
444
330
4CF
330
4E7
330
4F8
330
CD
330
CE
330
F5
330
2F9
330
3A2
  0
ENDSEC
  0
EOF
