  0
SECTION
  2
HEADER
  9
$ACADVER
  1
AC1018
  9
$ACADMAINTVER
 70
    39
  9
$DWGCODEPAGE
  3
ANSI_1252
  9
$INSBASE
 10
53.14501609367886
 20
34.27867041627987
 30
0.0
  9
$EXTMIN
 10
-6.687719183008141
 20
-3.061080867774187
 30
-0.0000610304997082
  9
$EXTMAX
 10
14.21387851771376
 20
12.74085947770322
 30
0.000091555062788
  9
$LIMMIN
 10
0.0
 20
0.0
  9
$LIMMAX
 10
36.0
 20
24.0
  9
$ORTHOMODE
 70
     1
  9
$REGENMODE
 70
     1
  9
$FILLMODE
 70
     1
  9
$QTEXTMODE
 70
     0
  9
$MIRRTEXT
 70
     0
  9
$LTSCALE
 40
1.0
  9
$ATTMODE
 70
     1
  9
$TEXTSIZE
 40
0.15
  9
$TRACEWID
 40
0.05
  9
$TEXTSTYLE
  7
STANDARD
  9
$CLAYER
  8
DIM
  9
$CELTYPE
  6
BYLAYER
  9
$CECOLOR
 62
   256
  9
$CELTSCALE
 40
1.0
  9
$DISPSILH
 70
     0
  9
$DIMSCALE
 40
1.0
  9
$DIMASZ
 40
0.1
  9
$DIMEXO
 40
0.1
  9
$DIMDLI
 40
0.375
  9
$DIMRND
 40
0.0
  9
$DIMDLE
 40
0.0
  9
$DIMEXE
 40
0.0625
  9
$DIMTP
 40
0.0
  9
$DIMTM
 40
0.0
  9
$DIMTXT
 40
0.1
  9
$DIMCEN
 40
0.09
  9
$DIMTSZ
 40
0.0
  9
$DIMTOL
 70
     0
  9
$DIMLIM
 70
     0
  9
$DIMTIH
 70
     0
  9
$DIMTOH
 70
     1
  9
$DIMSE1
 70
     0
  9
$DIMSE2
 70
     0
  9
$DIMTAD
 70
     0
  9
$DIMZIN
 70
     0
  9
$DIMBLK
  1

  9
$DIMASO
 70
     0
  9
$DIMSHO
 70
     1
  9
$DIMPOST
  1

  9
$DIMAPOST
  1

  9
$DIMALT
 70
     0
  9
$DIMALTD
 70
     2
  9
$DIMALTF
 40
25.4
  9
$DIMLFAC
 40
1.0
  9
$DIMTOFL
 70
     0
  9
$DIMTVP
 40
0.0
  9
$DIMTIX
 70
     1
  9
$DIMSOXD
 70
     0
  9
$DIMSAH
 70
     0
  9
$DIMBLK1
  1

  9
$DIMBLK2
  1

  9
$DIMSTYLE
  2
STANDARD
  9
$DIMCLRD
 70
     0
  9
$DIMCLRE
 70
     0
  9
$DIMCLRT
 70
     0
  9
$DIMTFAC
 40
1.0
  9
$DIMGAP
 40
0.09
  9
$DIMJUST
 70
     0
  9
$DIMSD1
 70
     0
  9
$DIMSD2
 70
     0
  9
$DIMTOLJ
 70
     1
  9
$DIMTZIN
 70
     0
  9
$DIMALTZ
 70
     0
  9
$DIMALTTZ
 70
     0
  9
$DIMUPT
 70
     0
  9
$DIMDEC
 70
     4
  9
$DIMTDEC
 70
     4
  9
$DIMALTU
 70
     2
  9
$DIMALTTD
 70
     2
  9
$DIMTXSTY
  7
STANDARD
  9
$DIMAUNIT
 70
     0
  9
$DIMADEC
 70
     0
  9
$DIMALTRND
 40
0.0
  9
$DIMAZIN
 70
     0
  9
$DIMDSEP
 70
    46
  9
$DIMATFIT
 70
     3
  9
$DIMFRAC
 70
     0
  9
$DIMLDRBLK
  1

  9
$DIMLUNIT
 70
     2
  9
$DIMLWD
 70
    -2
  9
$DIMLWE
 70
    -2
  9
$DIMTMOVE
 70
     0
  9
$LUNITS
 70
     2
  9
$LUPREC
 70
     3
  9
$SKETCHINC
 40
0.1
  9
$FILLETRAD
 40
0.2
  9
$AUNITS
 70
     0
  9
$AUPREC
 70
     2
  9
$MENU
  1
acad
  9
$ELEVATION
 40
0.0
  9
$PELEVATION
 40
0.0
  9
$THICKNESS
 40
0.0
  9
$LIMCHECK
 70
     0
  9
$CHAMFERA
 40
0.0
  9
$CHAMFERB
 40
0.0
  9
$CHAMFERC
 40
0.0
  9
$CHAMFERD
 40
0.0
  9
$SKPOLY
 70
     0
  9
$TDCREATE
 40
2449098.716565278
  9
$TDUCREATE
 40
2449098.924898611
  9
$TDUPDATE
 40
2455768.447555347
  9
$TDUUPDATE
 40
2455768.655888681
  9
$TDINDWG
 40
0.0358490394
  9
$TDUSRTIMER
 40
0.0358483102
  9
$USRTIMER
 70
     1
  9
$ANGBASE
 50
0.0
  9
$ANGDIR
 70
     0
  9
$PDMODE
 70
     0
  9
$PDSIZE
 40
0.0
  9
$PLINEWID
 40
0.0
  9
$SPLFRAME
 70
     0
  9
$SPLINETYPE
 70
     6
  9
$SPLINESEGS
 70
     8
  9
$HANDSEED
  5
B99
  9
$SURFTAB1
 70
     6
  9
$SURFTAB2
 70
     6
  9
$SURFTYPE
 70
     6
  9
$SURFU
 70
     6
  9
$SURFV
 70
     6
  9
$UCSBASE
  2

  9
$UCSNAME
  2

  9
$UCSORG
 10
0.0
 20
0.0
 30
0.0
  9
$UCSXDIR
 10
1.0
 20
0.0
 30
0.0
  9
$UCSYDIR
 10
0.0
 20
1.0
 30
0.0
  9
$UCSORTHOREF
  2

  9
$UCSORTHOVIEW
 70
     0
  9
$UCSORGTOP
 10
0.0
 20
0.0
 30
0.0
  9
$UCSORGBOTTOM
 10
0.0
 20
0.0
 30
0.0
  9
$UCSORGLEFT
 10
0.0
 20
0.0
 30
0.0
  9
$UCSORGRIGHT
 10
0.0
 20
0.0
 30
0.0
  9
$UCSORGFRONT
 10
0.0
 20
0.0
 30
0.0
  9
$UCSORGBACK
 10
0.0
 20
0.0
 30
0.0
  9
$PUCSBASE
  2

  9
$PUCSNAME
  2

  9
$PUCSORG
 10
0.0
 20
0.0
 30
0.0
  9
$PUCSXDIR
 10
1.0
 20
0.0
 30
0.0
  9
$PUCSYDIR
 10
0.0
 20
1.0
 30
0.0
  9
$PUCSORTHOREF
  2

  9
$PUCSORTHOVIEW
 70
     0
  9
$PUCSORGTOP
 10
0.0
 20
0.0
 30
0.0
  9
$PUCSORGBOTTOM
 10
0.0
 20
0.0
 30
0.0
  9
$PUCSORGLEFT
 10
0.0
 20
0.0
 30
0.0
  9
$PUCSORGRIGHT
 10
0.0
 20
0.0
 30
0.0
  9
$PUCSORGFRONT
 10
0.0
 20
0.0
 30
0.0
  9
$PUCSORGBACK
 10
0.0
 20
0.0
 30
0.0
  9
$USERI1
 70
     0
  9
$USERI2
 70
     0
  9
$USERI3
 70
     0
  9
$USERI4
 70
     0
  9
$USERI5
 70
     0
  9
$USERR1
 40
0.0
  9
$USERR2
 40
0.0
  9
$USERR3
 40
0.0
  9
$USERR4
 40
0.0
  9
$USERR5
 40
0.0
  9
$WORLDVIEW
 70
     1
  9
$SHADEDGE
 70
     3
  9
$SHADEDIF
 70
    70
  9
$TILEMODE
 70
     1
  9
$MAXACTVP
 70
    16
  9
$PINSBASE
 10
0.0
 20
0.0
 30
0.0
  9
$PLIMCHECK
 70
     0
  9
$PEXTMIN
 10
1.000000000000000E+20
 20
1.000000000000000E+20
 30
1.000000000000000E+20
  9
$PEXTMAX
 10
-1.000000000000000E+20
 20
-1.000000000000000E+20
 30
-1.000000000000000E+20
  9
$PLIMMIN
 10
0.0
 20
0.0
  9
$PLIMMAX
 10
12.0
 20
9.0
  9
$UNITMODE
 70
     0
  9
$VISRETAIN
 70
     0
  9
$PLINEGEN
 70
     0
  9
$PSLTSCALE
 70
     1
  9
$TREEDEPTH
 70
  3020
  9
$CMLSTYLE
  2
STANDARD
  9
$CMLJUST
 70
     0
  9
$CMLSCALE
 40
1.0
  9
$PROXYGRAPHICS
 70
     0
  9
$MEASUREMENT
 70
     0
  9
$CELWEIGHT
370
    -1
  9
$ENDCAPS
280
     0
  9
$JOINSTYLE
280
     0
  9
$LWDISPLAY
290
     0
  9
$INSUNITS
 70
     0
  9
$HYPERLINKBASE
  1

  9
$STYLESHEET
  1
MONOCHROME.CTB
  9
$XEDIT
290
     1
  9
$CEPSNTYPE
380
     0
  9
$PSTYLEMODE
290
     1
  9
$FINGERPRINTGUID
  2
{23ACBF3A-4E77-11D3-9C30-006008208A1C}
  9
$VERSIONGUID
  2
{F61A3031-47D4-4AC5-A7D5-571BB6D20ECA}
  9
$EXTNAMES
290
     1
  9
$PSVPSCALE
 40
0.0
  9
$OLESTARTUP
290
     0
  9
$SORTENTS
280
   127
  9
$INDEXCTL
280
     0
  9
$HIDETEXT
280
     0
  9
$XCLIPFRAME
290
     0
  9
$HALOGAP
280
     0
  9
$OBSCOLOR
 70
   257
  9
$OBSLTYPE
280
     0
  9
$INTERSECTIONDISPLAY
280
     0
  9
$INTERSECTIONCOLOR
 70
   257
  9
$DIMASSOC
280
     0
  9
$PROJECTNAME
  1

  0
ENDSEC
  0
SECTION
  2
CLASSES
  0
CLASS
  1
ACDBDICTIONARYWDFLT
  2
AcDbDictionaryWithDefault
  3
ObjectDBX Classes
 90
        0
 91
        1
280
     0
281
     0
  0
CLASS
  1
DICTIONARYVAR
  2
AcDbDictionaryVar
  3
ObjectDBX Classes
 90
        0
 91
        2
280
     0
281
     0
  0
CLASS
  1
TABLESTYLE
  2
AcDbTableStyle
  3
ObjectDBX Classes
 90
     2047
 91
        1
280
     0
281
     0
  0
CLASS
  1
SORTENTSTABLE
  2
AcDbSortentsTable
  3
ObjectDBX Classes
 90
        0
 91
        1
280
     0
281
     0
  0
ENDSEC
  0
SECTION
  2
TABLES
  0
TABLE
  2
VPORT
  5
13
330
0
100
AcDbSymbolTable
 70
     3
  0
VPORT
  5
B98
330
13
100
AcDbSymbolTableRecord
100
AcDbViewportTableRecord
  2
*Active
 70
     0
 10
0.0
 20
0.0
 11
1.0
 21
1.0
 12
3.76307966735281
 22
4.839889304964514
 13
0.0
 23
0.0
 14
0.0625
 24
0.0625
 15
0.25
 25
0.25
 16
0.0
 26
0.0
 36
1.0
 17
0.0
 27
0.0
 37
0.0
 40
15.92735257044151
 41
2.386754966887417
 42
50.0
 43
0.0
 44
0.0
 50
0.0
 51
0.0
 71
     0
 72
 20000
 73
     1
 74
     0
 75
     0
 76
     0
 77
     0
 78
     1
281
     0
 65
     1
110
0.0
120
0.0
130
0.0
111
1.0
121
0.0
131
0.0
112
0.0
122
1.0
132
0.0
 79
     0
146
0.0
  0
ENDTAB
  0
TABLE
  2
LTYPE
  5
F
330
0
100
AcDbSymbolTable
 70
     4
  0
LTYPE
  5
10
330
F
100
AcDbSymbolTableRecord
100
AcDbLinetypeTableRecord
  2
BYBLOCK
 70
     0
  3

 72
    65
 73
     0
 40
0.0
  0
LTYPE
  5
9
330
F
100
AcDbSymbolTableRecord
100
AcDbLinetypeTableRecord
  2
BYLAYER
 70
     0
  3

 72
    65
 73
     0
 40
0.0
  0
LTYPE
  5
A
330
F
100
AcDbSymbolTableRecord
100
AcDbLinetypeTableRecord
  2
CONTINUOUS
 70
     0
  3
Solid line
 72
    65
 73
     0
 40
0.0
  0
LTYPE
  5
396
330
F
100
AcDbSymbolTableRecord
100
AcDbLinetypeTableRecord
  2
CENTER
 70
     0
  3
Center ____ _ ____ _ ____ _ ____ _ ____ _ ____
 72
    65
 73
     4
 40
2.0
 49
1.25
 74
     0
 49
-0.25
 74
     0
 49
0.25
 74
     0
 49
-0.25
 74
     0
  0
LTYPE
  5
397
330
F
100
AcDbSymbolTableRecord
100
AcDbLinetypeTableRecord
  2
HIDDEN
 70
     0
  3
Hidden __ __ __ __ __ __ __ __ __ __ __ __ __ _
 72
    65
 73
     2
 40
0.375
 49
0.25
 74
     0
 49
-0.125
 74
     0
  0
LTYPE
  5
398
330
F
100
AcDbSymbolTableRecord
100
AcDbLinetypeTableRecord
  2
PHANTOM
 70
     0
  3
Phantom ______  __  __  ______  __  __  ______
 72
    65
 73
     6
 40
2.5
 49
1.25
 74
     0
 49
-0.25
 74
     0
 49
0.25
 74
     0
 49
-0.25
 74
     0
 49
0.25
 74
     0
 49
-0.25
 74
     0
  0
ENDTAB
  0
TABLE
  2
LAYER
  5
B
330
0
100
AcDbSymbolTable
 70
     9
  0
LAYER
  5
C
330
B
100
AcDbSymbolTableRecord
100
AcDbLayerTableRecord
  2
0
 70
     0
 62
     7
  6
CONTINUOUS
370
    -3
390
268
  0
LAYER
  5
1F
330
B
100
AcDbSymbolTableRecord
100
AcDbLayerTableRecord
  2
PART
 70
     0
 62
     1
  6
CONTINUOUS
370
    -3
390
268
  0
LAYER
  5
8
330
B
100
AcDbSymbolTableRecord
100
AcDbLayerTableRecord
  2
DIM
 70
     0
 62
     2
  6
CONTINUOUS
370
    -3
390
268
  0
LAYER
  5
399
330
B
100
AcDbSymbolTableRecord
100
AcDbLayerTableRecord
  2
CENTER
 70
     0
 62
     5
  6
CENTER
370
    -3
390
268
  0
LAYER
  5
39A
330
B
100
AcDbSymbolTableRecord
100
AcDbLayerTableRecord
  2
HIDDEN
 70
     0
 62
     3
  6
HIDDEN
370
    -3
390
268
  0
LAYER
  5
39B
330
B
100
AcDbSymbolTableRecord
100
AcDbLayerTableRecord
  2
PHANTOM
 70
     0
 62
     6
  6
PHANTOM
370
    -3
390
268
  0
LAYER
  5
39C
330
B
100
AcDbSymbolTableRecord
100
AcDbLayerTableRecord
  2
TRIM
 70
     0
 62
     1
  6
CONTINUOUS
370
    -3
390
268
  0
LAYER
  5
39D
330
B
100
AcDbSymbolTableRecord
100
AcDbLayerTableRecord
  2
SOLID
 70
     0
 62
     5
  6
CONTINUOUS
370
    -3
390
268
  0
LAYER
  5
4DD
330
B
100
AcDbSymbolTableRecord
100
AcDbLayerTableRecord
  2
NOTES
 70
     0
 62
     3
  6
CONTINUOUS
370
    -3
390
268
  0
ENDTAB
  0
TABLE
  2
STYLE
  5
D
330
0
100
AcDbSymbolTable
 70
     6
  0
STYLE
  5
E
330
D
100
AcDbSymbolTableRecord
100
AcDbTextStyleTableRecord
  2
STANDARD
 70
     0
 40
0.0
 41
1.0
 50
0.0
 71
     0
 42
0.15
  3
simplex.shx
  4

  0
STYLE
  5
A5
330
D
100
AcDbSymbolTableRecord
100
AcDbTextStyleTableRecord
  2
ROMANC
 70
     0
 40
0.0
 41
1.0
 50
0.0
 71
     0
 42
0.2404204446679756
  3
romanc
  4

  0
STYLE
  5
19B
330
D
100
AcDbSymbolTableRecord
100
AcDbTextStyleTableRecord
  2
ROMAND
 70
     0
 40
0.0
 41
1.0
 50
0.0
 71
     0
 42
0.4
  3
ROMAND.shx
  4

  0
STYLE
  5
39E
330
D
100
AcDbSymbolTableRecord
100
AcDbTextStyleTableRecord
  2

 70
     1
 40
0.0
 41
1.0
 50
0.0
 71
     0
 42
0.2
  3
ltypeshp.shx
  4

  0
STYLE
  5
39F
330
D
100
AcDbSymbolTableRecord
100
AcDbTextStyleTableRecord
  2
SIMPLEX
 70
     0
 40
0.0
 41
1.0
 50
0.0
 71
     0
 42
0.2
  3
SIMPLEX.shx
  4

  0
STYLE
  5
3A0
330
D
100
AcDbSymbolTableRecord
100
AcDbTextStyleTableRecord
  2
SCRIPT
 70
     0
 40
0.0
 41
0.95
 50
0.0
 71
     0
 42
0.09
  3
scripts.shx
  4

  0
ENDTAB
  0
TABLE
  2
VIEW
  5
11
330
0
100
AcDbSymbolTable
 70
     0
  0
ENDTAB
  0
TABLE
  2
UCS
  5
12
330
0
100
AcDbSymbolTable
 70
     0
  0
ENDTAB
  0
TABLE
  2
APPID
  5
15
330
0
100
AcDbSymbolTable
 70
     4
  0
APPID
  5
16
330
15
100
AcDbSymbolTableRecord
100
AcDbRegAppTableRecord
  2
ACAD
 70
     0
  0
APPID
  5
514
330
15
100
AcDbSymbolTableRecord
100
AcDbRegAppTableRecord
  2
DCO15
 70
     0
  0
APPID
  5
520
330
15
100
AcDbSymbolTableRecord
100
AcDbRegAppTableRecord
  2
AcAecLayerStandard
 70
     0
  0
APPID
  5
521
330
15
100
AcDbSymbolTableRecord
100
AcDbRegAppTableRecord
  2
ACAD_PSEXT
 70
     0
  0
ENDTAB
  0
TABLE
  2
DIMSTYLE
  5
17
330
0
100
AcDbSymbolTable
 70
     2
100
AcDbDimStyleTable
 71
     1
340
1C
  0
DIMSTYLE
105
1C
330
17
100
AcDbSymbolTableRecord
100
AcDbDimStyleTableRecord
  2
STANDARD
 70
     0
340
E
  0
DIMSTYLE
105
43D
330
17
100
AcDbSymbolTableRecord
100
AcDbDimStyleTableRecord
  2
STDANG
 70
     0
 41
0.1
 43
0.375
 44
0.0625
 73
     0
 74
     0
 78
     5
140
0.1
141
0.05
147
0.075
271
     3
272
     2
284
     5
340
E
  0
ENDTAB
  0
TABLE
  2
BLOCK_RECORD
  5
1
330
0
100
AcDbSymbolTable
 70
    25
  0
BLOCK_RECORD
  5
2
102
{ACAD_XDICTIONARY
360
B94
102
}
330
1
100
AcDbSymbolTableRecord
100
AcDbBlockTableRecord
  2
*MODEL_SPACE
340
26B
  0
BLOCK_RECORD
  5
3
330
1
100
AcDbSymbolTableRecord
100
AcDbBlockTableRecord
  2
*PAPER_SPACE
340
26C
  0
BLOCK_RECORD
  5
65
330
1
100
AcDbSymbolTableRecord
100
AcDbBlockTableRecord
  2
COPU
340
0
102
{BLKREFS
331
CD
331
CE
102
}
  0
BLOCK_RECORD
  5
9E
330
1
100
AcDbSymbolTableRecord
100
AcDbBlockTableRecord
  2
V
340
0
102
{BLKREFS
331
F5
102
}
  0
BLOCK_RECORD
  5
A6
330
1
100
AcDbSymbolTableRecord
100
AcDbBlockTableRecord
  2
WYE_TOP
340
0
  0
BLOCK_RECORD
  5
19C
330
1
100
AcDbSymbolTableRecord
100
AcDbBlockTableRecord
  2
X712-TOP
340
0
  0
BLOCK_RECORD
  5
254
330
1
100
AcDbSymbolTableRecord
100
AcDbBlockTableRecord
  2
TB_A
340
0
  0
BLOCK_RECORD
  5
271
330
1
100
AcDbSymbolTableRecord
100
AcDbBlockTableRecord
  2
A$C435B465C
340
0
  0
BLOCK_RECORD
  5
2E8
330
1
100
AcDbSymbolTableRecord
100
AcDbBlockTableRecord
  2
A$C4FB65283
340
0
102
{BLKREFS
331
3A2
331
2F9
102
}
  0
BLOCK_RECORD
  5
2EC
330
1
100
AcDbSymbolTableRecord
100
AcDbBlockTableRecord
  2
A$C2BBE0097
340
0
  0
BLOCK_RECORD
  5
2F0
330
1
100
AcDbSymbolTableRecord
100
AcDbBlockTableRecord
  2
A$C10236829
340
0
  0
BLOCK_RECORD
  5
2F4
330
1
100
AcDbSymbolTableRecord
100
AcDbBlockTableRecord
  2
A$C794932C0
340
0
  0
BLOCK_RECORD
  5
2F8
330
1
100
AcDbSymbolTableRecord
100
AcDbBlockTableRecord
  2
TEST
340
0
  0
BLOCK_RECORD
  5
376
330
1
100
AcDbSymbolTableRecord
100
AcDbBlockTableRecord
  2
A$C56887695
340
0
  0
BLOCK_RECORD
  5
37A
330
1
100
AcDbSymbolTableRecord
100
AcDbBlockTableRecord
  2
A$C406F4052
340
0
  0
BLOCK_RECORD
  5
37E
330
1
100
AcDbSymbolTableRecord
100
AcDbBlockTableRecord
  2
A$C217D2A32
340
0
  0
BLOCK_RECORD
  5
382
330
1
100
AcDbSymbolTableRecord
100
AcDbBlockTableRecord
  2
A$C26835032
340
0
  0
BLOCK_RECORD
  5
386
330
1
100
AcDbSymbolTableRecord
100
AcDbBlockTableRecord
  2
A$C11730435
340
0
  0
BLOCK_RECORD
  5
38A
330
1
100
AcDbSymbolTableRecord
100
AcDbBlockTableRecord
  2
A$C740A492C
340
0
  0
BLOCK_RECORD
  5
38E
330
1
100
AcDbSymbolTableRecord
100
AcDbBlockTableRecord
  2
A$C251463E3
340
0
  0
BLOCK_RECORD
  5
392
330
1
100
AcDbSymbolTableRecord
100
AcDbBlockTableRecord
  2
A$C46507260
340
0
  0
BLOCK_RECORD
  5
3A1
330
1
100
AcDbSymbolTableRecord
100
AcDbBlockTableRecord
  2
tft_aprlist
340
0
102
{BLKREFS
331
429
102
}
  0
BLOCK_RECORD
  5
43E
330
1
100
AcDbSymbolTableRecord
100
AcDbBlockTableRecord
  2
rvsn_blk
340
0
  0
BLOCK_RECORD
  5
4D4
330
1
100
AcDbSymbolTableRecord
100
AcDbBlockTableRecord
  2
safety_sym
340
0
  0
BLOCK_RECORD
  5
4DE
330
1
100
AcDbSymbolTableRecord
100
AcDbBlockTableRecord
  2
rvsn_sym
340
0
  0
ENDTAB
  0
ENDSEC
  0
SECTION
  2
BLOCKS
  0
BLOCK
  5
4
330
2
100
AcDbEntity
  8
0
100
AcDbBlockBegin
  2
*MODEL_SPACE
 70
     0
 10
0.0
 20
0.0
 30
0.0
  3
*MODEL_SPACE
  1

  0
ENDBLK
  5
5
330
2
100
AcDbEntity
  8
0
100
AcDbBlockEnd
  0
BLOCK
  5
6
330
3
100
AcDbEntity
 67
     1
  8
0
100
AcDbBlockBegin
  2
*PAPER_SPACE
 70
     0
 10
0.0
 20
0.0
 30
0.0
  3
*PAPER_SPACE
  1

  0
ENDBLK
  5
7
330
3
100
AcDbEntity
 67
     1
  8
0
100
AcDbBlockEnd
  0
BLOCK
  5
9A
330
65
100
AcDbEntity
  8
0
100
AcDbBlockBegin
  2
COPU
 70
     0
 10
0.0
 20
0.0
 30
0.0
  3
COPU
  1

  0
LINE
  5
66
330
65
100
AcDbEntity
  8
PART
100
AcDbLine
 10
0.5650172767740039
 20
1.552372209538321
 30
0.0
 11
-0.5650172767740039
 21
-1.552372209538321
 31
0.0
  0
LINE
  5
67
330
65
100
AcDbEntity
  8
PART
100
AcDbLine
 10
-0.6377892778319599
 20
1.990157992995182
 30
0.0
 11
-1.767823831379971
 21
-1.114586426081461
 31
0.0
  0
LINE
  5
68
330
65
100
AcDbEntity
  8
PART
100
AcDbLine
 10
-0.2812584217007732
 20
-0.5388468106412711
 30
0.0
 11
-0.4429806715863692
 21
-0.9831750404253476
 31
0.0
  0
POLYLINE
  5
69
330
65
100
AcDbEntity
  8
PART
100
AcDb2dPolyline
 66
     1
 10
0.0
 20
0.0
 30
0.0
  0
VERTEX
  5
6A
330
69
100
AcDbEntity
  8
PART
100
AcDbVertex
100
AcDb2dVertex
 10
-0.2812584217007732
 20
-0.5388468106412711
 30
0.0
  0
VERTEX
  5
6B
330
69
100
AcDbEntity
  8
PART
100
AcDbVertex
100
AcDb2dVertex
 10
-0.3690159915051829
 20
-0.6724807450073094
 30
0.0
 42
-0.4195803539130749
  0
VERTEX
  5
6C
330
69
100
AcDbEntity
  8
PART
100
AcDbVertex
100
AcDb2dVertex
 10
-0.4362154728076
 20
-0.6857660234065471
 30
0.0
  0
VERTEX
  5
6D
330
69
100
AcDbEntity
  8
PART
100
AcDbVertex
100
AcDb2dVertex
 10
-0.4776667992831385
 20
-0.657446559417064
 30
0.0
  0
SEQEND
  5
9C
330
69
100
AcDbEntity
  8
PART
  0
LINE
  5
6E
330
65
100
AcDbEntity
  8
PART
100
AcDbLine
 10
-1.333714156980985
 20
-0.1557842501165219
 30
0.0
 11
-0.2812584217007696
 21
-0.5388468106412711
 31
0.0
  0
LINE
  5
6F
330
65
100
AcDbEntity
  8
PART
100
AcDbLine
 10
-1.259491059777014
 20
-0.3728858001701134
 30
0.0
 11
-1.414616245115225
 21
-0.7990887440755579
 31
0.0
  0
LINE
  5
70
330
65
100
AcDbEntity
  8
PART
100
AcDbLine
 10
-1.259491059777022
 20
-0.3728858001701134
 30
0.0
 11
-0.4776667992831422
 21
-0.6574465594170711
 31
0.0
  0
LINE
  5
71
330
65
100
AcDbEntity
  8
PART
100
AcDbLine
 10
-1.333714156980985
 20
-0.1557842501165219
 30
0.0
 11
-1.495436406866584
 21
-0.6001124799005986
 31
0.0
  0
LINE
  5
72
330
65
100
AcDbEntity
  8
PART
100
AcDbLine
 10
-1.414616245115225
 20
-0.7990887440755579
 30
0.0
 11
-0.6327919846213526
 21
-1.083649503322507
 31
0.0
  0
LINE
  5
73
330
65
100
AcDbEntity
  8
PART
100
AcDbLine
 10
-0.6265394894513605
 20
-1.581060488456411
 30
0.0
 11
-1.73913555246188
 21
-1.176108638758821
 31
0.0
  0
LINE
  5
74
330
65
100
AcDbEntity
  8
PART
100
AcDbLine
 10
-1.414616245115225
 20
-0.7990887440755579
 30
0.0
 11
-1.428786221695506
 21
-0.6021928451420601
 31
0.0
  0
ARC
  5
75
330
65
100
AcDbEntity
  8
PART
100
AcDbCircle
 10
-1.452724311356913
 20
-0.6039155939231016
 30
0.0
 40
0.024
100
AcDbArc
 50
4.116299837691026
 51
118.9459478529371
  0
ARC
  5
76
330
65
100
AcDbEntity
  8
PART
100
AcDbCircle
 10
-1.722718585582245
 20
-1.131003392961093
 30
0.0
 40
0.048
100
AcDbArc
 50
160.0
 51
250.0
  0
LINE
  5
77
330
65
100
AcDbEntity
  8
PART
100
AcDbLine
 10
-1.464339934531824
 20
-0.5829137535690201
 30
0.0
 11
-1.495436406866584
 21
-0.6001124799005986
 31
0.0
  0
LINE
  5
78
330
65
100
AcDbEntity
  8
PART
100
AcDbLine
 10
-0.4776667992831422
 20
-0.6574465594170711
 30
0.0
 11
-0.6327919846213526
 21
-1.083649503322507
 31
0.0
  0
LINE
  5
79
330
65
100
AcDbEntity
  8
PART
100
AcDbLine
 10
-0.4557468232306868
 20
-0.9500116245685708
 30
0.0
 11
-0.4429806715863692
 21
-0.9831750404253476
 31
0.0
  0
LINE
  5
7A
330
65
100
AcDbEntity
  8
PART
100
AcDbLine
 10
-0.6327919846213526
 20
-1.083649503322507
 30
0.0
 11
-0.4953749085703585
 21
-0.9419267794469483
 31
0.0
  0
ARC
  5
7B
330
65
100
AcDbEntity
  8
PART
100
AcDbCircle
 10
-0.4781446295774111
 20
-0.9586335890114659
 30
0.0
 40
0.024
100
AcDbArc
 50
21.05405214706291
 51
135.8837001623091
  0
ARC
  5
7C
330
65
100
AcDbEntity
  8
PART
100
AcDbCircle
 10
-0.6101225225717251
 20
-1.535955242658689
 30
0.0
 40
0.048
100
AcDbArc
 50
250.0
 51
340.0
  0
LINE
  5
7D
330
65
100
AcDbEntity
  8
PART
100
AcDbLine
 10
-1.309448018648917
 20
-0.3679353691278102
 30
0.0
 11
-1.259491059777022
 21
-0.3728858001701134
 31
0.0
  0
ARC
  5
7E
330
65
100
AcDbEntity
  8
PART
100
AcDbCircle
 10
-1.304714693260134
 20
-0.3201693181002945
 30
0.0
 40
0.048
100
AcDbArc
 50
173.2929554962597
 51
264.3408118370319
  0
LINE
  5
7F
330
65
100
AcDbEntity
  8
PART
100
AcDbLine
 10
-1.333714156980985
 20
-0.1557842501165219
 30
0.0
 11
-1.352386195534846
 21
-0.314563261476227
 31
0.0
  0
POLYLINE
  5
80
330
65
100
AcDbEntity
  8
PART
100
AcDb2dPolyline
 66
     1
 10
0.0
 20
0.0
 30
0.0
 70
     1
  0
VERTEX
  5
81
330
80
100
AcDbEntity
  8
PART
100
AcDbVertex
100
AcDb2dVertex
 10
0.1056711314974983
 20
0.9920421037167519
 30
0.0
 42
0.0863188075832497
  0
VERTEX
  5
82
330
80
100
AcDbEntity
  8
PART
100
AcDbVertex
100
AcDb2dVertex
 10
0.0512572643391174
 20
1.001767077327992
 30
0.0
 42
0.0925889459849591
  0
VERTEX
  5
83
330
80
100
AcDbEntity
  8
PART
100
AcDbVertex
100
AcDb2dVertex
 10
0.0005006886529948
 20
0.9925305553579979
 30
0.0
 42
0.1030981112244744
 70
     2
 50
200.8933946491308
  0
VERTEX
  5
84
330
80
100
AcDbEntity
  8
PART
100
AcDbVertex
100
AcDb2dVertex
 10
-0.0420901091622632
 20
0.9652234528794814
 30
0.0
 42
0.1119976344768122
 50
220.8933946491307
  0
VERTEX
  5
85
330
80
100
AcDbEntity
  8
PART
100
AcDbVertex
100
AcDb2dVertex
 10
-0.067353573994172
 20
0.9259932483934283
 30
0.0
 42
0.1119976344768164
  0
VERTEX
  5
86
330
80
100
AcDbEntity
  8
PART
100
AcDbVertex
100
AcDb2dVertex
 10
-0.073217326514861
 20
0.8797021260727538
 30
0.0
 42
0.1030981112244851
  0
VERTEX
  5
87
330
80
100
AcDbEntity
  8
PART
100
AcDbVertex
100
AcDb2dVertex
 10
-0.0581435496501115
 20
0.8314068348391039
 30
0.0
 42
0.0925889459849671
 70
     2
 50
299.1066053508694
  0
VERTEX
  5
88
330
80
100
AcDbEntity
  8
PART
100
AcDbVertex
100
AcDb2dVertex
 10
-0.0251988787729189
 20
0.7917055505490787
 30
0.0
 42
0.0863188075832478
 50
319.1066053508692
  0
VERTEX
  5
89
330
80
100
AcDbEntity
  8
PART
100
AcDbVertex
100
AcDb2dVertex
 10
0.022735654334209
 20
0.7641787529389214
 30
0.0
 42
0.0863188075832488
  0
VERTEX
  5
8A
330
80
100
AcDbEntity
  8
PART
100
AcDbVertex
100
AcDb2dVertex
 10
0.077149521492597
 20
0.7544537793276726
 30
0.0
 42
0.0925889459849593
  0
VERTEX
  5
8B
330
80
100
AcDbEntity
  8
PART
100
AcDbVertex
100
AcDb2dVertex
 10
0.127906097178716
 20
0.7636903012976683
 30
0.0
 42
0.1030981112244806
 70
     2
 50
20.89339464913081
  0
VERTEX
  5
8C
330
80
100
AcDbEntity
  8
PART
100
AcDbVertex
100
AcDb2dVertex
 10
0.1704968949939705
 20
0.7909974037761849
 30
0.0
 42
0.1119976344768139
 50
40.89339464913076
  0
VERTEX
  5
8D
330
80
100
AcDbEntity
  8
PART
100
AcDbVertex
100
AcDb2dVertex
 10
0.1957603598258792
 20
0.8302276082622377
 30
0.0
 42
0.1119976344768337
  0
VERTEX
  5
8E
330
80
100
AcDbEntity
  8
PART
100
AcDbVertex
100
AcDb2dVertex
 10
0.2016241123465718
 20
0.8765187305829194
 30
0.0
 42
0.1030981112244773
  0
VERTEX
  5
8F
330
80
100
AcDbEntity
  8
PART
100
AcDbVertex
100
AcDb2dVertex
 10
0.1865503354818187
 20
0.9248140218165623
 30
0.0
 42
0.0925889459849543
 70
     2
 50
119.1066053508693
  0
VERTEX
  5
90
330
80
100
AcDbEntity
  8
PART
100
AcDbVertex
100
AcDb2dVertex
 10
0.1536056646046333
 20
0.9645153061065803
 30
0.0
 42
0.0863188075832539
 50
139.1066053508692
  0
SEQEND
  5
9D
330
80
100
AcDbEntity
  8
PART
  0
LINE
  5
91
330
65
100
AcDbEntity
  8
PART
100
AcDbLine
 10
0.1825945766724359
 20
0.9314796398824787
 30
0.0
 11
-0.073651393956677
 21
0.8862965615627338
 31
0.0
  0
LINE
  5
92
330
65
100
AcDbEntity
  8
PART
100
AcDbLine
 10
0.2020581797883842
 20
0.8699242950929324
 30
0.0
 11
-0.0541877908407251
 21
0.8247412167731873
 31
0.0
  0
ARC
  5
93
330
65
100
AcDbEntity
  8
PART
100
AcDbCircle
 10
0.0435124233993065
 20
1.793264986270916
 30
0.0
 40
0.6275555555555571
100
AcDbArc
 50
120.4022472909503
 51
160.0
  0
LINE
  5
94
330
65
100
AcDbEntity
  8
PART
100
AcDbLine
 10
0.5363289978559145
 20
1.613894422215683
 30
0.0
 11
-0.5762670651546067
 21
2.018846271913271
 31
0.0
  0
ARC
  5
95
330
65
100
AcDbEntity
  8
PART
100
AcDbCircle
 10
-0.5926840320342386
 20
1.973741026115543
 30
0.0
 40
0.048
100
AcDbArc
 50
70.00000000000004
 51
160.0
  0
LINE
  5
96
330
65
100
AcDbEntity
  8
PART
100
AcDbLine
 10
-0.2740731065660178
 20
2.334527775002309
 30
0.0
 11
0.5077511539278561
 21
2.049967015755353
 31
0.0
  0
LINE
  5
97
330
65
100
AcDbEntity
  8
PART
100
AcDbLine
 10
-0.4106290947428377
 20
2.226371736170055
 30
0.0
 11
0.5428377481711772
 21
1.879338185989578
 31
0.0
  0
ARC
  5
98
330
65
100
AcDbEntity
  8
PART
100
AcDbCircle
 10
-0.0834504906979952
 20
1.839475707858031
 30
0.0
 40
0.6275555555555571
100
AcDbArc
 50
340.0
 51
19.59775270904982
  0
ARC
  5
99
330
65
100
AcDbEntity
  8
PART
100
AcDbCircle
 10
0.5199120309762826
 20
1.568789176417953
 30
0.0
 40
0.048
100
AcDbArc
 50
340.0
 51
70.00000000000004
  0
ENDBLK
  5
9B
330
65
100
AcDbEntity
  8
0
100
AcDbBlockEnd
  0
BLOCK
  5
A3
330
9E
100
AcDbEntity
  8
0
100
AcDbBlockBegin
  2
V
 70
     0
 10
0.0
 20
0.0
 30
0.0
  3
V
  1

  0
LINE
  5
9F
330
9E
100
AcDbEntity
  8
PART
100
AcDbLine
 10
0.0
 20
-0.8100000000000001
 30
0.0
 11
4.23
 21
-0.5200000000000001
 31
0.0
  0
LINE
  5
A0
330
9E
100
AcDbEntity
  8
PART
100
AcDbLine
 10
0.0
 20
0.8100000000000001
 30
0.0
 11
4.23
 21
0.5200000000000001
 31
0.0
  0
ARC
  5
A1
330
9E
100
AcDbEntity
  8
PART
100
AcDbCircle
 10
0.0
 20
0.0
 30
0.0
 40
0.8100000000000001
100
AcDbArc
 50
90.00000000000019
 51
270.0
  0
ARC
  5
A2
330
9E
100
AcDbEntity
  8
PART
100
AcDbCircle
 10
4.23
 20
0.0
 30
0.0
 40
0.5200000000000001
100
AcDbArc
 50
269.9999999999998
 51
89.99999999999982
  0
ENDBLK
  5
A4
330
9E
100
AcDbEntity
  8
0
100
AcDbBlockEnd
  0
BLOCK
  5
11D
330
A6
100
AcDbEntity
  8
0
100
AcDbBlockBegin
  2
WYE_TOP
 70
     0
 10
0.0
 20
0.0
 30
0.0
  3
WYE_TOP
  1

  0
LINE
  5
A7
330
A6
100
AcDbEntity
  8
PART
100
AcDbLine
 10
-11.78939073370259
 20
0.5764474289188401
 30
0.0
 11
-7.559143796621313
 21
0.8655154726557725
 31
0.0
  0
LINE
  5
A8
330
A6
100
AcDbEntity
  8
PART
100
AcDbLine
 10
-11.81617647058823
 20
0.7470747450827844
 30
0.0
 11
-7.979767210976717
 21
1.086906905390917
 31
0.0
  0
ARC
  5
A9
330
A6
100
AcDbEntity
  8
PART
100
AcDbCircle
 10
-7.5
 20
0.0
 30
0.0
 40
0.8675338737394111
100
AcDbArc
 50
0.0
 51
93.90915043138752
  0
ARC
  5
AA
330
A6
100
AcDbEntity
  8
PART
100
AcDbCircle
 10
-7.5
 20
0.0
 30
0.0
 40
1.086723709707405
100
AcDbArc
 50
0.0
 51
95.06209296428414
  0
LINE
  5
AB
330
A6
100
AcDbEntity
  8
PART
100
AcDbLine
 10
-7.566529168584146
 20
0.8650108035295287
 30
0.0
 11
-7.594398439642374
 21
1.082615978005534
 31
0.0
  0
LINE
  5
AC
330
A6
100
AcDbEntity
  8
PART
100
AcDbLine
 10
-7.976389891245005
 20
1.048779905640174
 30
0.0
 11
-7.595887386150651
 21
1.082485117873432
 31
0.0
  0
LINE
  5
AD
330
A6
100
AcDbEntity
  8
PART
100
AcDbLine
 10
-7.976389891245005
 20
1.048779905640174
 30
0.0
 11
-7.979767210976717
 21
1.086906905390917
 31
0.0
  0
ARC
  5
AE
330
A6
100
AcDbEntity
  8
PART
100
AcDbCircle
 10
-11.75
 20
0.0
 30
0.0
 40
0.5777917169783109
100
AcDbArc
 50
93.90915043138752
 51
180.0
  0
LINE
  5
AF
330
A6
100
AcDbEntity
  8
PART
100
AcDbLine
 10
-11.79572202285536
 20
0.5759798302325834
 30
0.0
 11
-11.81617647058823
 21
0.7470747450827844
 31
0.0
  0
LINE
  5
B0
330
A6
100
AcDbEntity
  8
PART
100
AcDbLine
 10
-13.92342370805401
 20
0.1047263009072097
 30
0.0
 11
-13.75018227938066
 21
0.5807032143013018
 31
0.0
  0
ARC
  5
B1
330
A6
100
AcDbEntity
  8
PART
100
AcDbCircle
 10
-11.8095876796297
 20
0.0
 30
0.0
 40
0.75
100
AcDbArc
 50
95.06279770078441
 51
180.0
  0
ARC
  5
B2
330
A6
100
AcDbEntity
  8
PART
100
AcDbCircle
 10
-13.18157073215875
 20
0.0
 30
0.0
 40
0.4482233035828093
100
AcDbArc
 50
0.0
 51
70.38463833292578
  0
LINE
  5
B3
330
A6
100
AcDbEntity
  8
PART
100
AcDbLine
 10
-13.85834537791857
 20
0.2835275434501341
 30
0.0
 11
-13.85834537791857
 21
0.0
 31
0.0
  0
ARC
  5
B4
330
A6
100
AcDbEntity
  8
PART
100
AcDbCircle
 10
-11.92685328300168
 20
0.0
 30
0.0
 40
0.7373985475160918
100
AcDbArc
 50
128.5266323549954
 51
180.0
  0
LINE
  5
B5
330
A6
100
AcDbEntity
  8
PART
100
AcDbLine
 10
-13.92342370805401
 20
0.1047263009072097
 30
0.0
 11
-12.61860863668403
 21
3.689676246060344
 31
0.0
  0
LINE
  5
B6
330
A6
100
AcDbEntity
  8
PART
100
AcDbLine
 10
-13.92342370805401
 20
0.0
 30
0.0
 11
-13.92342370805401
 21
0.1047263009072097
 31
0.0
  0
LINE
  5
B7
330
A6
100
AcDbEntity
  8
PART
100
AcDbLine
 10
-9.349999997000004
 20
2.499999993750002
 30
0.0
 11
-8.25
 21
2.499999993750002
 31
0.0
  0
LINE
  5
B8
330
A6
100
AcDbEntity
  8
PART
100
AcDbLine
 10
-9.347656737311522
 20
0.9644599997873868
 30
0.0
 11
-8.25
 21
1.058844603234738
 31
0.0
  0
LINE
  5
B9
330
A6
100
AcDbEntity
  8
PART
100
AcDbLine
 10
-9.348770463207891
 20
0.9774122047976447
 30
0.0
 11
-8.25
 21
1.071892574592985
 31
0.0
  0
LINE
  5
BA
330
A6
100
AcDbEntity
  8
PART
100
AcDbLine
 10
-9.349999997000004
 20
2.499999993750002
 30
0.0
 11
-12.61860863668403
 21
3.689676246060344
 31
0.0
  0
LINE
  5
BB
330
A6
100
AcDbEntity
  8
PART
100
AcDbLine
 10
-11.87577333921159
 20
0.7470739310575071
 30
0.0
 11
-9.347656737311522
 21
0.9644599997873868
 31
0.0
  0
LINE
  5
BC
330
A6
100
AcDbEntity
  8
PART
100
AcDbLine
 10
-11.88156383409851
 20
0.812434430677392
 30
0.0
 11
-9.349999997000004
 21
0.9917112112179111
 31
0.0
  0
LINE
  5
BD
330
A6
100
AcDbEntity
  8
PART
100
AcDbLine
 10
-12.81450674458133
 20
1.008500017363964
 30
0.0
 11
-13.5032377917426
 21
1.259177617945659
 31
0.0
  0
LINE
  5
BE
330
A6
100
AcDbEntity
  8
PART
100
AcDbLine
 10
-13.02826933362546
 20
0.4211921308410497
 30
0.0
 11
-12.81450674458133
 21
1.008500017363964
 31
0.0
  0
LINE
  5
BF
330
A6
100
AcDbEntity
  8
PART
100
AcDbLine
 10
-13.7178418090502
 20
0.6695579262687659
 30
0.0
 11
-13.02826933362546
 21
0.4211921308410497
 31
0.0
  0
ARC
  5
C0
330
A6
100
AcDbEntity
  8
PART
100
AcDbCircle
 10
-13.80891306817978
 20
0.6020794732591597
 30
0.0
 40
0.0625
100
AcDbArc
 50
340.0000000000002
 51
70.00000000000042
  0
ARC
  5
C1
330
A6
100
AcDbEntity
  8
PART
100
AcDbCircle
 10
-11.8095876796297
 20
0.0
 30
0.0
 40
0.8156164974804125
100
AcDbArc
 50
95.06279770078441
 51
134.9848251383175
  0
ARC
  5
C2
330
A6
100
AcDbEntity
  8
PART
100
AcDbCircle
 10
-13.18157073215875
 20
0.0
 30
0.0
 40
1.073223302020297
100
AcDbArc
 50
36.44610178265317
 51
70.0000000000001
  0
LINE
  5
C3
330
A6
100
AcDbEntity
  8
PART
100
AcDbLine
 10
-12.68410549263456
 20
3.509725113290997
 30
0.0
 11
-12.61860863668402
 21
3.689676246060344
 31
0.0
  0
ARC
  5
C4
330
A6
100
AcDbEntity
  8
PART
100
AcDbCircle
 10
-12.74283628143367
 20
3.531101372248841
 30
0.0
 40
0.0625
100
AcDbArc
 50
249.9999999999997
 51
340.0
  0
LINE
  5
C5
330
A6
100
AcDbEntity
  8
PART
100
AcDbLine
 10
-9.349999997000004
 20
2.499736322215873
 30
0.0
 11
-9.349999997000004
 21
0.9917112112179111
 31
0.0
  0
LINE
  5
C6
330
A6
100
AcDbEntity
  8
PART
100
AcDbLine
 10
-9.507170757396179
 20
2.30750734874958
 30
0.0
 11
-9.703942207377645
 21
2.078468384700626
 31
0.0
  0
LINE
  5
C7
330
A6
100
AcDbEntity
  8
PART
100
AcDbLine
 10
-9.976965329954154
 20
1.779427327176811
 30
0.0
 11
-10.65093119877367
 21
1.202911544075142
 31
0.0
  0
LINE
  5
C8
330
A6
100
AcDbEntity
  8
PART
100
AcDbLine
 10
-11.04649821974304
 20
1.008000000000002
 30
0.0
 11
-10.65093119877366
 21
1.202911544075142
 31
0.0
  0
LINE
  5
C9
330
A6
100
AcDbEntity
  8
PART
100
AcDbLine
 10
-11.27636402269924
 20
0.8559162469348391
 30
0.0
 11
-11.04649821974304
 21
1.008000000000002
 31
0.0
  0
LINE
  5
CA
330
A6
100
AcDbEntity
  8
PART
100
AcDbLine
 10
-9.703942207377645
 20
2.078468384700626
 30
0.0
 11
-9.976965329954154
 21
1.779427327176811
 31
0.0
  0
LINE
  5
CB
330
A6
100
AcDbEntity
  8
PART
100
AcDbLine
 10
-9.390141011994712
 20
2.450851510111291
 30
0.0
 11
-9.507170757396179
 21
2.30750734874958
 31
0.0
  0
LINE
  5
CC
330
A6
100
AcDbEntity
  8
PART
100
AcDbLine
 10
-8.25
 20
1.062969471643512
 30
0.0
 11
-8.25
 21
2.499999993750002
 31
0.0
  0
INSERT
  5
CD
330
A6
100
AcDbEntity
  8
PART
100
AcDbBlockReference
  2
COPU
 10
-13.22115660639822
 20
2.183700694458607
 30
0.0
 41
-1.0
 50
140.0000000000002
  0
INSERT
  5
CE
330
A6
100
AcDbEntity
  8
PART
100
AcDbBlockReference
  2
COPU
 10
-13.22115660639822
 20
-2.183700694458607
 30
0.0
 50
39.99999999999978
  0
LINE
  5
CF
330
A6
100
AcDbEntity
  8
PART
100
AcDbLine
 10
-11.81617647058823
 20
-0.7470747450827844
 30
0.0
 11
-7.979767210976717
 21
-1.086906905390917
 31
0.0
  0
LINE
  5
D0
330
A6
100
AcDbEntity
  8
PART
100
AcDbLine
 10
-11.78939073370259
 20
-0.5764474289188401
 30
0.0
 11
-7.559143796621313
 21
-0.8655154726557725
 31
0.0
  0
ARC
  5
D1
330
A6
100
AcDbEntity
  8
PART
100
AcDbCircle
 10
-13.18157073215875
 20
0.0
 30
0.0
 40
0.4482233035828093
100
AcDbArc
 50
289.6153616670742
 51
0.0
  0
ARC
  5
D2
330
A6
100
AcDbEntity
  8
PART
100
AcDbCircle
 10
-11.75
 20
0.0
 30
0.0
 40
0.5777917169783109
100
AcDbArc
 50
180.0
 51
266.0908495686125
  0
ARC
  5
D3
330
A6
100
AcDbEntity
  8
PART
100
AcDbCircle
 10
-11.8095876796297
 20
0.0
 30
0.0
 40
0.75
100
AcDbArc
 50
180.0
 51
264.9372022992156
  0
LINE
  5
D4
330
A6
100
AcDbEntity
  8
PART
100
AcDbLine
 10
-13.7178418090502
 20
-0.6695579262687659
 30
0.0
 11
-13.02826933362546
 21
-0.4211921308410497
 31
0.0
  0
LINE
  5
D5
330
A6
100
AcDbEntity
  8
PART
100
AcDbLine
 10
-13.02826933362546
 20
-0.4211921308410497
 30
0.0
 11
-12.81450674458133
 21
-1.008500017363964
 31
0.0
  0
LINE
  5
D6
330
A6
100
AcDbEntity
  8
PART
100
AcDbLine
 10
-13.92342370805401
 20
-0.1047263009072097
 30
0.0
 11
-12.61860863668403
 21
-3.689676246060344
 31
0.0
  0
ARC
  5
D7
330
A6
100
AcDbEntity
  8
PART
100
AcDbCircle
 10
-11.92685328300168
 20
0.0
 30
0.0
 40
0.7373985475160918
100
AcDbArc
 50
179.9999999999999
 51
231.4733676450046
  0
LINE
  5
D8
330
A6
100
AcDbEntity
  8
PART
100
AcDbLine
 10
-13.92342370805401
 20
-0.1047263009072097
 30
0.0
 11
-13.75018227938066
 21
-0.5807032143013018
 31
0.0
  0
LINE
  5
D9
330
A6
100
AcDbEntity
  8
PART
100
AcDbLine
 10
-13.92342370805401
 20
0.0
 30
0.0
 11
-13.92342370805401
 21
-0.1047263009072097
 31
0.0
  0
LINE
  5
DA
330
A6
100
AcDbEntity
  8
PART
100
AcDbLine
 10
-13.85834537791857
 20
-0.2835275434501341
 30
0.0
 11
-13.85834537791857
 21
0.0
 31
0.0
  0
LINE
  5
DB
330
A6
100
AcDbEntity
  8
PART
100
AcDbLine
 10
-11.27636402269924
 20
-0.8559162469348391
 30
0.0
 11
-11.04649821974304
 21
-1.008000000000002
 31
0.0
  0
LINE
  5
DC
330
A6
100
AcDbEntity
  8
PART
100
AcDbLine
 10
-11.88156383409851
 20
-0.812434430677392
 30
0.0
 11
-9.349999997000004
 21
-0.9917112112179111
 31
0.0
  0
LINE
  5
DD
330
A6
100
AcDbEntity
  8
PART
100
AcDbLine
 10
-11.87577333921159
 20
-0.7470739310575071
 30
0.0
 11
-9.347656737311522
 21
-0.9644599997873868
 31
0.0
  0
LINE
  5
DE
330
A6
100
AcDbEntity
  8
PART
100
AcDbLine
 10
-9.349999997000004
 20
-2.499999993750002
 30
0.0
 11
-12.61860863668403
 21
-3.689676246060344
 31
0.0
  0
LINE
  5
DF
330
A6
100
AcDbEntity
  8
PART
100
AcDbLine
 10
-12.81450674458133
 20
-1.008500017363964
 30
0.0
 11
-13.5032377917426
 21
-1.259177617945659
 31
0.0
  0
ARC
  5
E0
330
A6
100
AcDbEntity
  8
PART
100
AcDbCircle
 10
-13.80891306817978
 20
-0.6020794732591597
 30
0.0
 40
0.0625
100
AcDbArc
 50
289.9999999999995
 51
19.9999999999998
  0
ARC
  5
E1
330
A6
100
AcDbEntity
  8
PART
100
AcDbCircle
 10
-11.8095876796297
 20
0.0
 30
0.0
 40
0.8156164974804125
100
AcDbArc
 50
225.0151748616825
 51
264.9372022992156
  0
ARC
  5
E2
330
A6
100
AcDbEntity
  8
PART
100
AcDbCircle
 10
-13.18157073215875
 20
0.0
 30
0.0
 40
1.073223302020297
100
AcDbArc
 50
289.9999999999999
 51
323.5538982173468
  0
LINE
  5
E3
330
A6
100
AcDbEntity
  8
PART
100
AcDbLine
 10
-11.79572202285536
 20
-0.5759798302325834
 30
0.0
 11
-11.81617647058823
 21
-0.7470747450827844
 31
0.0
  0
ARC
  5
E4
330
A6
100
AcDbEntity
  8
PART
100
AcDbCircle
 10
-12.74283628143367
 20
-3.531101372248841
 30
0.0
 40
0.0625
100
AcDbArc
 50
19.99999999999995
 51
110.0000000000003
  0
LINE
  5
E5
330
A6
100
AcDbEntity
  8
PART
100
AcDbLine
 10
-12.68410549263456
 20
-3.509725113290997
 30
0.0
 11
-12.61860863668402
 21
-3.689676246060344
 31
0.0
  0
LINE
  5
E6
330
A6
100
AcDbEntity
  8
PART
100
AcDbLine
 10
-8.25
 20
-1.062969471643512
 30
0.0
 11
-8.25
 21
-2.499999993750002
 31
0.0
  0
LINE
  5
E7
330
A6
100
AcDbEntity
  8
PART
100
AcDbLine
 10
-9.390141011994712
 20
-2.450851510111291
 30
0.0
 11
-9.507170757396179
 21
-2.30750734874958
 31
0.0
  0
LINE
  5
E8
330
A6
100
AcDbEntity
  8
PART
100
AcDbLine
 10
-9.349999997000004
 20
-2.499736322215873
 30
0.0
 11
-9.349999997000004
 21
-0.9917112112179111
 31
0.0
  0
LINE
  5
E9
330
A6
100
AcDbEntity
  8
PART
100
AcDbLine
 10
-9.507170757396179
 20
-2.30750734874958
 30
0.0
 11
-9.703942207377645
 21
-2.078468384700626
 31
0.0
  0
LINE
  5
EA
330
A6
100
AcDbEntity
  8
PART
100
AcDbLine
 10
-9.976965329954154
 20
-1.779427327176811
 30
0.0
 11
-10.65093119877367
 21
-1.202911544075142
 31
0.0
  0
LINE
  5
EB
330
A6
100
AcDbEntity
  8
PART
100
AcDbLine
 10
-11.04649821974304
 20
-1.008000000000002
 30
0.0
 11
-10.65093119877366
 21
-1.202911544075142
 31
0.0
  0
LINE
  5
EC
330
A6
100
AcDbEntity
  8
PART
100
AcDbLine
 10
-9.703942207377645
 20
-2.078468384700626
 30
0.0
 11
-9.976965329954154
 21
-1.779427327176811
 31
0.0
  0
LINE
  5
ED
330
A6
100
AcDbEntity
  8
PART
100
AcDbLine
 10
-9.348770463207891
 20
-0.9774122047976447
 30
0.0
 11
-8.25
 21
-1.071892574592985
 31
0.0
  0
LINE
  5
EE
330
A6
100
AcDbEntity
  8
PART
100
AcDbLine
 10
-9.347656737311522
 20
-0.9644599997873868
 30
0.0
 11
-8.25
 21
-1.058844603234738
 31
0.0
  0
LINE
  5
EF
330
A6
100
AcDbEntity
  8
PART
100
AcDbLine
 10
-9.349999997000004
 20
-2.499999993750002
 30
0.0
 11
-8.25
 21
-2.499999993750002
 31
0.0
  0
ARC
  5
F0
330
A6
100
AcDbEntity
  8
PART
100
AcDbCircle
 10
-7.5
 20
0.0
 30
0.0
 40
0.8675338737394111
100
AcDbArc
 50
266.0908495686125
 51
0.0
  0
ARC
  5
F1
330
A6
100
AcDbEntity
  8
PART
100
AcDbCircle
 10
-7.5
 20
0.0
 30
0.0
 40
1.086723709707405
100
AcDbArc
 50
264.9379070357158
 51
0.0
  0
LINE
  5
F2
330
A6
100
AcDbEntity
  8
PART
100
AcDbLine
 10
-7.976389891245005
 20
-1.048779905640174
 30
0.0
 11
-7.979767210976717
 21
-1.086906905390917
 31
0.0
  0
LINE
  5
F3
330
A6
100
AcDbEntity
  8
PART
100
AcDbLine
 10
-7.976389891245005
 20
-1.048779905640174
 30
0.0
 11
-7.595887386150651
 21
-1.082485117873432
 31
0.0
  0
LINE
  5
F4
330
A6
100
AcDbEntity
  8
PART
100
AcDbLine
 10
-7.566529168584146
 20
-0.8650108035295287
 30
0.0
 11
-7.594398439642374
 21
-1.082615978005534
 31
0.0
  0
INSERT
  5
F5
330
A6
100
AcDbEntity
  8
DIM
100
AcDbBlockReference
  2
V
 10
-7.5
 20
0.0
 30
0.0
 50
180.0
  0
CIRCLE
  5
F6
330
A6
100
AcDbEntity
  8
DIM
100
AcDbCircle
 10
-11.70823044258031
 20
-0.2483600229666223
 30
0.0
 40
0.1634146817232178
  0
TEXT
  5
F7
330
A6
100
AcDbEntity
  8
DIM
100
AcDbText
 10
-11.8262449393525
 20
-0.3708453291457374
 30
0.0
 40
0.2404204446679756
  1
6
 50
0.0033621384163948
  7
ROMANC
100
AcDbText
  0
LINE
  5
F8
330
A6
100
AcDbEntity
  8
DIM
100
AcDbLine
 10
-11.64389184616132
 20
0.1522788485851478
 30
0.0
 11
-11.51962358668617
 21
0.1522861406944997
 31
0.0
  0
LINE
  5
F9
330
A6
100
AcDbEntity
  8
DIM
100
AcDbLine
 10
-11.51962358668617
 20
0.1522861406944997
 30
0.0
 11
-11.64390689556229
 21
0.4087427570260047
 31
0.0
  0
TEXT
  5
FA
330
A6
100
AcDbEntity
  8
DIM
100
AcDbText
 10
-11.4527806573497
 20
0.1005359517940505
 30
0.0
 40
0.0761284529390738
  1
  FLOW OF WATER TO THE MONITOR.
 50
0.0033621384163948
100
AcDbText
  0
TEXT
  5
FB
330
A6
100
AcDbEntity
  8
DIM
100
AcDbText
 10
-11.45278831548733
 20
0.2310418708934847
 30
0.0
 40
0.0761284529390738
  1
1) MANUALLY REDUCE OR REMOVE THE
 50
0.0033621384163948
100
AcDbText
  0
TEXT
  5
FC
330
A6
100
AcDbEntity
  8
DIM
100
AcDbText
 10
-11.45277299921208
 20
-0.0299699673053837
 30
0.0
 40
0.0761284529390738
  1
2) CORRECT CAUSE OF TRIPPED VALVE.
 50
0.0033621384163948
100
AcDbText
  0
TEXT
  5
FD
330
A6
100
AcDbEntity
  8
DIM
100
AcDbText
 10
-11.45276534107447
 20
-0.160475886404825
 30
0.0
 40
0.0761284529390738
  1
3) ROTATE LEVER IN DIRECTION OF ARROW
 50
0.0033621384163948
100
AcDbText
  0
TEXT
  5
FE
330
A6
100
AcDbEntity
  8
DIM
100
AcDbText
 10
-11.45275002479922
 20
-0.4214877246036936
 30
0.0
 40
0.0761284529390738
  1
4) SLOWLY REOPEN FLOW TO MONITOR.
 50
0.0033621384163948
100
AcDbText
  0
LINE
  5
FF
330
A6
100
AcDbEntity
  8
DIM
100
AcDbLine
 10
-8.770961250955059
 20
0.5927526984488765
 30
0.0
 11
-8.770892207070962
 21
-0.5838565500922073
 31
0.0
  0
TEXT
  5
100
330
A6
100
AcDbEntity
  8
DIM
100
AcDbText
 10
-11.45275768293685
 20
-0.2909818055042592
 30
0.0
 40
0.0761284529390738
  1
  UNTIL IT LOCKS IN PLACE.
 50
0.0033621384163948
100
AcDbText
  0
ARC
  5
101
330
A6
100
AcDbEntity
  8
DIM
100
AcDbCircle
 10
-11.86168264928489
 20
0.1979309179845003
 30
0.0
 40
0.1291527767222237
100
AcDbArc
 50
100.8216328447783
 51
184.269583378002
  0
ARC
  5
102
330
A6
100
AcDbEntity
  8
DIM
100
AcDbCircle
 10
-11.88661409897995
 20
0.1177423349354498
 30
0.0
 40
0.2070456882749569
100
AcDbArc
 50
89.81106642938275
 51
160.0723923839704
  0
LINE
  5
103
330
A6
100
AcDbEntity
  8
DIM
100
AcDbLine
 10
-11.76816010563647
 20
0.1522715564757959
 30
0.0
 11
-11.64390689556229
 21
0.4087427570260047
 31
0.0
  0
TEXT
  5
104
330
A6
100
AcDbEntity
  8
DIM
100
AcDbText
 10
-11.65217780973516
 20
0.1770974058787473
 30
0.0
 40
0.1571875626172062
  1
!
 50
0.0033621384163948
100
AcDbText
  0
LINE
  5
105
330
A6
100
AcDbEntity
  8
DIM
100
AcDbLine
 10
-11.92691432083289
 20
-0.0248838282481572
 30
0.0
 11
-12.03584483938598
 21
-0.2380932584056481
 31
0.0
  0
LINE
  5
106
330
A6
100
AcDbEntity
  8
DIM
100
AcDbLine
 10
-12.14480037961184
 20
-0.0248966138860425
 30
0.0
 11
-12.03584483938598
 21
-0.2380932584056481
 31
0.0
  0
LINE
  5
107
330
A6
100
AcDbEntity
  8
DIM
100
AcDbLine
 10
-11.99047700083112
 20
0.1883155789449731
 30
0.0
 11
-11.99046448998892
 21
-0.0248875573965677
 31
0.0
  0
LINE
  5
108
330
A6
100
AcDbEntity
  8
DIM
100
AcDbLine
 10
-11.99046448998892
 20
-0.0248875573965677
 30
0.0
 11
-11.92691432083289
 21
-0.0248838282481572
 31
0.0
  0
LINE
  5
109
330
A6
100
AcDbEntity
  8
DIM
100
AcDbLine
 10
-12.08125021045581
 20
-0.0248928847376391
 30
0.0
 11
-12.14480037961184
 21
-0.0248966138860425
 31
0.0
  0
LINE
  5
10A
330
A6
100
AcDbEntity
  8
DIM
100
AcDbLine
 10
-12.08126272129802
 20
0.1883102516039088
 30
0.0
 11
-12.08125021045581
 21
-0.0248928847376391
 31
0.0
  0
LINE
  5
10B
330
A6
100
AcDbEntity
  8
DIM
100
AcDbLine
 10
-11.64389184616132
 20
0.1522788485851478
 30
0.0
 11
-11.76816010563647
 21
0.1522715564757959
 31
0.0
  0
TEXT
  5
10C
330
A6
100
AcDbEntity
  8
DIM
100
AcDbText
 10
-11.45279597362496
 20
0.3615477899929189
 30
0.0
 40
0.0761284529390738
  1
TO RESET:
 50
0.0033621384163948
100
AcDbText
  0
LINE
  5
10D
330
A6
100
AcDbEntity
  8
DIM
100
AcDbLine
 10
-8.52991697353007
 20
0.3353830190044462
 30
0.0
 11
-7.195184661043724
 21
0.3354613416108734
 31
0.0
  0
TEXT
  5
10E
330
A6
100
AcDbEntity
  8
DIM
100
AcDbText
 10
-8.474689260594921
 20
0.3813475153261692
 30
0.0
 40
0.2114219283275815
  1
DANGER
 50
0.0033621384163948
100
AcDbText
  0
LINE
  5
10F
330
A6
100
AcDbEntity
  8
DIM
100
AcDbLine
 10
-8.378012167840912
 20
-0.03137920045031
 30
0.0
 11
-8.502295476717037
 21
0.2250774158811808
 31
0.0
  0
LINE
  5
110
330
A6
100
AcDbEntity
  8
DIM
100
AcDbLine
 10
-8.62654868679121
 20
-0.0313937846690138
 30
0.0
 11
-8.502295476717037
 21
0.2250774158811808
 31
0.0
  0
LINE
  5
111
330
A6
100
AcDbEntity
  8
DIM
100
AcDbLine
 10
-8.502280427316057
 20
-0.031386492559669
 30
0.0
 11
-8.62654868679121
 21
-0.0313937846690138
 31
0.0
  0
TEXT
  5
112
330
A6
100
AcDbEntity
  8
DIM
100
AcDbText
 10
-8.510566390889897
 20
-0.0065679352660766
 30
0.0
 40
0.1571875626172062
  1
!
 50
0.0033621384163948
100
AcDbText
  0
LINE
  5
113
330
A6
100
AcDbEntity
  8
DIM
100
AcDbLine
 10
-8.529934234498284
 20
0.6295352832598269
 30
0.0
 11
-8.52991697353007
 21
0.3353830190044462
 31
0.0
  0
TEXT
  5
114
330
A6
100
AcDbEntity
  8
DIM
100
AcDbText
 10
-7.93674434705007
 20
-0.0499160405062441
 30
0.0
 40
0.08
  1
OVERRIDING,
 50
0.0033621384163948
 72
     2
 11
-7.231982443501549
 21
-0.04987468480617
 31
0.0
100
AcDbText
  0
TEXT
  5
115
330
A6
100
AcDbEntity
  8
DIM
100
AcDbText
 10
-8.17294287042959
 20
0.087212956652365
 30
0.0
 40
0.08
  1
DISCONNECTING,
 50
0.0033621384163948
 72
     2
 11
-7.231990491097241
 21
0.0872681721005719
 31
0.0
100
AcDbText
  0
TEXT
  5
116
330
A6
100
AcDbEntity
  8
DIM
100
AcDbText
 10
-8.454831536657613
 20
-0.1870892994411484
 30
0.0
 40
0.08
  1
OR TAMPERING WITH
 50
0.0033621384163948
 72
     2
 11
-7.231974395905856
 21
-0.1870175417129118
 31
0.0
100
AcDbText
  0
TEXT
  5
117
330
A6
100
AcDbEntity
  8
DIM
100
AcDbText
 10
-8.465842399636384
 20
-0.3307268577706159
 30
0.0
 40
0.08
  1
THIS SAFETY DEVICE
 50
0.0033621384163948
 72
     2
 11
-7.227747163672766
 21
-0.3306542058650805
 31
0.0
100
AcDbText
  0
TEXT
  5
118
330
A6
100
AcDbEntity
  8
DIM
100
AcDbText
 10
-8.159294060930612
 20
-0.467740408021867
 30
0.0
 40
0.08
  1
MAY RESULT IN
 50
0.0033621384163948
 72
     2
 11
-7.233579776810123
 21
-0.4676860867509589
 31
0.0
100
AcDbText
  0
TEXT
  5
119
330
A6
100
AcDbEntity
  8
DIM
100
AcDbText
 10
-8.336015676790051
 20
-0.598288070178104
 30
0.0
 40
0.08
  1
PERSONAL INJURY.
 50
0.0033621384163948
 72
     2
 11
-7.216015678718348
 21
-0.5982223481466349
 31
0.0
100
AcDbText
  0
LINE
  5
11A
330
A6
100
AcDbEntity
  8
DIM
100
AcDbLine
 10
-8.502280427316057
 20
-0.031386492559669
 30
0.0
 11
-8.378012167840912
 21
-0.03137920045031
 31
0.0
  0
LINE
  5
11B
330
A6
100
AcDbEntity
  8
DIM
100
AcDbLine
 10
-7.195201922011937
 20
0.6296136058662471
 30
0.0
 11
-8.529934234498284
 21
0.6295352832598269
 31
0.0
  0
LINE
  5
11C
330
A6
100
AcDbEntity
  8
DIM
100
AcDbLine
 10
-7.195201922011937
 20
0.6296136058662471
 30
0.0
 11
-7.195184661043724
 21
0.3354613416108734
 31
0.0
  0
ENDBLK
  5
11E
330
A6
100
AcDbEntity
  8
0
100
AcDbBlockEnd
  0
BLOCK
  5
1F6
330
19C
100
AcDbEntity
  8
0
100
AcDbBlockBegin
  2
X712-TOP
 70
     0
 10
0.0
 20
0.0
 30
0.0
  3
X712-TOP
  1

  0
LINE
  5
19D
330
19C
100
AcDbEntity
  8
PART
100
AcDbLine
 10
-6.307356875098463
 20
-0.9485818963977443
 30
0.0
 11
-5.288136847987972
 21
-3.748865906339779
 31
0.0
  0
LINE
  5
19E
330
19C
100
AcDbEntity
  8
PART
100
AcDbLine
 10
-1.166525666533495
 20
-2.491554574638098
 30
0.0
 11
-4.458337904525264
 21
-3.689676246060326
 31
0.0
  0
ARC
  5
19F
330
19C
100
AcDbEntity
  8
PART
100
AcDbCircle
 10
-5.282160123213365
 20
-3.736048778698663
 30
0.0
 40
0.01
100
AcDbArc
 50
199.9999999999996
 51
289.9999999999995
  0
LINE
  5
1A0
330
19C
100
AcDbEntity
  8
PART
100
AcDbLine
 10
-5.288136847987972
 20
-3.748865906339779
 30
0.0
 11
-5.038836395693471
 21
-3.658127962315471
 31
0.0
  0
LINE
  5
1A1
330
19C
100
AcDbEntity
  8
PART
100
AcDbLine
 10
-5.038836395693471
 20
-3.658127962315478
 30
0.0
 11
-5.032845468938994
 21
-3.645280378430228
 31
0.0
  0
ARC
  5
1A2
330
19C
100
AcDbEntity
  8
PART
100
AcDbCircle
 10
-4.943529984947133
 20
-3.616788154591084
 30
0.0
 40
0.09375
100
AcDbArc
 50
109.9999999999994
 51
197.6930231651629
  0
LINE
  5
1A3
330
19C
100
AcDbEntity
  8
PART
100
AcDbLine
 10
-4.975594373383906
 20
-3.528691971392412
 30
0.0
 11
-4.963799142859676
 21
-3.524398858575273
 31
0.0
  0
ARC
  5
1A4
330
19C
100
AcDbEntity
  8
PART
100
AcDbCircle
 10
-4.931734754422889
 20
-3.612495041773961
 30
0.0
 40
0.09375
100
AcDbArc
 50
22.34026985859012
 51
109.9999999999974
  0
LINE
  5
1A5
330
19C
100
AcDbEntity
  8
PART
100
AcDbLine
 10
-4.845021367644321
 20
-3.576860072244151
 30
0.0
 11
-4.832104019120563
 21
-3.582883530783838
 31
0.0
  0
LINE
  5
1A6
330
19C
100
AcDbEntity
  8
PART
100
AcDbLine
 10
-4.595113540158358
 20
-3.496626050637096
 30
0.0
 11
-4.832104019120571
 21
-3.582883530783823
 31
0.0
  0
ARC
  5
1A7
330
19C
100
AcDbEntity
  8
PART
100
AcDbCircle
 10
-4.573737281200513
 20
-3.555356839436214
 30
0.0
 40
0.0625
100
AcDbArc
 50
19.99999999999969
 51
110.0
  0
LINE
  5
1A8
330
19C
100
AcDbEntity
  8
PART
100
AcDbLine
 10
-4.458337904525264
 20
-3.689676246060326
 30
0.0
 11
-4.515006492401396
 21
-3.53398058047836
 31
0.0
  0
LINE
  5
1A9
330
19C
100
AcDbEntity
  8
PART
100
AcDbLine
 10
-5.381102071320498
 20
3.493446054439082
 30
0.0
 11
-6.307356875098456
 21
0.9485818963977513
 31
0.0
  0
ARC
  5
1AA
330
19C
100
AcDbEntity
  8
PART
100
AcDbCircle
 10
-5.639130027659965
 20
-0.628214325688095
 30
0.0
 40
0.0625
100
AcDbArc
 50
289.9999999999995
 51
19.99999999999951
  0
LINE
  5
1AB
330
19C
100
AcDbEntity
  8
PART
100
AcDbLine
 10
-5.617753768702108
 20
-0.6869451144872052
 30
0.0
 11
-5.854744247664313
 21
-0.773202594633947
 31
0.0
  0
LINE
  5
1AC
330
19C
100
AcDbEntity
  8
PART
100
AcDbLine
 10
-5.860767706204004
 20
-0.7861199431576899
 30
0.0
 11
-5.854744247664321
 21
-0.7732025946339327
 31
0.0
  0
ARC
  5
1AD
330
19C
100
AcDbEntity
  8
PART
100
AcDbCircle
 10
-5.950099731175072
 20
-0.8145602633838855
 30
0.0
 40
0.09375
100
AcDbArc
 50
290.0000000000022
 51
17.65973014140916
  0
LINE
  5
1AE
330
19C
100
AcDbEntity
  8
PART
100
AcDbLine
 10
-5.929830573262523
 20
-0.9069495593996952
 30
0.0
 11
-5.918035342738289
 21
-0.9026564465825719
 31
0.0
  0
ARC
  5
1AF
330
19C
100
AcDbEntity
  8
PART
100
AcDbCircle
 10
-5.961894961699307
 20
-0.818853376201023
 30
0.0
 40
0.09375
100
AcDbArc
 50
202.3069768348367
 51
290.0000000000002
  0
LINE
  5
1B0
330
19C
100
AcDbEntity
  8
PART
100
AcDbLine
 10
-6.061476624237222
 20
-0.8484470261655905
 30
0.0
 11
-6.048629040351972
 21
-0.8544379529200687
 31
0.0
  0
LINE
  5
1B1
330
19C
100
AcDbEntity
  8
PART
100
AcDbLine
 10
-6.301380150323857
 20
-0.9357647687566306
 30
0.0
 11
-6.061476624237214
 21
-0.8484470261655905
 31
0.0
  0
ARC
  5
1B2
330
19C
100
AcDbEntity
  8
PART
100
AcDbCircle
 10
-6.297959948890602
 20
-0.9451616949644863
 30
0.0
 40
0.01
100
AcDbArc
 50
110.0
 51
199.9999999999999
  0
LINE
  5
1B3
330
19C
100
AcDbEntity
  8
PART
100
AcDbLine
 10
-5.617753768702105
 20
0.6869451144872089
 30
0.0
 11
-5.854744247664309
 21
0.7732025946339363
 31
0.0
  0
ARC
  5
1B4
330
19C
100
AcDbEntity
  8
PART
100
AcDbCircle
 10
-5.639130027659962
 20
0.6282143256880845
 30
0.0
 40
0.0625
100
AcDbArc
 50
339.9999999999994
 51
70.00000000000042
  0
LINE
  5
1B5
330
19C
100
AcDbEntity
  8
PART
100
AcDbLine
 10
-5.763152975895263
 20
0.1047263009072168
 30
0.0
 11
-5.580399238860844
 21
0.60683806673023
 31
0.0
  0
LINE
  5
1B6
330
19C
100
AcDbEntity
  8
PART
100
AcDbLine
 10
-5.763152975895263
 20
-0.1047263009072168
 30
0.0
 11
-5.763152975895263
 21
0.1047263009072168
 31
0.0
  0
LINE
  5
1B7
330
19C
100
AcDbEntity
  8
PART
100
AcDbLine
 10
-5.763152975895263
 20
-0.1047263009072168
 30
0.0
 11
-5.580399238860842
 21
-0.6068380667302371
 31
0.0
  0
LINE
  5
1B8
330
19C
100
AcDbEntity
  8
PART
100
AcDbLine
 10
-6.301380150323853
 20
0.9357647687566339
 30
0.0
 11
-6.061476624237212
 21
0.8484470261655943
 31
0.0
  0
LINE
  5
1B9
330
19C
100
AcDbEntity
  8
PART
100
AcDbLine
 10
-6.061476624237219
 20
0.8484470261655943
 30
0.0
 11
-6.048629040351968
 21
0.8544379529200725
 31
0.0
  0
ARC
  5
1BA
330
19C
100
AcDbEntity
  8
PART
100
AcDbCircle
 10
-5.961894961699303
 20
0.8188533762010266
 30
0.0
 40
0.09375
100
AcDbArc
 50
69.99999999999982
 51
157.6930231651636
  0
LINE
  5
1BB
330
19C
100
AcDbEntity
  8
PART
100
AcDbLine
 10
-5.92983057326252
 20
0.9069495593997059
 30
0.0
 11
-5.918035342738285
 21
0.9026564465825686
 31
0.0
  0
ARC
  5
1BC
330
19C
100
AcDbEntity
  8
PART
100
AcDbCircle
 10
-5.950099731175067
 20
0.8145602633839033
 30
0.0
 40
0.09375
100
AcDbArc
 50
342.3402698585908
 51
69.99999999999788
  0
LINE
  5
1BD
330
19C
100
AcDbEntity
  8
PART
100
AcDbLine
 10
-5.860767706204001
 20
0.7861199431577079
 30
0.0
 11
-5.854744247664316
 21
0.7732025946339505
 31
0.0
  0
ARC
  5
1BE
330
19C
100
AcDbEntity
  8
PART
100
AcDbCircle
 10
-6.297959948890596
 20
0.9451616949644936
 30
0.0
 40
0.01
100
AcDbArc
 50
160.0000000000001
 51
250.0
  0
LINE
  5
1BF
330
19C
100
AcDbEntity
  8
PART
100
AcDbLine
 10
-1.18972926484126
 20
-2.499999993749995
 30
0.0
 11
0.0
 21
-2.49999999374999
 31
0.0
  0
LINE
  5
1C0
330
19C
100
AcDbEntity
  8
PART
100
AcDbLine
 10
-1.166525666533479
 20
2.491554574638092
 30
0.0
 11
-4.458337904525285
 21
3.689676246060336
 31
0.0
  0
LINE
  5
1C1
330
19C
100
AcDbEntity
  8
PART
100
AcDbLine
 10
-4.515006492401389
 20
3.533980580478348
 30
0.0
 11
-4.458337904525278
 21
3.689676246060351
 31
0.0
  0
ARC
  5
1C2
330
19C
100
AcDbEntity
  8
PART
100
AcDbCircle
 10
-4.573737281200492
 20
3.5553568394362
 30
0.0
 40
0.0625
100
AcDbArc
 50
249.9999999999995
 51
339.9999999999999
  0
LINE
  5
1C3
330
19C
100
AcDbEntity
  8
PART
100
AcDbLine
 10
-4.595113540158351
 20
3.496626050637075
 30
0.0
 11
-4.832104019120548
 21
3.582883530783817
 31
0.0
  0
LINE
  5
1C4
330
19C
100
AcDbEntity
  8
PART
100
AcDbLine
 10
-4.845021367644321
 20
3.576860072244123
 30
0.0
 11
-4.832104019120563
 21
3.58288353078381
 31
0.0
  0
ARC
  5
1C5
330
19C
100
AcDbEntity
  8
PART
100
AcDbCircle
 10
-4.931734754422889
 20
3.612495041773931
 30
0.0
 40
0.09375
100
AcDbArc
 50
250.000000000002
 51
337.6597301414093
  0
LINE
  5
1C6
330
19C
100
AcDbEntity
  8
PART
100
AcDbLine
 10
-4.975594373383898
 20
3.52869197139239
 30
0.0
 11
-4.963799142859663
 21
3.524398858575259
 31
0.0
  0
ARC
  5
1C7
330
19C
100
AcDbEntity
  8
PART
100
AcDbCircle
 10
-4.943529984947119
 20
3.616788154591069
 30
0.0
 40
0.09375
100
AcDbArc
 50
162.3069768348362
 51
250.0000000000001
  0
LINE
  5
1C8
330
19C
100
AcDbEntity
  8
PART
100
AcDbLine
 10
-5.038836395693464
 20
3.658127962315461
 30
0.0
 11
-5.032845468938987
 21
3.645280378430213
 31
0.0
  0
LINE
  5
1C9
330
19C
100
AcDbEntity
  8
PART
100
AcDbLine
 10
-5.288136847987972
 20
3.748865906339766
 30
0.0
 11
-5.038836395693457
 21
3.658127962315453
 31
0.0
  0
LINE
  5
1CA
330
19C
100
AcDbEntity
  8
PART
100
AcDbLine
 10
-5.288136847987972
 20
3.748865906339766
 30
0.0
 11
-5.381102071320498
 21
3.493446054439082
 31
0.0
  0
LINE
  5
1CB
330
19C
100
AcDbEntity
  8
PART
100
AcDbLine
 10
-1.18972926484126
 20
2.499999993749995
 30
0.0
 11
0.0
 21
2.499999993749995
 31
0.0
  0
LINE
  5
1CC
330
19C
100
AcDbEntity
  8
PART
100
AcDbLine
 10
0.0
 20
-2.49999999374999
 30
0.0
 11
0.0
 21
2.499999993749995
 31
0.0
  0
LINE
  5
1CD
330
19C
100
AcDbEntity
  8
PART
100
AcDbLine
 10
-6.071557590731724
 20
-0.84998784235729
 30
0.0
 11
-5.048233321901327
 21
-3.661548163748732
 31
0.0
  0
LINE
  5
1CE
330
19C
100
AcDbEntity
  8
PART
100
AcDbLine
 10
-5.864825214158821
 20
-0.7747434108256428
 30
0.0
 11
-4.841500945328427
 21
-3.586303732217086
 31
0.0
  0
LINE
  5
1CF
330
19C
100
AcDbEntity
  8
PART
100
AcDbLine
 10
-5.590480205355356
 20
-0.6083788829219367
 30
0.0
 11
-4.458906562658722
 21
-3.717351914680968
 31
0.0
  0
LINE
  5
1D0
330
19C
100
AcDbEntity
  8
PART
100
AcDbLine
 10
-6.058740463090606
 20
0.8559645671318827
 30
0.0
 11
-5.035416194260211
 21
3.667524888523325
 31
0.0
  0
LINE
  5
1D1
330
19C
100
AcDbEntity
  8
PART
100
AcDbLine
 10
-5.852008086517705
 20
0.7807201356002356
 30
0.0
 11
-4.828683817687308
 21
3.592280456991681
 31
0.0
  0
LINE
  5
1D2
330
19C
100
AcDbEntity
  8
PART
100
AcDbLine
 10
-5.750904506387588
 20
0.1383786943024372
 30
0.0
 11
-4.446089435017603
 21
3.723328639455568
 31
0.0
  0
ARC
  5
1D3
330
19C
100
AcDbEntity
  8
PART
100
AcDbCircle
 10
-3.649316947470963
 20
-0.0000000000000071
 30
0.0
 40
0.75
100
AcDbArc
 50
95.06279770078441
 51
264.9372022992156
  0
ARC
  5
1D4
330
19C
100
AcDbEntity
  8
PART
100
AcDbCircle
 10
-3.649316947470963
 20
-0.0000000000000071
 30
0.0
 40
0.8156164974804125
100
AcDbArc
 50
95.06279770078441
 51
134.9848251383175
  0
LINE
  5
1D5
330
19C
100
AcDbEntity
  8
PART
100
AcDbLine
 10
-3.715502607052851
 20
-0.7470739310575071
 30
0.0
 11
0.0
 21
-1.066560185961964
 31
0.0
  0
LINE
  5
1D6
330
19C
100
AcDbEntity
  8
PART
100
AcDbLine
 10
-1.18972926484126
 20
-0.9917112112179111
 30
0.0
 11
-3.721293101939774
 21
-0.8124344306773989
 31
0.0
  0
ARC
  5
1D7
330
19C
100
AcDbEntity
  8
PART
100
AcDbCircle
 10
-5.021300000000009
 20
-0.0000000000000071
 30
0.0
 40
1.073223302020297
100
AcDbArc
 50
289.9999999999995
 51
323.5538982173468
  0
ARC
  5
1D8
330
19C
100
AcDbEntity
  8
PART
100
AcDbCircle
 10
-3.649316947470963
 20
-0.0000000000000071
 30
0.0
 40
0.8156164974804125
100
AcDbArc
 50
225.0151748616825
 51
264.9372022992156
  0
LINE
  5
1D9
330
19C
100
AcDbEntity
  8
PART
100
AcDbLine
 10
-3.116093290540497
 20
-0.8559162469348462
 30
0.0
 11
-2.886227487584299
 21
-1.008000000000002
 31
0.0
  0
LINE
  5
1DA
330
19C
100
AcDbEntity
  8
PART
100
AcDbLine
 10
-3.715502607052851
 20
-0.7470739310575071
 30
0.0
 11
-3.721293101939774
 21
-0.8124344306773989
 31
0.0
  0
LINE
  5
1DB
330
19C
100
AcDbEntity
  8
PART
100
AcDbLine
 10
-2.886227487584299
 20
-1.008000000000002
 30
0.0
 11
-2.490660466614925
 21
-1.202911544075149
 31
0.0
  0
ARC
  5
1DC
330
19C
100
AcDbEntity
  8
PART
100
AcDbCircle
 10
-3.766582550842943
 20
-0.0000000000000071
 30
0.0
 40
0.7373985475160918
100
AcDbArc
 50
179.9999999999999
 51
231.4733676450046
  0
ARC
  5
1DD
330
19C
100
AcDbEntity
  8
PART
100
AcDbCircle
 10
-3.766582550842943
 20
-0.0000000000000071
 30
0.0
 40
0.7373985475160918
100
AcDbArc
 50
128.5266323549954
 51
180.0
  0
LINE
  5
1DE
330
19C
100
AcDbEntity
  8
PART
100
AcDbLine
 10
-1.18738600515278
 20
-0.9644599997873868
 30
0.0
 11
-0.0897292678412569
 21
-1.058844603234748
 31
0.0
  0
LINE
  5
1DF
330
19C
100
AcDbEntity
  8
PART
100
AcDbLine
 10
-1.188499731049148
 20
-0.9774122047976447
 30
0.0
 11
0.0
 21
-1.079608157320219
 31
0.0
  0
LINE
  5
1E0
330
19C
100
AcDbEntity
  8
PART
100
AcDbLine
 10
-3.715502607052851
 20
0.7470739310574999
 30
0.0
 11
-1.18738600515278
 21
0.9644599997873795
 31
0.0
  0
LINE
  5
1E1
330
19C
100
AcDbEntity
  8
PART
100
AcDbLine
 10
-3.721293101939774
 20
0.8124344306773847
 30
0.0
 11
-1.18972926484126
 21
0.9917112112179003
 31
0.0
  0
ARC
  5
1E2
330
19C
100
AcDbEntity
  8
PART
100
AcDbCircle
 10
-5.021300000000009
 20
-0.0000000000000071
 30
0.0
 40
1.073223302020297
100
AcDbArc
 50
36.44610178265317
 51
70.0000000000001
  0
LINE
  5
1E3
330
19C
100
AcDbEntity
  8
PART
100
AcDbLine
 10
-3.116093290540497
 20
0.855916246934832
 30
0.0
 11
-2.886227487584299
 21
1.007999999999994
 31
0.0
  0
LINE
  5
1E4
330
19C
100
AcDbEntity
  8
PART
100
AcDbLine
 10
-2.886227487584299
 20
1.007999999999994
 30
0.0
 11
-2.490660466614925
 21
1.202911544075139
 31
0.0
  0
LINE
  5
1E5
330
19C
100
AcDbEntity
  8
PART
100
AcDbLine
 10
-1.18738600515278
 20
0.9644599997873795
 30
0.0
 11
0.0
 21
1.066560185961952
 31
0.0
  0
LINE
  5
1E6
330
19C
100
AcDbEntity
  8
PART
100
AcDbLine
 10
-1.188499731049148
 20
0.9774122047976375
 30
0.0
 11
0.0
 21
1.079608157320199
 31
0.0
  0
LINE
  5
1E7
330
19C
100
AcDbEntity
  8
PART
100
AcDbLine
 10
-4.867998601466715
 20
0.4211921308410426
 30
0.0
 11
-4.654236012422589
 21
1.008500017363957
 31
0.0
  0
LINE
  5
1E8
330
19C
100
AcDbEntity
  8
PART
100
AcDbLine
 10
-5.557571076891466
 20
0.6695579262687588
 30
0.0
 11
-4.867998601466715
 21
0.4211921308410426
 31
0.0
  0
ARC
  5
1E9
330
19C
100
AcDbEntity
  8
PART
100
AcDbCircle
 10
-5.021300000000009
 20
-0.0000000000000071
 30
0.0
 40
0.4482233035828093
100
AcDbArc
 50
289.9999999999995
 51
70.38463833292578
  0
LINE
  5
1EA
330
19C
100
AcDbEntity
  8
PART
100
AcDbLine
 10
-4.654236012422589
 20
1.008500017363957
 30
0.0
 11
-5.342967059583862
 21
1.259177617945655
 31
0.0
  0
LINE
  5
1EB
330
19C
100
AcDbEntity
  8
PART
100
AcDbLine
 10
-5.557571076891466
 20
-0.6695579262687695
 30
0.0
 11
-4.867998601466715
 21
-0.4211921308410568
 31
0.0
  0
LINE
  5
1EC
330
19C
100
AcDbEntity
  8
PART
100
AcDbLine
 10
-4.654236012422589
 20
-1.008500017363967
 30
0.0
 11
-5.342967059583865
 21
-1.259177617945659
 31
0.0
  0
LINE
  5
1ED
330
19C
100
AcDbEntity
  8
PART
100
AcDbLine
 10
-4.867998601466715
 20
-0.4211921308410568
 30
0.0
 11
-4.654236012422585
 21
-1.008500017363977
 31
0.0
  0
LINE
  5
1EE
330
19C
100
AcDbEntity
  8
PART
100
AcDbLine
 10
-1.81669459779541
 20
1.779427327176803
 30
0.0
 11
-2.490660466614925
 21
1.202911544075135
 31
0.0
  0
LINE
  5
1EF
330
19C
100
AcDbEntity
  8
PART
100
AcDbLine
 10
-1.18972926484126
 20
2.499736322215865
 30
0.0
 11
-1.18972926484126
 21
0.9917112112179003
 31
0.0
  0
LINE
  5
1F0
330
19C
100
AcDbEntity
  8
PART
100
AcDbLine
 10
-1.166525666533479
 20
2.491554574638092
 30
0.0
 11
-1.81669459779541
 21
1.779427327176803
 31
0.0
  0
LINE
  5
1F1
330
19C
100
AcDbEntity
  8
PART
100
AcDbLine
 10
-1.346900025237438
 20
2.307507348749574
 30
0.0
 11
-1.543671475218899
 21
2.07846838470062
 31
0.0
  0
LINE
  5
1F2
330
19C
100
AcDbEntity
  8
PART
100
AcDbLine
 10
-1.81669459779541
 20
-1.779427327176815
 30
0.0
 11
-2.490660466614925
 21
-1.202911544075149
 31
0.0
  0
LINE
  5
1F3
330
19C
100
AcDbEntity
  8
PART
100
AcDbLine
 10
-1.18972926484126
 20
-0.9917112112179111
 30
0.0
 11
-1.18972926484126
 21
-2.499999993750004
 31
0.0
  0
LINE
  5
1F4
330
19C
100
AcDbEntity
  8
PART
100
AcDbLine
 10
-1.166525666533495
 20
-2.491554574638098
 30
0.0
 11
-1.81669459779541
 21
-1.779427327176815
 31
0.0
  0
LINE
  5
1F5
330
19C
100
AcDbEntity
  8
PART
100
AcDbLine
 10
-1.346900025237438
 20
-2.307507348749584
 30
0.0
 11
-1.543671475218899
 21
-2.078468384700633
 31
0.0
  0
ENDBLK
  5
1F7
330
19C
100
AcDbEntity
  8
0
100
AcDbBlockEnd
  0
BLOCK
  5
25A
330
254
100
AcDbEntity
  8
0
100
AcDbBlockBegin
  2
TB_A
 70
     0
 10
0.0
 20
0.0
 30
0.0
  3
TB_A
  1

  0
LINE
  5
255
330
254
100
AcDbEntity
  8
PART
100
AcDbLine
 10
0.0
 20
-3.95
 30
0.0
 11
10.5
 21
-3.95
 31
0.0
  0
LINE
  5
256
330
254
100
AcDbEntity
  8
PART
100
AcDbLine
 10
10.5
 20
3.95
 30
0.0
 11
0.0
 21
3.95
 31
0.0
  0
LINE
  5
257
330
254
100
AcDbEntity
  8
PART
100
AcDbLine
 10
0.0
 20
3.95
 30
0.0
 11
0.0
 21
-3.95
 31
0.0
  0
LINE
  5
258
330
254
100
AcDbEntity
  8
DIM
100
AcDbLine
 10
0.0
 20
-3.95
 30
0.0
 11
-0.075
 21
-3.95
 31
0.0
  0
LINE
  5
259
330
254
100
AcDbEntity
  8
PART
100
AcDbLine
 10
10.5
 20
-3.95
 30
0.0
 11
10.5
 21
3.95
 31
0.0
  0
ENDBLK
  5
25B
330
254
100
AcDbEntity
  8
0
100
AcDbBlockEnd
  0
BLOCK
  5
2E6
330
271
100
AcDbEntity
  8
0
100
AcDbBlockBegin
  2
A$C435B465C
 70
     0
 10
0.0
 20
0.0
 30
0.0
  3
A$C435B465C
  1

  0
LINE
  5
272
330
271
100
AcDbEntity
  8
TRIM
100
AcDbLine
 10
10.41999999853406
 20
7.869999998273459
 30
0.0
 11
0.0299999985340644
 21
7.869999998273459
 31
0.0
  0
LINE
  5
273
330
271
100
AcDbEntity
  8
TRIM
100
AcDbLine
 10
-0.0000000014659345
 20
7.89999999827346
 30
0.0
 11
10.44999999853406
 21
7.89999999827346
 31
0.0
  0
LINE
  5
274
330
271
100
AcDbEntity
  8
TRIM
100
AcDbLine
 10
0.0299999985340644
 20
7.869999998273459
 30
0.0
 11
0.0299999985340652
 21
0.9877074628274645
 31
0.0
  0
LINE
  5
275
330
271
100
AcDbEntity
  8
TRIM
100
AcDbLine
 10
-0.0000000014659349
 20
7.89999999827346
 30
0.0
 11
-0.0000000014659349
 21
-0.000000001726538
 31
0.0
  0
LINE
  5
276
330
271
100
AcDbEntity
  8
TRIM
100
AcDbLine
 10
10.41999999853406
 20
2.43249999827346
 30
0.0
 11
10.41999999853406
 21
7.869999998273457
 31
0.0
  0
LINE
  5
277
330
271
100
AcDbEntity
  8
TRIM
100
AcDbLine
 10
10.44999999853406
 20
-0.0000000017265407
 30
0.0
 11
10.44999999853406
 21
7.899999998273458
 31
0.0
  0
SOLID
  5
278
330
271
100
AcDbEntity
  8
SOLID
 62
     1
100
AcDbTrace
 10
8.850645714660329
 20
1.336824719979944
 30
0.0
 11
8.953204583077742
 21
1.529709898068545
 31
0.0
 12
8.844321504076491
 22
1.344775342338472
 32
0.0
 13
8.947606642518891
 23
1.539026435684055
 33
0.0
  0
SOLID
  5
279
330
271
100
AcDbEntity
  8
SOLID
 62
     1
100
AcDbTrace
 10
8.743633161575985
 20
1.330656234914543
 30
0.0
 11
8.928899857892716
 21
1.55144848583807
 31
0.0
 12
8.835889223298043
 22
1.355376172149845
 32
0.0
 13
8.94014272177376
 23
1.55144848583807
 33
0.0
  0
SOLID
  5
27A
330
271
100
AcDbEntity
  8
SOLID
 62
     1
100
AcDbTrace
 10
8.775982480684099
 20
1.551448485838069
 30
0.0
 11
9.123139625704462
 21
1.64446896249297
 31
0.0
 12
9.073679760929408
 22
1.551448485838069
 32
0.0
 13
9.073679760929408
 23
1.551448485838069
 33
0.0
  0
SOLID
  5
27B
330
271
100
AcDbEntity
  8
SOLID
 62
     1
100
AcDbTrace
 10
8.816585180362723
 20
1.57518819906379
 30
0.0
 11
9.147519865140667
 21
1.663861880597488
 31
0.0
 12
8.834870359939877
 22
1.589732887642178
 32
0.0
 13
9.165805044717821
 23
1.678406569175876
 33
0.0
  0
LINE
  5
27C
330
271
100
AcDbEntity
  8
TRIM
100
AcDbLine
 10
10.41999999853406
 20
2.40249999827346
 30
0.0
 11
8.026999998534062
 21
2.402499998273462
 31
0.0
  0
TEXT
  5
27D
330
271
100
AcDbEntity
  8
TRIM
100
AcDbText
 10
8.093749998534065
 20
2.232876334230537
 30
0.0
 40
0.1
  1
TASK FORCE TIPS, INC.
 51
10.0
  7
ROMAND
100
AcDbText
  0
TEXT
  5
27E
330
271
100
AcDbEntity
  8
TRIM
100
AcDbText
 10
8.128853318574009
 20
1.795200536343402
 30
0.0
 40
0.09
  1
219-462-6161
  7
SIMPLEX
100
AcDbText
  0
TEXT
  5
27F
330
271
100
AcDbEntity
  8
TRIM
 62
     2
100
AcDbText
 10
8.128853318574009
 20
1.945864616217593
 30
0.0
 40
0.09
  1
VALPARAISO, IN 46383
  7
SIMPLEX
100
AcDbText
  0
TEXT
  5
280
330
271
100
AcDbEntity
  8
TRIM
 62
     2
100
AcDbText
 10
8.128853318574009
 20
2.090582801482294
 30
0.0
 40
0.09
  1
2800 E. EVANS AVE.
  7
SIMPLEX
100
AcDbText
  0
LINE
  5
281
330
271
100
AcDbEntity
  8
TRIM
100
AcDbLine
 10
10.41999999853406
 20
2.43249999827346
 30
0.0
 11
7.996999998534067
 21
2.432499998273462
 31
0.0
  0
LINE
  5
282
330
271
100
AcDbEntity
  8
TRIM
100
AcDbLine
 10
8.026999998534062
 20
1.224315403424987
 30
0.0
 11
8.026999998534062
 21
2.402499998273462
 31
0.0
  0
LINE
  5
283
330
271
100
AcDbEntity
  8
TRIM
100
AcDbLine
 10
7.996999998534063
 20
0.6684716413094636
 30
0.0
 11
7.996999998534067
 21
2.432499998273462
 31
0.0
  0
SOLID
  5
284
330
271
100
AcDbEntity
  8
SOLID
 62
     1
100
AcDbTrace
 10
8.043289409296239
 20
1.529709898068545
 30
0.0
 11
8.307257975069028
 21
1.529709898068545
 31
0.0
 12
8.114055538205606
 22
1.539026435684055
 32
0.0
 13
8.327237354460679
 23
1.539026435684055
 33
0.0
  0
SOLID
  5
285
330
271
100
AcDbEntity
  8
SOLID
 62
     1
100
AcDbTrace
 10
8.043289409296239
 20
1.529709898068545
 30
0.0
 11
8.598232940785159
 21
1.678406569175876
 31
0.0
 12
8.114055538205606
 22
1.539026435684055
 32
0.0
 13
8.579947761208007
 23
1.663861880597488
 33
0.0
  0
SOLID
  5
286
330
271
100
AcDbEntity
  8
SOLID
 62
     1
100
AcDbTrace
 10
8.168609830666147
 20
1.330656234914543
 30
0.0
 11
8.353876526982878
 21
1.551448485838069
 31
0.0
 12
8.260865892388205
 22
1.355376172149844
 32
0.0
 13
8.365119390863922
 23
1.551448485838069
 33
0.0
  0
SOLID
  5
287
330
271
100
AcDbEntity
  8
SOLID
 62
     1
100
AcDbTrace
 10
8.107639476921409
 20
1.29181383575286
 30
0.0
 11
8.307257975069028
 21
1.529709898068545
 31
0.0
 12
8.133769628526295
 22
1.308460578250724
 32
0.0
 13
8.327237354460679
 23
1.539026435684055
 33
0.0
  0
SOLID
  5
288
330
271
100
AcDbEntity
  8
SOLID
 62
     1
100
AcDbTrace
 10
8.269298173166653
 20
1.344775342338472
 30
0.0
 11
8.372583311609052
 21
1.539026435684055
 31
0.0
 12
8.275622383750489
 22
1.336824719979944
 32
0.0
 13
8.378181252167902
 23
1.529709898068545
 33
0.0
  0
SOLID
  5
289
330
271
100
AcDbEntity
  8
SOLID
 62
     1
100
AcDbTrace
 10
8.519123822871025
 20
1.446010323780123
 30
0.0
 11
8.389737606638517
 21
1.29181383575286
 31
0.0
 12
8.53420778556849
 22
1.449492730963092
 32
0.0
 13
8.415867758243402
 23
1.308460578250724
 33
0.0
  0
SOLID
  5
28A
330
271
100
AcDbEntity
  8
SOLID
 62
     1
100
AcDbTrace
 10
8.557720513467593
 20
1.336824719979944
 30
0.0
 11
8.597274694021209
 21
1.411215314162211
 31
0.0
 12
8.551396302883759
 22
1.344775342338472
 32
0.0
 13
8.593127360178915
 23
1.423260046220355
 33
0.0
  0
SOLID
  5
28B
330
271
100
AcDbEntity
  8
SOLID
 62
     1
100
AcDbTrace
 10
8.902260685370517
 20
1.539026435684055
 30
0.0
 11
8.708792959436136
 21
1.308460578250725
 31
0.0
 12
8.882281305978866
 22
1.529709898068545
 32
0.0
 13
8.682662807831249
 23
1.29181383575286
 33
0.0
  0
SOLID
  5
28C
330
271
100
AcDbEntity
  8
SOLID
 62
     1
100
AcDbTrace
 10
8.450707960383251
 20
1.330656234914543
 30
0.0
 11
8.554319735831771
 21
1.454135940540384
 31
0.0
 12
8.542964022105309
 22
1.355376172149844
 32
0.0
 13
8.587597581722521
 23
1.439319688964546
 33
0.0
  0
SOLID
  5
28D
330
271
100
AcDbEntity
  8
SOLID
 62
     1
100
AcDbTrace
 10
8.389737606638517
 20
1.29181383575286
 30
0.0
 11
8.557720513467593
 21
1.336824719979944
 31
0.0
 12
8.415867758243402
 22
1.308460578250724
 32
0.0
 13
8.551396302883759
 23
1.344775342338472
 33
0.0
  0
SOLID
  5
28E
330
271
100
AcDbEntity
  8
SOLID
 62
     1
100
AcDbTrace
 10
8.107639476921409
 20
1.29181383575286
 30
0.0
 11
8.275622383750489
 21
1.336824719979944
 31
0.0
 12
8.133769628526295
 22
1.308460578250724
 32
0.0
 13
8.269298173166653
 23
1.344775342338472
 33
0.0
  0
SOLID
  5
28F
330
271
100
AcDbEntity
  8
SOLID
 62
     1
100
AcDbTrace
 10
8.682662807831249
 20
1.29181383575286
 30
0.0
 11
8.850645714660329
 21
1.336824719979944
 31
0.0
 12
8.708792959436136
 22
1.308460578250725
 32
0.0
 13
8.844321504076491
 23
1.344775342338472
 33
0.0
  0
SOLID
  5
290
330
271
100
AcDbEntity
  8
SOLID
 62
     1
100
AcDbTrace
 10
8.208410376751436
 20
1.551448485838069
 30
0.0
 11
8.555567521771804
 21
1.64446896249297
 31
0.0
 12
8.506107656996745
 22
1.551448485838069
 32
0.0
 13
8.506107656996745
 23
1.551448485838069
 33
0.0
  0
SOLID
  5
291
330
271
100
AcDbEntity
  8
SOLID
 62
     1
100
AcDbTrace
 10
8.372583311609052
 20
1.539026435684055
 30
0.0
 11
8.609335484177782
 21
1.539026435684055
 31
0.0
 12
8.378181252167902
 22
1.529709898068545
 32
0.0
 13
8.589356104786135
 23
1.529709898068545
 33
0.0
  0
SOLID
  5
292
330
271
100
AcDbEntity
  8
SOLID
 62
     1
100
AcDbTrace
 10
8.572168427478532
 20
1.509226421888862
 30
0.0
 11
8.457090830046874
 21
1.473629191620975
 31
0.0
 12
8.577542130581781
 22
1.501136592315401
 32
0.0
 13
8.483530452159383
 23
1.47205573349177
 33
0.0
  0
SOLID
  5
293
330
271
100
AcDbEntity
  8
SOLID
 62
     1
100
AcDbTrace
 10
8.457090830046874
 20
1.473629191620975
 30
0.0
 11
8.519123822871025
 21
1.446010323780123
 31
0.0
 12
8.483530452159383
 22
1.47205573349177
 32
0.0
 13
8.53420778556849
 23
1.449492730963092
 33
0.0
  0
SOLID
  5
294
330
271
100
AcDbEntity
  8
SOLID
 62
     1
100
AcDbTrace
 10
8.492196428717766
 20
1.551448485838069
 30
0.0
 11
8.839353573738133
 21
1.64446896249297
 31
0.0
 12
8.789893708963074
 22
1.551448485838069
 32
0.0
 13
8.789893708963074
 23
1.551448485838069
 33
0.0
  0
SOLID
  5
295
330
271
100
AcDbEntity
  8
SOLID
 62
     1
100
AcDbTrace
 10
8.710751962356022
 20
1.539026435684055
 30
0.0
 11
8.902260685370517
 21
1.539026435684055
 31
0.0
 12
8.716349902914869
 22
1.529709898068545
 32
0.0
 13
8.882281305978866
 23
1.529709898068545
 33
0.0
  0
SOLID
  5
296
330
271
100
AcDbEntity
  8
SOLID
 62
     1
100
AcDbTrace
 10
8.551084307973546
 20
1.589732887642178
 30
0.0
 11
8.88201899275149
 21
1.678406569175876
 31
0.0
 12
8.532799128396392
 22
1.575188199063791
 32
0.0
 13
8.863733813174338
 23
1.663861880597488
 33
0.0
  0
SOLID
  5
297
330
271
100
AcDbEntity
  8
SOLID
 62
     1
100
AcDbTrace
 10
8.532799128396392
 20
1.575188199063791
 30
0.0
 11
8.579947761208007
 21
1.663861880597488
 31
0.0
 12
8.551084307973546
 22
1.589732887642178
 32
0.0
 13
8.598232940785159
 23
1.678406569175876
 33
0.0
  0
SOLID
  5
298
330
271
100
AcDbEntity
  8
SOLID
 62
     1
100
AcDbTrace
 10
8.593127360178915
 20
1.423260046220355
 30
0.0
 11
8.638464998265757
 21
1.403074429219956
 31
0.0
 12
8.597274694021209
 22
1.411215314162211
 32
0.0
 13
8.642612332108052
 23
1.391029697161811
 33
0.0
  0
SOLID
  5
299
330
271
100
AcDbEntity
  8
SOLID
 62
     1
100
AcDbTrace
 10
8.518783281642729
 20
1.469957789319499
 30
0.0
 11
8.687749358113206
 21
1.522224472547336
 31
0.0
 12
8.632935219809365
 22
1.419134071964148
 32
0.0
 13
8.632935219809365
 23
1.419134071964148
 33
0.0
  0
SOLID
  5
29A
330
271
100
AcDbEntity
  8
SOLID
 62
     1
100
AcDbTrace
 10
8.584707068052781
 20
1.490350152884121
 30
0.0
 11
8.635974656699982
 21
1.551448485838069
 31
0.0
 12
8.620641230585929
 22
1.50146575389357
 32
0.0
 13
8.647217520581026
 23
1.551448485838069
 33
0.0
  0
SOLID
  5
29B
330
271
100
AcDbEntity
  8
SOLID
 62
     1
100
AcDbTrace
 10
8.589356104786135
 20
1.529709898068545
 30
0.0
 11
8.572168427478532
 21
1.509226421888862
 31
0.0
 12
8.609335484177782
 22
1.539026435684055
 32
0.0
 13
8.577542130581781
 23
1.501136592315401
 33
0.0
  0
SOLID
  5
29C
330
271
100
AcDbEntity
  8
SOLID
 62
     1
100
AcDbTrace
 10
8.638464998265757
 20
1.403074429219956
 30
0.0
 11
8.710751962356022
 21
1.539026435684055
 31
0.0
 12
8.642612332108052
 22
1.391029697161811
 32
0.0
 13
8.716349902914869
 23
1.529709898068545
 33
0.0
  0
SOLID
  5
29D
330
271
100
AcDbEntity
  8
SOLID
 62
     1
100
AcDbTrace
 10
8.645754237745254
 20
1.522236807647911
 30
0.0
 11
8.700031214960349
 21
1.539026435684055
 31
0.0
 12
8.654681441326159
 22
1.539026435684055
 32
0.0
 13
8.654681441326159
 23
1.539026435684055
 33
0.0
  0
SOLID
  5
29E
330
271
100
AcDbEntity
  8
SOLID
 62
     1
100
AcDbTrace
 10
8.816585180362723
 20
1.57518819906379
 30
0.0
 11
8.863733813174338
 21
1.663861880597488
 31
0.0
 12
8.834870359939877
 22
1.589732887642178
 32
0.0
 13
8.88201899275149
 23
1.678406569175876
 33
0.0
  0
LINE
  5
29F
330
271
100
AcDbEntity
  8
TRIM
100
AcDbLine
 10
10.41999999853406
 20
1.780339596352224
 30
0.0
 11
10.41999999853406
 21
2.40249999827346
 31
0.0
  0
LINE
  5
2A0
330
271
100
AcDbEntity
  8
TRIM
100
AcDbLine
 10
9.212094455479999
 20
1.750339596352224
 30
0.0
 11
9.212094455480064
 21
0.3543154034249878
 31
0.0
  0
LINE
  5
2A1
330
271
100
AcDbEntity
  8
TRIM
100
AcDbLine
 10
10.41999999853406
 20
0.3543154034249873
 30
0.0
 11
10.41999999853406
 21
1.750339596352224
 31
0.0
  0
LINE
  5
2A2
330
271
100
AcDbEntity
  8
TRIM
100
AcDbLine
 10
9.212094455479999
 20
1.750339596352224
 30
0.0
 11
10.41999999853406
 21
1.750339596352224
 31
0.0
  0
LINE
  5
2A3
330
271
100
AcDbEntity
  8
TRIM
100
AcDbLine
 10
9.182094455479996
 20
1.780339596352224
 30
0.0
 11
10.41999999853406
 21
1.780339596352224
 31
0.0
  0
TEXT
  5
2A4
330
271
100
AcDbEntity
  8
DIM
100
AcDbText
 10
9.571579664239891
 20
1.615565403424987
 30
0.0
 40
0.09
  1
DATE
 41
0.9
 72
     1
 11
9.714293949954177
 21
1.615565403424987
 31
0.0
100
AcDbText
  0
LINE
  5
2A5
330
271
100
AcDbEntity
  8
TRIM
100
AcDbLine
 10
9.994468264419046
 20
1.584315403424987
 30
0.0
 11
9.434119635489306
 21
1.584315403424987
 31
0.0
  0
LINE
  5
2A6
330
271
100
AcDbEntity
  8
TRIM
100
AcDbLine
 10
10.41999999853406
 20
1.404315403424988
 30
0.0
 11
9.212094455480011
 21
1.404315403424988
 31
0.0
  0
LINE
  5
2A7
330
271
100
AcDbEntity
  8
TRIM
100
AcDbLine
 10
9.434119635489306
 20
1.750339596352224
 30
0.0
 11
9.434119635489302
 21
0.6843154034249876
 31
0.0
  0
LINE
  5
2A8
330
271
100
AcDbEntity
  8
TRIM
100
AcDbLine
 10
9.182094455479996
 20
1.780339596352224
 30
0.0
 11
9.182094455480022
 21
1.224315403424987
 31
0.0
  0
TEXT
  5
2A9
330
271
100
AcDbEntity
  8
DIM
100
AcDbText
 10
9.227107045484656
 20
1.615565403424987
 30
0.0
 40
0.09
  1
REV
 41
0.8
 72
     1
 11
9.323107045484656
 21
1.615565403424987
 31
0.0
100
AcDbText
  0
LINE
  5
2AA
330
271
100
AcDbEntity
  8
TRIM
100
AcDbLine
 10
9.434119635489306
 20
1.584315403424987
 30
0.0
 11
9.212094455480006
 21
1.584315403424987
 31
0.0
  0
SOLID
  5
2AB
330
271
100
AcDbEntity
  8
SOLID
 62
     1
100
AcDbTrace
 10
9.086741622233386
 20
1.529709898068545
 30
0.0
 11
9.165805044717821
 21
1.678406569175876
 31
0.0
 12
9.081143681674538
 22
1.539026435684055
 32
0.0
 13
9.147519865140667
 23
1.663861880597488
 33
0.0
  0
SOLID
  5
2AC
330
271
100
AcDbEntity
  8
SOLID
 62
     1
100
AcDbTrace
 10
8.953204583077742
 20
1.529709898068545
 30
0.0
 11
9.086741622233386
 21
1.529709898068545
 31
0.0
 12
8.947606642518891
 22
1.539026435684055
 32
0.0
 13
9.081143681674538
 23
1.539026435684055
 33
0.0
  0
LINE
  5
2AD
330
271
100
AcDbEntity
  8
TRIM
100
AcDbLine
 10
9.994468264419046
 20
1.750339596352224
 30
0.0
 11
9.994468264419046
 21
0.6843154034249871
 31
0.0
  0
TEXT
  5
2AE
330
271
100
AcDbEntity
  8
DIM
100
AcDbText
 10
10.0105817160691
 20
1.615565403424987
 30
0.0
 40
0.09
  1
INITIALS
 41
0.8
 72
     1
 11
10.21115314464053
 21
1.615565403424987
 31
0.0
100
AcDbText
  0
LINE
  5
2AF
330
271
100
AcDbEntity
  8
TRIM
100
AcDbLine
 10
10.41999999853406
 20
1.584315403424987
 30
0.0
 11
9.994468264419046
 21
1.584315403424987
 31
0.0
  0
LINE
  5
2B0
330
271
100
AcDbEntity
  8
TRIM
100
AcDbLine
 10
0.0299999985341133
 20
0.3492358197914696
 30
0.0
 11
7.996999998534063
 21
0.3492358197914633
 31
0.0
  0
LINE
  5
2B1
330
271
100
AcDbEntity
  8
TRIM
100
AcDbLine
 10
0.0299999985340644
 20
0.6384716413094697
 30
0.0
 11
7.996999998534063
 21
0.6384716413094635
 31
0.0
  0
LINE
  5
2B2
330
271
100
AcDbEntity
  8
TRIM
100
AcDbLine
 10
-0.0000000014659349
 20
-0.000000001726538
 30
0.0
 11
10.44999999853406
 21
-0.0000000017265371
 31
0.0
  0
LINE
  5
2B3
330
271
100
AcDbEntity
  8
TRIM
100
AcDbLine
 10
0.0299999985340644
 20
0.3192358197914693
 30
0.0
 11
7.996999998534063
 21
0.3192358197914626
 31
0.0
  0
LINE
  5
2B4
330
271
100
AcDbEntity
  8
TRIM
100
AcDbLine
 10
0.0299999985341133
 20
0.0299999982734693
 30
0.0
 11
7.996999998534063
 21
0.0299999982734627
 31
0.0
  0
LINE
  5
2B5
330
271
100
AcDbEntity
  8
TRIM
100
AcDbLine
 10
0.0299999985340652
 20
0.9877074628274645
 30
0.0
 11
4.123749998534061
 21
0.9877074628274638
 31
0.0
  0
LINE
  5
2B6
330
271
100
AcDbEntity
  8
TRIM
100
AcDbLine
 10
0.0299999985341142
 20
0.9577074628274647
 30
0.0
 11
3.312499998534065
 21
0.9577074628274647
 31
0.0
  0
LINE
  5
2B7
330
271
100
AcDbEntity
  8
TRIM
100
AcDbLine
 10
0.0299999985340644
 20
0.6684716413094645
 30
0.0
 11
3.312499998534113
 21
0.6684716413094645
 31
0.0
  0
TEXT
  5
2B8
330
271
100
AcDbEntity
  8
TRIM
100
AcDbText
 10
0.1075473542991792
 20
0.4200287859488796
 30
0.0
 40
0.14
  1
DESCRIPTION:
 41
0.9
  7
SIMPLEX
100
AcDbText
  0
TEXT
  5
2B9
330
271
100
AcDbEntity
  8
TRIM
100
AcDbText
 10
0.1075473542991792
 20
0.1075287859488796
 30
0.0
 40
0.14
  1
EXTRA DESC:
 41
0.9
  7
SIMPLEX
100
AcDbText
  0
TEXT
  5
2BA
330
271
100
AcDbEntity
  8
TRIM
100
AcDbText
 10
0.1101805216547635
 20
0.7431394110287762
 30
0.0
 40
0.14
  1
PART NUMBER:
 41
0.8
  7
SIMPLEX
100
AcDbText
  0
LINE
  5
2BB
330
271
100
AcDbEntity
  8
TRIM
100
AcDbLine
 10
0.0299999985340644
 20
0.6384716413094697
 30
0.0
 11
0.0299999985341133
 21
0.3492358197914696
 31
0.0
  0
LINE
  5
2BC
330
271
100
AcDbEntity
  8
TRIM
100
AcDbLine
 10
0.0299999985340644
 20
0.3192358197914693
 30
0.0
 11
0.0299999985341133
 21
0.0299999982734693
 31
0.0
  0
LINE
  5
2BD
330
271
100
AcDbEntity
  8
TRIM
100
AcDbLine
 10
0.0299999985340653
 20
0.9577074628274651
 30
0.0
 11
0.0299999985340644
 21
0.6684716413094645
 31
0.0
  0
LINE
  5
2BE
330
271
100
AcDbEntity
  8
TRIM
100
AcDbLine
 10
3.342499998534066
 20
0.9577074628274647
 30
0.0
 11
4.093749998534065
 21
0.9577074628274647
 31
0.0
  0
TEXT
  5
2BF
330
271
100
AcDbEntity
  8
DIM
 62
     1
100
AcDbText
 10
3.539702379486445
 20
0.8537499982734622
 30
0.0
 40
0.08
  1
SHEET
 72
     1
 11
3.718749998534065
 21
0.8537499982734622
 31
0.0
100
AcDbText
  0
LINE
  5
2C0
330
271
100
AcDbEntity
  8
TRIM
100
AcDbLine
 10
3.342499998534066
 20
0.9577074628274647
 30
0.0
 11
3.342499998534113
 21
0.6684716413094673
 31
0.0
  0
LINE
  5
2C1
330
271
100
AcDbEntity
  8
TRIM
100
AcDbLine
 10
3.312499998534065
 20
0.9577074628274644
 30
0.0
 11
3.312499998534113
 21
0.6684716413094645
 31
0.0
  0
LINE
  5
2C2
330
271
100
AcDbEntity
  8
TRIM
100
AcDbLine
 10
4.123749998534061
 20
0.9877074628274638
 30
0.0
 11
4.123749998534114
 21
0.6684716413094673
 31
0.0
  0
LINE
  5
2C3
330
271
100
AcDbEntity
  8
TRIM
100
AcDbLine
 10
4.093749998534065
 20
0.9577074628274647
 30
0.0
 11
4.093749998534113
 21
0.6684716413094645
 31
0.0
  0
LINE
  5
2C4
330
271
100
AcDbEntity
  8
TRIM
100
AcDbLine
 10
4.123749998534114
 20
0.6684716413094664
 30
0.0
 11
7.996999998534063
 21
0.6684716413094633
 31
0.0
  0
LINE
  5
2C5
330
271
100
AcDbEntity
  8
TRIM
100
AcDbLine
 10
9.182094455480022
 20
1.224315403424987
 30
0.0
 11
8.026999998534062
 21
1.224315403424987
 31
0.0
  0
TEXT
  5
2C6
330
271
100
AcDbEntity
  8
DIM
100
AcDbText
 10
8.043249998534061
 20
0.2653392262302923
 30
0.0
 40
0.056
  1
DIMENSIONS IN 'INCHES' UNLESS SPECIFIED OTHERWISE
100
AcDbText
  0
LINE
  5
2C7
330
271
100
AcDbEntity
  8
TRIM
100
AcDbLine
 10
9.182094455480003
 20
1.044315403424987
 30
0.0
 11
8.026999998534051
 21
1.044315403424987
 31
0.0
  0
LINE
  5
2C8
330
271
100
AcDbEntity
  8
TRIM
100
AcDbLine
 10
9.182094455480022
 20
1.194315403424986
 30
0.0
 11
8.026999998534066
 21
1.194315403424986
 31
0.0
  0
LINE
  5
2C9
330
271
100
AcDbEntity
  8
TRIM
100
AcDbLine
 10
8.026999998534062
 20
0.0749999982734631
 30
0.0
 11
10.41999999853406
 21
0.0749999982734622
 31
0.0
  0
LINE
  5
2CA
330
271
100
AcDbEntity
  8
TRIM
100
AcDbLine
 10
8.026999998534062
 20
0.2249999982734629
 30
0.0
 11
10.41999999853406
 21
0.2249999982734625
 31
0.0
  0
TEXT
  5
2CB
330
271
100
AcDbEntity
  8
TRIM
100
AcDbText
 10
8.074563651603105
 20
0.5810145276027239
 30
0.0
 40
0.07
  1
PRINT APPROVED
 41
1.058889550608496
  7
SIMPLEX
 72
     5
 11
9.02403461531539
 21
0.5810145276027239
 31
0.0
100
AcDbText
  0
LINE
  5
2CC
330
271
100
AcDbEntity
  8
TRIM
100
AcDbLine
 10
9.182094455480063
 20
0.3543154034249878
 30
0.0
 11
8.026999998534062
 21
0.3543154034249878
 31
0.0
  0
LINE
  5
2CD
330
271
100
AcDbEntity
  8
TRIM
 62
     2
100
AcDbLine
 10
9.182094455480012
 20
0.8643154034249873
 30
0.0
 11
8.026999998534062
 21
0.8643154034249873
 31
0.0
  0
LINE
  5
2CE
330
271
100
AcDbEntity
  8
TRIM
100
AcDbLine
 10
9.182094455480015
 20
0.6843154034249876
 30
0.0
 11
8.026999998534062
 21
0.6843154034249871
 31
0.0
  0
LINE
  5
2CF
330
271
100
AcDbEntity
  8
TRIM
 62
     2
100
AcDbLine
 10
9.182094455480022
 20
0.5457609724770878
 30
0.0
 11
8.026999998534062
 21
0.5457609724770878
 31
0.0
  0
LINE
  5
2D0
330
271
100
AcDbEntity
  8
TRIM
100
AcDbLine
 10
9.182094455480033
 20
0.3543154034249873
 30
0.0
 11
8.026999998534062
 21
0.3543154034249873
 31
0.0
  0
LINE
  5
2D1
330
271
100
AcDbEntity
  8
TRIM
100
AcDbLine
 10
7.996999998534063
 20
0.3492358197914598
 30
0.0
 11
7.996999998534063
 21
0.6384716413094598
 31
0.0
  0
LINE
  5
2D2
330
271
100
AcDbEntity
  8
TRIM
100
AcDbLine
 10
8.026999998534062
 20
0.3543154034249878
 30
0.0
 11
8.026999998534062
 21
0.8643154034249878
 31
0.0
  0
TEXT
  5
2D3
330
271
100
AcDbEntity
  8
TRIM
100
AcDbText
 10
8.062499998534065
 20
0.1099999982734623
 30
0.0
 40
0.08
  1
FILE:
  7
SIMPLEX
100
AcDbText
  0
LINE
  5
2D4
330
271
100
AcDbEntity
  8
TRIM
100
AcDbLine
 10
8.026999998534062
 20
0.0749999982734653
 30
0.0
 11
8.099999998534062
 21
0.0749999982734648
 31
0.0
  0
LINE
  5
2D5
330
271
100
AcDbEntity
  8
TRIM
100
AcDbLine
 10
8.026999998534062
 20
0.0749999982734622
 30
0.0
 11
8.026999998534062
 21
0.2249999982734629
 31
0.0
  0
LINE
  5
2D6
330
271
100
AcDbEntity
  8
TRIM
100
AcDbLine
 10
7.996999998534063
 20
0.0299999982734596
 30
0.0
 11
7.996999998534063
 21
0.3192358197914595
 31
0.0
  0
TEXT
  5
2D7
330
271
100
AcDbEntity
  8
TRIM
100
AcDbText
 10
8.074563651603092
 20
0.8995689585506237
 30
0.0
 40
0.07
  1
PRINT DRAWN
 41
1.047995828933662
  7
SIMPLEX
 72
     5
 11
8.811654051286435
 21
0.8995689585506237
 31
0.0
100
AcDbText
  0
TEXT
  5
2D8
330
271
100
AcDbEntity
  8
TRIM
100
AcDbText
 10
8.074583587926003
 20
1.067921744520257
 30
0.0
 40
0.09
  1
SCALE:
  7
SIMPLEX
100
AcDbText
  0
LINE
  5
2D9
330
271
100
AcDbEntity
  8
TRIM
100
AcDbLine
 10
8.026999998534062
 20
0.8643154034249878
 30
0.0
 11
8.026999998534062
 21
1.194315403424986
 31
0.0
  0
LINE
  5
2DA
330
271
100
AcDbEntity
  8
TRIM
100
AcDbLine
 10
10.41999999853406
 20
0.3543154034249873
 30
0.0
 11
9.212094455480064
 21
0.3543154034249878
 31
0.0
  0
LINE
  5
2DB
330
271
100
AcDbEntity
  8
TRIM
100
AcDbLine
 10
10.41999999853406
 20
0.0749999982734622
 30
0.0
 11
10.41999999853406
 21
0.2249999982734625
 31
0.0
  0
LINE
  5
2DC
330
271
100
AcDbEntity
  8
TRIM
100
AcDbLine
 10
10.41999999853406
 20
0.6843154034249871
 30
0.0
 11
9.212094455480039
 21
0.6843154034249876
 31
0.0
  0
LINE
  5
2DD
330
271
100
AcDbEntity
  8
TRIM
100
AcDbLine
 10
10.41999999853406
 20
0.8643154034249873
 30
0.0
 11
9.212094455480032
 21
0.8643154034249873
 31
0.0
  0
LINE
  5
2DE
330
271
100
AcDbEntity
  8
TRIM
100
AcDbLine
 10
10.41999999853406
 20
1.044315403424987
 30
0.0
 11
9.212094455480023
 21
1.044315403424987
 31
0.0
  0
LINE
  5
2DF
330
271
100
AcDbEntity
  8
TRIM
100
AcDbLine
 10
10.41999999853406
 20
1.224315403424987
 30
0.0
 11
9.212094455480016
 21
1.224315403424987
 31
0.0
  0
TEXT
  5
2E0
330
271
100
AcDbEntity
  8
TRIM
100
AcDbText
 10
9.277645854177304
 20
0.5810145276027239
 30
0.0
 40
0.07
  1
DESIGN ENGINEER
  7
SIMPLEX
100
AcDbText
  0
LINE
  5
2E1
330
271
100
AcDbEntity
  8
TRIM
 62
     2
100
AcDbLine
 10
10.41418891242604
 20
0.5457609724770875
 30
0.0
 11
9.212094455480064
 21
0.5457609724770878
 31
0.0
  0
LINE
  5
2E2
330
271
100
AcDbEntity
  8
TRIM
100
AcDbLine
 10
9.182094455480022
 20
1.194315403424986
 30
0.0
 11
9.182094455480063
 21
0.3543154034249878
 31
0.0
  0
LINE
  5
2E3
330
271
100
AcDbEntity
  8
TRIM
 62
     2
100
AcDbLine
 10
8.736598446570452
 20
0.5457609724770878
 30
0.0
 11
8.73659844657045
 21
0.3543154034249878
 31
0.0
  0
LINE
  5
2E4
330
271
100
AcDbEntity
  8
TRIM
 62
     2
100
AcDbLine
 10
8.736598446570452
 20
0.8643154034249873
 30
0.0
 11
8.736598446570452
 21
0.6843154034249876
 31
0.0
  0
LINE
  5
2E5
330
271
100
AcDbEntity
  8
TRIM
100
AcDbLine
 10
3.342499998534113
 20
0.6684716413094673
 30
0.0
 11
4.093749998534113
 21
0.6684716413094664
 31
0.0
  0
ENDBLK
  5
2E7
330
271
100
AcDbEntity
  8
0
100
AcDbBlockEnd
  0
BLOCK
  5
2EA
330
2E8
100
AcDbEntity
  8
0
100
AcDbBlockBegin
  2
A$C4FB65283
 70
     2
 10
0.0
 20
0.0
 30
0.0
  3
A$C4FB65283
  1

  0
ATTDEF
  5
2E9
330
2E8
100
AcDbEntity
  8
DIM
100
AcDbText
 10
0.0000000025669991
 20
0.0433333427455174
 30
0.0
 40
0.13
  1

  7
SIMPLEX
100
AcDbAttributeDefinition
  3
PART_#
  2
PART_#
 70
     0
  0
ENDBLK
  5
2EB
330
2E8
100
AcDbEntity
  8
0
100
AcDbBlockEnd
  0
BLOCK
  5
2EE
330
2EC
100
AcDbEntity
  8
0
100
AcDbBlockBegin
  2
A$C2BBE0097
 70
     2
 10
0.0
 20
0.0
 30
0.0
  3
A$C2BBE0097
  1

  0
ATTDEF
  5
2ED
330
2EC
100
AcDbEntity
  8
DIM
100
AcDbText
 10
0.0000000025669991
 20
0.0123809372330444
 30
0.0
 40
0.13
  1

  7
SIMPLEX
100
AcDbAttributeDefinition
  3
PART_DESCRIPTION
  2
PART_DESCRIPTION
 70
     0
  0
ENDBLK
  5
2EF
330
2EC
100
AcDbEntity
  8
0
100
AcDbBlockEnd
  0
BLOCK
  5
2F2
330
2F0
100
AcDbEntity
  8
0
100
AcDbBlockBegin
  2
A$C10236829
 70
     2
 10
0.0
 20
0.0
 30
0.0
  3
A$C10236829
  1

  0
ATTDEF
  5
2F1
330
2F0
100
AcDbEntity
  8
DIM
100
AcDbText
 10
0.0000000025669991
 20
0.0123809528212267
 30
0.0
 40
0.13
  1

  7
SIMPLEX
100
AcDbAttributeDefinition
  3
EXTRA_DESCRIPTION
  2
EXTRA_DESCRIPTION
 70
     0
  0
ENDBLK
  5
2F3
330
2F0
100
AcDbEntity
  8
0
100
AcDbBlockEnd
  0
BLOCK
  5
2F6
330
2F4
100
AcDbEntity
  8
0
100
AcDbBlockBegin
  2
A$C794932C0
 70
     2
 10
0.0
 20
0.0
 30
0.0
  3
A$C794932C0
  1

  0
ATTDEF
  5
2F5
330
2F4
100
AcDbEntity
  8
DIM
100
AcDbText
 10
0.2238095347306626
 20
0.0499999881906419
 30
0.0
 40
0.1
  1

  7
SIMPLEX
 72
     4
 11
0.2238095347306626
 21
0.0499999881906419
 31
0.0
100
AcDbAttributeDefinition
  3
SHEET
  2
SHEET
 70
     0
  0
ENDBLK
  5
2F7
330
2F4
100
AcDbEntity
  8
0
100
AcDbBlockEnd
  0
BLOCK
  5
374
330
2F8
100
AcDbEntity
  8
0
100
AcDbBlockBegin
  2
TEST
 70
     2
 10
0.0
 20
0.0
 30
0.0
  3
TEST
  1

  0
INSERT
  5
2F9
330
2F8
100
AcDbEntity
  8
DIM
100
AcDbBlockReference
 66
     1
  2
A$C4FB65283
 10
0.9375
 20
-0.9375
 30
0.0
  0
ATTRIB
  5
2FA
330
2F9
100
AcDbEntity
  8
DIM
100
AcDbText
 10
0.937500002566999
 20
-0.8941666572544825
 30
0.0
 40
0.13
  1

  7
SIMPLEX
100
AcDbAttribute
  2
PART_#
 70
     0
  0
SEQEND
  5
2FB
330
2F9
100
AcDbEntity
  8
DIM
  0
LINE
  5
2FC
330
2F8
100
AcDbEntity
  8
TRIM
100
AcDbLine
 10
10.66999999853406
 20
8.11999999827346
 30
0.0
 11
0.2799999985340644
 21
8.11999999827346
 31
0.0
  0
LINE
  5
2FD
330
2F8
100
AcDbEntity
  8
TRIM
100
AcDbLine
 10
0.2499999985340655
 20
8.149999998273461
 30
0.0
 11
10.69999999853406
 21
8.149999998273461
 31
0.0
  0
LINE
  5
2FE
330
2F8
100
AcDbEntity
  8
TRIM
100
AcDbLine
 10
0.2799999985340644
 20
8.11999999827346
 30
0.0
 11
0.2799999985340651
 21
1.237707462827464
 31
0.0
  0
LINE
  5
2FF
330
2F8
100
AcDbEntity
  8
TRIM
100
AcDbLine
 10
0.2499999985340651
 20
8.149999998273461
 30
0.0
 11
0.2499999985340651
 21
0.249999998273462
 31
0.0
  0
LINE
  5
300
330
2F8
100
AcDbEntity
  8
TRIM
100
AcDbLine
 10
10.66999999853406
 20
2.68249999827346
 30
0.0
 11
10.66999999853406
 21
8.119999998273456
 31
0.0
  0
LINE
  5
301
330
2F8
100
AcDbEntity
  8
TRIM
100
AcDbLine
 10
10.69999999853406
 20
0.2499999982734593
 30
0.0
 11
10.69999999853406
 21
8.149999998273457
 31
0.0
  0
SOLID
  5
302
330
2F8
100
AcDbEntity
  8
SOLID
 62
     1
100
AcDbTrace
 10
9.100645714660329
 20
1.586824719979944
 30
0.0
 11
9.203204583077742
 21
1.779709898068545
 31
0.0
 12
9.094321504076491
 22
1.594775342338473
 32
0.0
 13
9.197606642518891
 23
1.789026435684055
 33
0.0
  0
SOLID
  5
303
330
2F8
100
AcDbEntity
  8
SOLID
 62
     1
100
AcDbTrace
 10
8.993633161575985
 20
1.580656234914543
 30
0.0
 11
9.178899857892716
 21
1.80144848583807
 31
0.0
 12
9.085889223298043
 22
1.605376172149845
 32
0.0
 13
9.19014272177376
 23
1.80144848583807
 33
0.0
  0
SOLID
  5
304
330
2F8
100
AcDbEntity
  8
SOLID
 62
     1
100
AcDbTrace
 10
9.025982480684099
 20
1.801448485838069
 30
0.0
 11
9.373139625704462
 21
1.89446896249297
 31
0.0
 12
9.323679760929408
 22
1.801448485838069
 32
0.0
 13
9.323679760929408
 23
1.801448485838069
 33
0.0
  0
SOLID
  5
305
330
2F8
100
AcDbEntity
  8
SOLID
 62
     1
100
AcDbTrace
 10
9.066585180362723
 20
1.82518819906379
 30
0.0
 11
9.397519865140667
 21
1.913861880597488
 31
0.0
 12
9.084870359939877
 22
1.839732887642178
 32
0.0
 13
9.415805044717821
 23
1.928406569175876
 33
0.0
  0
LINE
  5
306
330
2F8
100
AcDbEntity
  8
TRIM
100
AcDbLine
 10
10.66999999853406
 20
2.65249999827346
 30
0.0
 11
8.276999998534062
 21
2.652499998273462
 31
0.0
  0
TEXT
  5
307
330
2F8
100
AcDbEntity
  8
TRIM
100
AcDbText
 10
8.343749998534065
 20
2.482876334230537
 30
0.0
 40
0.1
  1
TASK FORCE TIPS, INC.
 51
10.0
  7
ROMAND
100
AcDbText
  0
TEXT
  5
308
330
2F8
100
AcDbEntity
  8
TRIM
100
AcDbText
 10
8.378853318574009
 20
2.045200536343402
 30
0.0
 40
0.09
  1
219-462-6161
  7
SIMPLEX
100
AcDbText
  0
TEXT
  5
309
330
2F8
100
AcDbEntity
  8
TRIM
 62
     2
100
AcDbText
 10
8.378853318574009
 20
2.195864616217593
 30
0.0
 40
0.09
  1
VALPARAISO, IN 46383
  7
SIMPLEX
100
AcDbText
  0
TEXT
  5
30A
330
2F8
100
AcDbEntity
  8
TRIM
 62
     2
100
AcDbText
 10
8.378853318574009
 20
2.340582801482294
 30
0.0
 40
0.09
  1
2800 E. EVANS AVE.
  7
SIMPLEX
100
AcDbText
  0
LINE
  5
30B
330
2F8
100
AcDbEntity
  8
TRIM
100
AcDbLine
 10
10.66999999853406
 20
2.68249999827346
 30
0.0
 11
8.246999998534068
 21
2.682499998273462
 31
0.0
  0
LINE
  5
30C
330
2F8
100
AcDbEntity
  8
TRIM
100
AcDbLine
 10
8.276999998534062
 20
1.474315403424986
 30
0.0
 11
8.276999998534062
 21
2.652499998273462
 31
0.0
  0
LINE
  5
30D
330
2F8
100
AcDbEntity
  8
TRIM
100
AcDbLine
 10
8.246999998534063
 20
0.9184716413094635
 30
0.0
 11
8.246999998534068
 21
2.682499998273462
 31
0.0
  0
SOLID
  5
30E
330
2F8
100
AcDbEntity
  8
SOLID
 62
     1
100
AcDbTrace
 10
8.293289409296239
 20
1.779709898068545
 30
0.0
 11
8.557257975069028
 21
1.779709898068545
 31
0.0
 12
8.364055538205606
 22
1.789026435684055
 32
0.0
 13
8.577237354460679
 23
1.789026435684055
 33
0.0
  0
SOLID
  5
30F
330
2F8
100
AcDbEntity
  8
SOLID
 62
     1
100
AcDbTrace
 10
8.293289409296239
 20
1.779709898068545
 30
0.0
 11
8.848232940785157
 21
1.928406569175876
 31
0.0
 12
8.364055538205606
 22
1.789026435684055
 32
0.0
 13
8.829947761208007
 23
1.913861880597488
 33
0.0
  0
SOLID
  5
310
330
2F8
100
AcDbEntity
  8
SOLID
 62
     1
100
AcDbTrace
 10
8.418609830666147
 20
1.580656234914543
 30
0.0
 11
8.603876526982878
 21
1.801448485838069
 31
0.0
 12
8.510865892388205
 22
1.605376172149845
 32
0.0
 13
8.615119390863922
 23
1.801448485838069
 33
0.0
  0
SOLID
  5
311
330
2F8
100
AcDbEntity
  8
SOLID
 62
     1
100
AcDbTrace
 10
8.357639476921409
 20
1.541813835752859
 30
0.0
 11
8.557257975069028
 21
1.779709898068545
 31
0.0
 12
8.383769628526295
 22
1.558460578250724
 32
0.0
 13
8.577237354460679
 23
1.789026435684055
 33
0.0
  0
SOLID
  5
312
330
2F8
100
AcDbEntity
  8
SOLID
 62
     1
100
AcDbTrace
 10
8.519298173166653
 20
1.594775342338473
 30
0.0
 11
8.622583311609052
 21
1.789026435684055
 31
0.0
 12
8.525622383750489
 22
1.586824719979944
 32
0.0
 13
8.628181252167902
 23
1.779709898068545
 33
0.0
  0
SOLID
  5
313
330
2F8
100
AcDbEntity
  8
SOLID
 62
     1
100
AcDbTrace
 10
8.769123822871025
 20
1.696010323780123
 30
0.0
 11
8.639737606638517
 21
1.541813835752859
 31
0.0
 12
8.78420778556849
 22
1.699492730963092
 32
0.0
 13
8.665867758243402
 23
1.558460578250724
 33
0.0
  0
SOLID
  5
314
330
2F8
100
AcDbEntity
  8
SOLID
 62
     1
100
AcDbTrace
 10
8.807720513467595
 20
1.586824719979944
 30
0.0
 11
8.847274694021209
 21
1.661215314162211
 31
0.0
 12
8.801396302883757
 22
1.594775342338473
 32
0.0
 13
8.843127360178913
 23
1.673260046220355
 33
0.0
  0
SOLID
  5
315
330
2F8
100
AcDbEntity
  8
SOLID
 62
     1
100
AcDbTrace
 10
9.152260685370515
 20
1.789026435684055
 30
0.0
 11
8.958792959436136
 21
1.558460578250724
 31
0.0
 12
9.132281305978866
 22
1.779709898068545
 32
0.0
 13
8.932662807831247
 23
1.541813835752859
 33
0.0
  0
SOLID
  5
316
330
2F8
100
AcDbEntity
  8
SOLID
 62
     1
100
AcDbTrace
 10
8.700707960383251
 20
1.580656234914543
 30
0.0
 11
8.804319735831773
 21
1.704135940540384
 31
0.0
 12
8.792964022105309
 22
1.605376172149845
 32
0.0
 13
8.837597581722521
 23
1.689319688964546
 33
0.0
  0
SOLID
  5
317
330
2F8
100
AcDbEntity
  8
SOLID
 62
     1
100
AcDbTrace
 10
8.639737606638517
 20
1.541813835752859
 30
0.0
 11
8.807720513467595
 21
1.586824719979944
 31
0.0
 12
8.665867758243402
 22
1.558460578250724
 32
0.0
 13
8.801396302883757
 23
1.594775342338473
 33
0.0
  0
SOLID
  5
318
330
2F8
100
AcDbEntity
  8
SOLID
 62
     1
100
AcDbTrace
 10
8.357639476921409
 20
1.541813835752859
 30
0.0
 11
8.525622383750489
 21
1.586824719979944
 31
0.0
 12
8.383769628526295
 22
1.558460578250724
 32
0.0
 13
8.519298173166653
 23
1.594775342338473
 33
0.0
  0
SOLID
  5
319
330
2F8
100
AcDbEntity
  8
SOLID
 62
     1
100
AcDbTrace
 10
8.932662807831247
 20
1.541813835752859
 30
0.0
 11
9.100645714660329
 21
1.586824719979944
 31
0.0
 12
8.958792959436136
 22
1.558460578250724
 32
0.0
 13
9.094321504076491
 23
1.594775342338473
 33
0.0
  0
SOLID
  5
31A
330
2F8
100
AcDbEntity
  8
SOLID
 62
     1
100
AcDbTrace
 10
8.458410376751436
 20
1.801448485838069
 30
0.0
 11
8.805567521771804
 21
1.89446896249297
 31
0.0
 12
8.756107656996745
 22
1.801448485838069
 32
0.0
 13
8.756107656996745
 23
1.801448485838069
 33
0.0
  0
SOLID
  5
31B
330
2F8
100
AcDbEntity
  8
SOLID
 62
     1
100
AcDbTrace
 10
8.622583311609052
 20
1.789026435684055
 30
0.0
 11
8.859335484177783
 21
1.789026435684055
 31
0.0
 12
8.628181252167902
 22
1.779709898068545
 32
0.0
 13
8.839356104786135
 23
1.779709898068545
 33
0.0
  0
SOLID
  5
31C
330
2F8
100
AcDbEntity
  8
SOLID
 62
     1
100
AcDbTrace
 10
8.822168427478532
 20
1.759226421888862
 30
0.0
 11
8.707090830046874
 21
1.723629191620975
 31
0.0
 12
8.827542130581782
 22
1.751136592315401
 32
0.0
 13
8.733530452159383
 23
1.72205573349177
 33
0.0
  0
SOLID
  5
31D
330
2F8
100
AcDbEntity
  8
SOLID
 62
     1
100
AcDbTrace
 10
8.707090830046874
 20
1.723629191620975
 30
0.0
 11
8.769123822871025
 21
1.696010323780123
 31
0.0
 12
8.733530452159383
 22
1.72205573349177
 32
0.0
 13
8.78420778556849
 23
1.699492730963092
 33
0.0
  0
SOLID
  5
31E
330
2F8
100
AcDbEntity
  8
SOLID
 62
     1
100
AcDbTrace
 10
8.742196428717766
 20
1.801448485838069
 30
0.0
 11
9.089353573738133
 21
1.89446896249297
 31
0.0
 12
9.039893708963075
 22
1.801448485838069
 32
0.0
 13
9.039893708963075
 23
1.801448485838069
 33
0.0
  0
SOLID
  5
31F
330
2F8
100
AcDbEntity
  8
SOLID
 62
     1
100
AcDbTrace
 10
8.960751962356024
 20
1.789026435684055
 30
0.0
 11
9.152260685370515
 21
1.789026435684055
 31
0.0
 12
8.966349902914869
 22
1.779709898068545
 32
0.0
 13
9.132281305978866
 23
1.779709898068545
 33
0.0
  0
SOLID
  5
320
330
2F8
100
AcDbEntity
  8
SOLID
 62
     1
100
AcDbTrace
 10
8.801084307973546
 20
1.839732887642178
 30
0.0
 11
9.13201899275149
 21
1.928406569175876
 31
0.0
 12
8.782799128396392
 22
1.825188199063791
 32
0.0
 13
9.113733813174338
 23
1.913861880597488
 33
0.0
  0
SOLID
  5
321
330
2F8
100
AcDbEntity
  8
SOLID
 62
     1
100
AcDbTrace
 10
8.782799128396392
 20
1.825188199063791
 30
0.0
 11
8.829947761208007
 21
1.913861880597488
 31
0.0
 12
8.801084307973546
 22
1.839732887642178
 32
0.0
 13
8.848232940785157
 23
1.928406569175876
 33
0.0
  0
SOLID
  5
322
330
2F8
100
AcDbEntity
  8
SOLID
 62
     1
100
AcDbTrace
 10
8.843127360178913
 20
1.673260046220355
 30
0.0
 11
8.888464998265757
 21
1.653074429219956
 31
0.0
 12
8.847274694021209
 22
1.661215314162211
 32
0.0
 13
8.892612332108052
 23
1.641029697161811
 33
0.0
  0
SOLID
  5
323
330
2F8
100
AcDbEntity
  8
SOLID
 62
     1
100
AcDbTrace
 10
8.768783281642729
 20
1.719957789319499
 30
0.0
 11
8.937749358113206
 21
1.772224472547336
 31
0.0
 12
8.882935219809365
 22
1.669134071964148
 32
0.0
 13
8.882935219809365
 23
1.669134071964148
 33
0.0
  0
SOLID
  5
324
330
2F8
100
AcDbEntity
  8
SOLID
 62
     1
100
AcDbTrace
 10
8.834707068052781
 20
1.740350152884121
 30
0.0
 11
8.885974656699984
 21
1.801448485838069
 31
0.0
 12
8.870641230585929
 22
1.75146575389357
 32
0.0
 13
8.897217520581026
 23
1.801448485838069
 33
0.0
  0
SOLID
  5
325
330
2F8
100
AcDbEntity
  8
SOLID
 62
     1
100
AcDbTrace
 10
8.839356104786135
 20
1.779709898068545
 30
0.0
 11
8.822168427478532
 21
1.759226421888862
 31
0.0
 12
8.859335484177783
 22
1.789026435684055
 32
0.0
 13
8.827542130581782
 23
1.751136592315401
 33
0.0
  0
SOLID
  5
326
330
2F8
100
AcDbEntity
  8
SOLID
 62
     1
100
AcDbTrace
 10
8.888464998265757
 20
1.653074429219956
 30
0.0
 11
8.960751962356024
 21
1.789026435684055
 31
0.0
 12
8.892612332108052
 22
1.641029697161811
 32
0.0
 13
8.966349902914869
 23
1.779709898068545
 33
0.0
  0
SOLID
  5
327
330
2F8
100
AcDbEntity
  8
SOLID
 62
     1
100
AcDbTrace
 10
8.895754237745254
 20
1.772236807647911
 30
0.0
 11
8.950031214960349
 21
1.789026435684055
 31
0.0
 12
8.904681441326157
 22
1.789026435684055
 32
0.0
 13
8.904681441326157
 23
1.789026435684055
 33
0.0
  0
SOLID
  5
328
330
2F8
100
AcDbEntity
  8
SOLID
 62
     1
100
AcDbTrace
 10
9.066585180362723
 20
1.82518819906379
 30
0.0
 11
9.113733813174338
 21
1.913861880597488
 31
0.0
 12
9.084870359939877
 22
1.839732887642178
 32
0.0
 13
9.13201899275149
 23
1.928406569175876
 33
0.0
  0
LINE
  5
329
330
2F8
100
AcDbEntity
  8
TRIM
100
AcDbLine
 10
10.66999999853406
 20
2.030339596352224
 30
0.0
 11
10.66999999853406
 21
2.65249999827346
 31
0.0
  0
LINE
  5
32A
330
2F8
100
AcDbEntity
  8
TRIM
100
AcDbLine
 10
9.462094455479999
 20
2.000339596352223
 30
0.0
 11
9.462094455480064
 21
0.6043154034249878
 31
0.0
  0
LINE
  5
32B
330
2F8
100
AcDbEntity
  8
TRIM
100
AcDbLine
 10
10.66999999853406
 20
0.6043154034249874
 30
0.0
 11
10.66999999853406
 21
2.000339596352223
 31
0.0
  0
LINE
  5
32C
330
2F8
100
AcDbEntity
  8
TRIM
100
AcDbLine
 10
9.462094455479999
 20
2.000339596352223
 30
0.0
 11
10.66999999853406
 21
2.000339596352223
 31
0.0
  0
LINE
  5
32D
330
2F8
100
AcDbEntity
  8
TRIM
100
AcDbLine
 10
9.432094455479996
 20
2.030339596352224
 30
0.0
 11
10.66999999853406
 21
2.030339596352224
 31
0.0
  0
TEXT
  5
32E
330
2F8
100
AcDbEntity
  8
DIM
100
AcDbText
 10
9.821579664239891
 20
1.865565403424987
 30
0.0
 40
0.09
  1
DATE
 41
0.9
 72
     1
 11
9.964293949954177
 21
1.865565403424987
 31
0.0
100
AcDbText
  0
LINE
  5
32F
330
2F8
100
AcDbEntity
  8
TRIM
100
AcDbLine
 10
10.24446826441905
 20
1.834315403424987
 30
0.0
 11
9.684119635489306
 21
1.834315403424987
 31
0.0
  0
LINE
  5
330
330
2F8
100
AcDbEntity
  8
TRIM
100
AcDbLine
 10
10.66999999853406
 20
1.654315403424988
 30
0.0
 11
9.462094455480011
 21
1.654315403424988
 31
0.0
  0
LINE
  5
331
330
2F8
100
AcDbEntity
  8
TRIM
100
AcDbLine
 10
9.684119635489306
 20
2.000339596352223
 30
0.0
 11
9.684119635489302
 21
0.9343154034249874
 31
0.0
  0
LINE
  5
332
330
2F8
100
AcDbEntity
  8
TRIM
100
AcDbLine
 10
9.432094455479996
 20
2.030339596352224
 30
0.0
 11
9.432094455480022
 21
1.474315403424986
 31
0.0
  0
TEXT
  5
333
330
2F8
100
AcDbEntity
  8
DIM
100
AcDbText
 10
9.477107045484656
 20
1.865565403424987
 30
0.0
 40
0.09
  1
REV
 41
0.8
 72
     1
 11
9.573107045484656
 21
1.865565403424987
 31
0.0
100
AcDbText
  0
LINE
  5
334
330
2F8
100
AcDbEntity
  8
TRIM
100
AcDbLine
 10
9.684119635489306
 20
1.834315403424987
 30
0.0
 11
9.462094455480006
 21
1.834315403424987
 31
0.0
  0
SOLID
  5
335
330
2F8
100
AcDbEntity
  8
SOLID
 62
     1
100
AcDbTrace
 10
9.336741622233386
 20
1.779709898068545
 30
0.0
 11
9.415805044717821
 21
1.928406569175876
 31
0.0
 12
9.331143681674538
 22
1.789026435684055
 32
0.0
 13
9.397519865140667
 23
1.913861880597488
 33
0.0
  0
SOLID
  5
336
330
2F8
100
AcDbEntity
  8
SOLID
 62
     1
100
AcDbTrace
 10
9.203204583077742
 20
1.779709898068545
 30
0.0
 11
9.336741622233386
 21
1.779709898068545
 31
0.0
 12
9.197606642518891
 22
1.789026435684055
 32
0.0
 13
9.331143681674538
 23
1.789026435684055
 33
0.0
  0
LINE
  5
337
330
2F8
100
AcDbEntity
  8
TRIM
100
AcDbLine
 10
10.24446826441905
 20
2.000339596352223
 30
0.0
 11
10.24446826441905
 21
0.934315403424987
 31
0.0
  0
TEXT
  5
338
330
2F8
100
AcDbEntity
  8
DIM
100
AcDbText
 10
10.2605817160691
 20
1.865565403424987
 30
0.0
 40
0.09
  1
INITIALS
 41
0.8
 72
     1
 11
10.46115314464053
 21
1.865565403424987
 31
0.0
100
AcDbText
  0
LINE
  5
339
330
2F8
100
AcDbEntity
  8
TRIM
100
AcDbLine
 10
10.66999999853406
 20
1.834315403424987
 30
0.0
 11
10.24446826441905
 21
1.834315403424987
 31
0.0
  0
LINE
  5
33A
330
2F8
100
AcDbEntity
  8
TRIM
100
AcDbLine
 10
0.2799999985341133
 20
0.5992358197914696
 30
0.0
 11
8.246999998534063
 21
0.5992358197914635
 31
0.0
  0
LINE
  5
33B
330
2F8
100
AcDbEntity
  8
TRIM
100
AcDbLine
 10
0.2799999985340644
 20
0.8884716413094695
 30
0.0
 11
8.246999998534063
 21
0.8884716413094633
 31
0.0
  0
LINE
  5
33C
330
2F8
100
AcDbEntity
  8
TRIM
100
AcDbLine
 10
0.2499999985340651
 20
0.249999998273462
 30
0.0
 11
10.69999999853406
 21
0.2499999982734629
 31
0.0
  0
LINE
  5
33D
330
2F8
100
AcDbEntity
  8
TRIM
100
AcDbLine
 10
0.2799999985340644
 20
0.5692358197914693
 30
0.0
 11
8.246999998534063
 21
0.5692358197914627
 31
0.0
  0
LINE
  5
33E
330
2F8
100
AcDbEntity
  8
TRIM
100
AcDbLine
 10
0.2799999985341133
 20
0.2799999982734693
 30
0.0
 11
8.246999998534063
 21
0.2799999982734627
 31
0.0
  0
LINE
  5
33F
330
2F8
100
AcDbEntity
  8
TRIM
100
AcDbLine
 10
0.2799999985340651
 20
1.237707462827464
 30
0.0
 11
4.373749998534061
 21
1.237707462827462
 31
0.0
  0
LINE
  5
340
330
2F8
100
AcDbEntity
  8
TRIM
100
AcDbLine
 10
0.2799999985341142
 20
1.207707462827463
 30
0.0
 11
3.562499998534065
 21
1.207707462827463
 31
0.0
  0
LINE
  5
341
330
2F8
100
AcDbEntity
  8
TRIM
100
AcDbLine
 10
0.2799999985340644
 20
0.9184716413094642
 30
0.0
 11
3.562499998534113
 21
0.9184716413094642
 31
0.0
  0
TEXT
  5
342
330
2F8
100
AcDbEntity
  8
TRIM
100
AcDbText
 10
0.3575473542991792
 20
0.6700287859488796
 30
0.0
 40
0.14
  1
DESCRIPTION:
 41
0.9
  7
SIMPLEX
100
AcDbText
  0
TEXT
  5
343
330
2F8
100
AcDbEntity
  8
TRIM
100
AcDbText
 10
0.3575473542991792
 20
0.3575287859488796
 30
0.0
 40
0.14
  1
EXTRA DESC:
 41
0.9
  7
SIMPLEX
100
AcDbText
  0
TEXT
  5
344
330
2F8
100
AcDbEntity
  8
TRIM
100
AcDbText
 10
0.3601805216547635
 20
0.9931394110287762
 30
0.0
 40
0.14
  1
PART NUMBER:
 41
0.8
  7
SIMPLEX
100
AcDbText
  0
LINE
  5
345
330
2F8
100
AcDbEntity
  8
TRIM
100
AcDbLine
 10
0.2799999985340644
 20
0.8884716413094695
 30
0.0
 11
0.2799999985341133
 21
0.5992358197914696
 31
0.0
  0
LINE
  5
346
330
2F8
100
AcDbEntity
  8
TRIM
100
AcDbLine
 10
0.2799999985340644
 20
0.5692358197914693
 30
0.0
 11
0.2799999985341133
 21
0.2799999982734693
 31
0.0
  0
LINE
  5
347
330
2F8
100
AcDbEntity
  8
TRIM
100
AcDbLine
 10
0.2799999985340653
 20
1.207707462827465
 30
0.0
 11
0.2799999985340644
 21
0.9184716413094642
 31
0.0
  0
LINE
  5
348
330
2F8
100
AcDbEntity
  8
TRIM
100
AcDbLine
 10
3.592499998534066
 20
1.207707462827463
 30
0.0
 11
4.343749998534065
 21
1.207707462827463
 31
0.0
  0
TEXT
  5
349
330
2F8
100
AcDbEntity
  8
DIM
 62
     1
100
AcDbText
 10
3.789702379486445
 20
1.103749998273461
 30
0.0
 40
0.08
  1
SHEET
 72
     1
 11
3.968749998534065
 21
1.103749998273461
 31
0.0
100
AcDbText
  0
LINE
  5
34A
330
2F8
100
AcDbEntity
  8
TRIM
100
AcDbLine
 10
3.592499998534066
 20
1.207707462827463
 30
0.0
 11
3.592499998534113
 21
0.9184716413094673
 31
0.0
  0
LINE
  5
34B
330
2F8
100
AcDbEntity
  8
TRIM
100
AcDbLine
 10
3.562499998534065
 20
1.207707462827463
 30
0.0
 11
3.562499998534113
 21
0.9184716413094642
 31
0.0
  0
LINE
  5
34C
330
2F8
100
AcDbEntity
  8
TRIM
100
AcDbLine
 10
4.373749998534061
 20
1.237707462827462
 30
0.0
 11
4.373749998534114
 21
0.9184716413094673
 31
0.0
  0
LINE
  5
34D
330
2F8
100
AcDbEntity
  8
TRIM
100
AcDbLine
 10
4.343749998534065
 20
1.207707462827463
 30
0.0
 11
4.343749998534113
 21
0.9184716413094642
 31
0.0
  0
LINE
  5
34E
330
2F8
100
AcDbEntity
  8
TRIM
100
AcDbLine
 10
4.373749998534114
 20
0.9184716413094662
 30
0.0
 11
8.246999998534063
 21
0.918471641309463
 31
0.0
  0
LINE
  5
34F
330
2F8
100
AcDbEntity
  8
TRIM
100
AcDbLine
 10
9.432094455480022
 20
1.474315403424986
 30
0.0
 11
8.276999998534062
 21
1.474315403424986
 31
0.0
  0
TEXT
  5
350
330
2F8
100
AcDbEntity
  8
DIM
100
AcDbText
 10
8.293249998534061
 20
0.5153392262302923
 30
0.0
 40
0.056
  1
DIMENSIONS IN 'INCHES' UNLESS SPECIFIED OTHERWISE
100
AcDbText
  0
LINE
  5
351
330
2F8
100
AcDbEntity
  8
TRIM
100
AcDbLine
 10
9.432094455480003
 20
1.294315403424988
 30
0.0
 11
8.276999998534051
 21
1.294315403424987
 31
0.0
  0
LINE
  5
352
330
2F8
100
AcDbEntity
  8
TRIM
100
AcDbLine
 10
9.432094455480022
 20
1.444315403424987
 30
0.0
 11
8.276999998534066
 21
1.444315403424987
 31
0.0
  0
LINE
  5
353
330
2F8
100
AcDbEntity
  8
TRIM
100
AcDbLine
 10
8.276999998534062
 20
0.324999998273463
 30
0.0
 11
10.66999999853406
 21
0.3249999982734621
 31
0.0
  0
LINE
  5
354
330
2F8
100
AcDbEntity
  8
TRIM
100
AcDbLine
 10
8.276999998534062
 20
0.474999998273463
 30
0.0
 11
10.66999999853406
 21
0.4749999982734625
 31
0.0
  0
TEXT
  5
355
330
2F8
100
AcDbEntity
  8
TRIM
100
AcDbText
 10
8.324563651603105
 20
0.8310145276027236
 30
0.0
 40
0.07
  1
PRINT APPROVED
 41
1.058889550608496
  7
SIMPLEX
 72
     5
 11
9.27403461531539
 21
0.8310145276027236
 31
0.0
100
AcDbText
  0
LINE
  5
356
330
2F8
100
AcDbEntity
  8
TRIM
100
AcDbLine
 10
9.432094455480063
 20
0.6043154034249878
 30
0.0
 11
8.276999998534062
 21
0.6043154034249878
 31
0.0
  0
LINE
  5
357
330
2F8
100
AcDbEntity
  8
TRIM
 62
     2
100
AcDbLine
 10
9.432094455480012
 20
1.114315403424987
 30
0.0
 11
8.276999998534062
 21
1.114315403424987
 31
0.0
  0
LINE
  5
358
330
2F8
100
AcDbEntity
  8
TRIM
100
AcDbLine
 10
9.432094455480015
 20
0.9343154034249874
 30
0.0
 11
8.276999998534062
 21
0.934315403424987
 31
0.0
  0
LINE
  5
359
330
2F8
100
AcDbEntity
  8
TRIM
 62
     2
100
AcDbLine
 10
9.432094455480022
 20
0.7957609724770878
 30
0.0
 11
8.276999998534062
 21
0.7957609724770878
 31
0.0
  0
LINE
  5
35A
330
2F8
100
AcDbEntity
  8
TRIM
100
AcDbLine
 10
9.432094455480033
 20
0.6043154034249874
 30
0.0
 11
8.276999998534062
 21
0.6043154034249874
 31
0.0
  0
LINE
  5
35B
330
2F8
100
AcDbEntity
  8
TRIM
100
AcDbLine
 10
8.246999998534063
 20
0.5992358197914598
 30
0.0
 11
8.246999998534063
 21
0.8884716413094595
 31
0.0
  0
LINE
  5
35C
330
2F8
100
AcDbEntity
  8
TRIM
100
AcDbLine
 10
8.276999998534062
 20
0.6043154034249878
 30
0.0
 11
8.276999998534062
 21
1.114315403424988
 31
0.0
  0
TEXT
  5
35D
330
2F8
100
AcDbEntity
  8
TRIM
100
AcDbText
 10
8.312499998534065
 20
0.3599999982734623
 30
0.0
 40
0.08
  1
FILE:
  7
SIMPLEX
100
AcDbText
  0
LINE
  5
35E
330
2F8
100
AcDbEntity
  8
TRIM
100
AcDbLine
 10
8.276999998534062
 20
0.3249999982734653
 30
0.0
 11
8.349999998534062
 21
0.3249999982734648
 31
0.0
  0
LINE
  5
35F
330
2F8
100
AcDbEntity
  8
TRIM
100
AcDbLine
 10
8.276999998534062
 20
0.3249999982734621
 30
0.0
 11
8.276999998534062
 21
0.474999998273463
 31
0.0
  0
LINE
  5
360
330
2F8
100
AcDbEntity
  8
TRIM
100
AcDbLine
 10
8.246999998534063
 20
0.2799999982734596
 30
0.0
 11
8.246999998534063
 21
0.5692358197914597
 31
0.0
  0
TEXT
  5
361
330
2F8
100
AcDbEntity
  8
TRIM
100
AcDbText
 10
8.324563651603092
 20
1.149568958550623
 30
0.0
 40
0.07
  1
PRINT DRAWN
 41
1.047995828933662
  7
SIMPLEX
 72
     5
 11
9.061654051286435
 21
1.149568958550623
 31
0.0
100
AcDbText
  0
TEXT
  5
362
330
2F8
100
AcDbEntity
  8
TRIM
100
AcDbText
 10
8.324583587926003
 20
1.317921744520258
 30
0.0
 40
0.09
  1
SCALE:
  7
SIMPLEX
100
AcDbText
  0
LINE
  5
363
330
2F8
100
AcDbEntity
  8
TRIM
100
AcDbLine
 10
8.276999998534062
 20
1.114315403424988
 30
0.0
 11
8.276999998534062
 21
1.444315403424987
 31
0.0
  0
LINE
  5
364
330
2F8
100
AcDbEntity
  8
TRIM
100
AcDbLine
 10
10.66999999853406
 20
0.6043154034249874
 30
0.0
 11
9.462094455480064
 21
0.6043154034249878
 31
0.0
  0
LINE
  5
365
330
2F8
100
AcDbEntity
  8
TRIM
100
AcDbLine
 10
10.66999999853406
 20
0.3249999982734621
 30
0.0
 11
10.66999999853406
 21
0.4749999982734625
 31
0.0
  0
LINE
  5
366
330
2F8
100
AcDbEntity
  8
TRIM
100
AcDbLine
 10
10.66999999853406
 20
0.934315403424987
 30
0.0
 11
9.462094455480039
 21
0.9343154034249874
 31
0.0
  0
LINE
  5
367
330
2F8
100
AcDbEntity
  8
TRIM
100
AcDbLine
 10
10.66999999853406
 20
1.114315403424987
 30
0.0
 11
9.462094455480032
 21
1.114315403424987
 31
0.0
  0
LINE
  5
368
330
2F8
100
AcDbEntity
  8
TRIM
100
AcDbLine
 10
10.66999999853406
 20
1.294315403424987
 30
0.0
 11
9.462094455480023
 21
1.294315403424988
 31
0.0
  0
LINE
  5
369
330
2F8
100
AcDbEntity
  8
TRIM
100
AcDbLine
 10
10.66999999853406
 20
1.474315403424986
 30
0.0
 11
9.462094455480016
 21
1.474315403424986
 31
0.0
  0
TEXT
  5
36A
330
2F8
100
AcDbEntity
  8
TRIM
100
AcDbText
 10
9.527645854177304
 20
0.8310145276027236
 30
0.0
 40
0.07
  1
DESIGN ENGINEER
  7
SIMPLEX
100
AcDbText
  0
LINE
  5
36B
330
2F8
100
AcDbEntity
  8
TRIM
 62
     2
100
AcDbLine
 10
10.66418891242604
 20
0.7957609724770875
 30
0.0
 11
9.462094455480064
 21
0.7957609724770878
 31
0.0
  0
LINE
  5
36C
330
2F8
100
AcDbEntity
  8
TRIM
100
AcDbLine
 10
9.432094455480022
 20
1.444315403424987
 30
0.0
 11
9.432094455480063
 21
0.6043154034249878
 31
0.0
  0
LINE
  5
36D
330
2F8
100
AcDbEntity
  8
TRIM
 62
     2
100
AcDbLine
 10
8.986598446570454
 20
0.7957609724770878
 30
0.0
 11
8.986598446570448
 21
0.6043154034249878
 31
0.0
  0
LINE
  5
36E
330
2F8
100
AcDbEntity
  8
TRIM
 62
     2
100
AcDbLine
 10
8.986598446570454
 20
1.114315403424987
 30
0.0
 11
8.986598446570454
 21
0.9343154034249874
 31
0.0
  0
LINE
  5
36F
330
2F8
100
AcDbEntity
  8
TRIM
100
AcDbLine
 10
3.592499998534113
 20
0.9184716413094673
 30
0.0
 11
4.343749998534113
 21
0.9184716413094662
 31
0.0
  0
ATTDEF
  5
370
330
2F8
100
AcDbEntity
  8
DIM
100
AcDbText
 10
1.748750001101063
 20
0.993054984054982
 30
0.0
 40
0.13
  1

  7
SIMPLEX
100
AcDbAttributeDefinition
  3
PART_#
  2
PART_#
 70
     0
  0
ATTDEF
  5
371
330
2F8
100
AcDbEntity
  8
DIM
100
AcDbText
 10
1.754683743625885
 20
0.6688693887053426
 30
0.0
 40
0.13
  1

  7
SIMPLEX
100
AcDbAttributeDefinition
  3
PART_DESCRIPTION
  2
PART_DESCRIPTION
 70
     0
  0
ATTDEF
  5
372
330
2F8
100
AcDbEntity
  8
DIM
100
AcDbText
 10
1.75
 20
0.3555424452224223
 30
0.0
 40
0.13
  1

  7
SIMPLEX
100
AcDbAttributeDefinition
  3
EXTRA_DESCRIPTION
  2
EXTRA_DESCRIPTION
 70
     0
  0
ATTDEF
  5
373
330
2F8
100
AcDbEntity
  8
DIM
100
AcDbText
 10
3.96875
 20
1.0
 30
0.0
 40
0.1
  1

  7
SIMPLEX
 72
     4
 11
3.96875
 21
1.0
 31
0.0
100
AcDbAttributeDefinition
  3
SHEET
  2
SHEET
 70
     0
  0
ENDBLK
  5
375
330
2F8
100
AcDbEntity
  8
0
100
AcDbBlockEnd
  0
BLOCK
  5
378
330
376
100
AcDbEntity
  8
0
100
AcDbBlockBegin
  2
A$C56887695
 70
     2
 10
0.0
 20
0.0
 30
0.0
  3
A$C56887695
  1

  0
ATTDEF
  5
377
330
376
100
AcDbEntity
  8
DIM
100
AcDbText
 10
0.0000000016510064
 20
0.0076190448079387
 30
0.0
 40
0.08
  1

  7
SIMPLEX
100
AcDbAttributeDefinition
  3
FILE_NAME
  2
FILE_NAME
 70
     0
  0
ENDBLK
  5
379
330
376
100
AcDbEntity
  8
0
100
AcDbBlockEnd
  0
BLOCK
  5
37C
330
37A
100
AcDbEntity
  8
0
100
AcDbBlockBegin
  2
A$C406F4052
 70
     2
 10
0.0
 20
0.0
 30
0.0
  3
A$C406F4052
  1

  0
ATTDEF
  5
37B
330
37A
100
AcDbEntity
  8
DIM
100
AcDbText
 10
0.0000000097657775
 20
0.0000000059644165
 30
0.0
 40
0.08
  1

  7
SIMPLEX
100
AcDbAttributeDefinition
  3
DRAWING_SCALE
  2
SCALE
 70
     0
  0
ENDBLK
  5
37D
330
37A
100
AcDbEntity
  8
0
100
AcDbBlockEnd
  0
BLOCK
  5
380
330
37E
100
AcDbEntity
  8
0
100
AcDbBlockBegin
  2
A$C217D2A32
 70
     2
 10
0.0
 20
0.0
 30
0.0
  3
A$C217D2A32
  1

  0
ATTDEF
  5
37F
330
37E
100
AcDbEntity
  8
DIM
100
AcDbText
 10
0.1409523881144832
 20
0.0400000152139821
 30
0.0
 40
0.08
  1

  7
SIMPLEX
 72
     4
 11
0.1409523881144832
 21
0.0400000152139821
 31
0.0
100
AcDbAttributeDefinition
  3
DATE_DRAWN
  2
DATE
 70
     0
  0
ENDBLK
  5
381
330
37E
100
AcDbEntity
  8
0
100
AcDbBlockEnd
  0
BLOCK
  5
384
330
382
100
AcDbEntity
  8
0
100
AcDbBlockBegin
  2
A$C26835032
 70
     2
 10
0.0
 20
0.0
 30
0.0
  3
A$C26835032
  1

  0
ATTDEF
  5
383
330
382
100
AcDbEntity
  8
DIM
100
AcDbText
 10
0.1504761941594115
 20
0.0400000152139821
 30
0.0
 40
0.08
  1

  7
SIMPLEX
 72
     4
 11
0.1504761941594115
 21
0.0400000152139821
 31
0.0
100
AcDbAttributeDefinition
  3
DRAWN_BY?
  2
WHO?
 70
     0
  0
ENDBLK
  5
385
330
382
100
AcDbEntity
  8
0
100
AcDbBlockEnd
  0
BLOCK
  5
388
330
386
100
AcDbEntity
  8
0
100
AcDbBlockBegin
  2
A$C11730435
 70
     2
 10
0.0
 20
0.0
 30
0.0
  3
A$C11730435
  1

  0
ATTDEF
  5
387
330
386
100
AcDbEntity
  8
DIM
100
AcDbText
 10
0.1542857245995872
 20
0.0399999866443972
 30
0.0
 40
0.08
  1

  7
SCRIPT
 72
     4
 11
0.1542857245995872
 21
0.0399999866443972
 31
0.0
100
AcDbAttributeDefinition
  3
DATE_APPROVED
  2
DATE
 70
     0
  0
ENDBLK
  5
389
330
386
100
AcDbEntity
  8
0
100
AcDbBlockEnd
  0
BLOCK
  5
38C
330
38A
100
AcDbEntity
  8
0
100
AcDbBlockBegin
  2
A$C740A492C
 70
     2
 10
0.0
 20
0.0
 30
0.0
  3
A$C740A492C
  1

  0
ATTDEF
  5
38B
330
38A
100
AcDbEntity
  8
DIM
100
AcDbText
 10
0.1676190447818424
 20
0.0399999866443968
 30
0.0
 40
0.08
  1

  7
SCRIPT
 72
     4
 11
0.1676190447818424
 21
0.0399999866443968
 31
0.0
100
AcDbAttributeDefinition
  3
APPROVED_BY?
  2
WHO?
 70
     0
  0
ENDBLK
  5
38D
330
38A
100
AcDbEntity
  8
0
100
AcDbBlockEnd
  0
BLOCK
  5
390
330
38E
100
AcDbEntity
  8
0
100
AcDbBlockBegin
  2
A$C251463E3
 70
     2
 10
0.0
 20
0.0
 30
0.0
  3
A$C251463E3
  1

  0
ATTDEF
  5
38F
330
38E
100
AcDbEntity
  8
DIM
100
AcDbText
 10
-0.0076190422628919
 20
-0.0000000133556032
 30
0.0
 40
0.08
  1

  7
SCRIPT
 11
-0.0076190422628919
 21
0.0399999866443968
 31
0.0
100
AcDbAttributeDefinition
  3
ENGINEER_IN_CHARGE
  2
WHO?
 70
     0
 74
     2
  0
ENDBLK
  5
391
330
38E
100
AcDbEntity
  8
0
100
AcDbBlockEnd
  0
BLOCK
  5
394
330
392
100
AcDbEntity
  8
0
100
AcDbBlockBegin
  2
A$C46507260
 70
     0
 10
0.0
 20
0.0
 30
0.0
  3
A$C46507260
  1

  0
TEXT
  5
393
330
392
100
AcDbEntity
  8
DIM
100
AcDbText
 10
0.0000000011396962
 20
0.0000000091671084
 30
0.0
 40
0.04
  1
F04-0001-01 REV. 00
 72
     2
 11
0.6933333344730297
 21
0.0000000091671084
 31
0.0
100
AcDbText
  0
ENDBLK
  5
395
330
392
100
AcDbEntity
  8
0
100
AcDbBlockEnd
  0
BLOCK
  5
425
330
3A1
100
AcDbEntity
  8
0
100
AcDbBlockBegin
  2
tft_aprlist
 70
     2
 10
0.0
 20
0.0
 30
0.0
  3
tft_aprlist
  1

  0
INSERT
  5
3A2
330
3A1
100
AcDbEntity
  8
DIM
100
AcDbBlockReference
 66
     1
  2
A$C4FB65283
 10
0.9375
 20
-0.9375
 30
0.0
  0
ATTRIB
  5
3A3
330
3A2
100
AcDbEntity
  8
DIM
100
AcDbText
 10
0.937500002566999
 20
-0.8941666572544825
 30
0.0
 40
0.13
  1

  7
SIMPLEX
100
AcDbAttribute
  2
PART_#
 70
     0
  0
SEQEND
  5
3A4
330
3A2
100
AcDbEntity
  8
DIM
  0
LINE
  5
3A5
330
3A1
100
AcDbEntity
  8
TRIM
100
AcDbLine
 10
10.42
 20
3.919999999999998
 30
0.0
 11
0.0299999999999994
 21
3.919999999999998
 31
0.0
  0
LINE
  5
3A6
330
3A1
100
AcDbEntity
  8
TRIM
100
AcDbLine
 10
0.0000000000000004
 20
3.949999999999998
 30
0.0
 11
10.45
 21
3.949999999999998
 31
0.0
  0
LINE
  5
3A7
330
3A1
100
AcDbEntity
  8
TRIM
100
AcDbLine
 10
0.0299999999999994
 20
3.919999999999998
 30
0.0
 11
0.0300000000000001
 21
-2.962292535445996
 31
0.0
  0
LINE
  5
3A8
330
3A1
100
AcDbEntity
  8
TRIM
100
AcDbLine
 10
0.0
 20
3.949999999999998
 30
0.0
 11
0.0
 21
-3.95
 31
0.0
  0
LINE
  5
3A9
330
3A1
100
AcDbEntity
  8
TRIM
100
AcDbLine
 10
10.42
 20
-1.5175
 30
0.0
 11
10.42
 21
3.919999999999996
 31
0.0
  0
LINE
  5
3AA
330
3A1
100
AcDbEntity
  8
TRIM
100
AcDbLine
 10
10.45
 20
-3.950000000000001
 30
0.0
 11
10.45
 21
3.949999999999997
 31
0.0
  0
SOLID
  5
3AB
330
3A1
100
AcDbEntity
  8
SOLID
 62
     1
100
AcDbTrace
 10
8.850645716126262
 20
-2.583175278293517
 30
0.0
 11
8.953204584543676
 21
-2.390290100204915
 31
0.0
 12
8.844321505542426
 22
-2.575224655934988
 32
0.0
 13
8.947606643984824
 23
-2.380973562589404
 33
0.0
  0
SOLID
  5
3AC
330
3A1
100
AcDbEntity
  8
SOLID
 62
     1
100
AcDbTrace
 10
8.743633163041918
 20
-2.589343763358916
 30
0.0
 11
8.928899859358651
 21
-2.368551512435391
 31
0.0
 12
8.835889224763976
 22
-2.564623826123615
 32
0.0
 13
8.940142723239695
 23
-2.368551512435391
 33
0.0
  0
SOLID
  5
3AD
330
3A1
100
AcDbEntity
  8
SOLID
 62
     1
100
AcDbTrace
 10
8.775982482150034
 20
-2.368551512435391
 30
0.0
 11
9.123139627170401
 21
-2.27553103578049
 31
0.0
 12
9.073679762395343
 22
-2.368551512435391
 32
0.0
 13
9.073679762395343
 23
-2.368551512435391
 33
0.0
  0
SOLID
  5
3AE
330
3A1
100
AcDbEntity
  8
SOLID
 62
     1
100
AcDbTrace
 10
8.816585181828658
 20
-2.34481179920967
 30
0.0
 11
9.147519866606604
 21
-2.256138117675971
 31
0.0
 12
8.834870361405812
 22
-2.330267110631281
 32
0.0
 13
9.165805046183756
 23
-2.241593429097584
 33
0.0
  0
LINE
  5
3AF
330
3A1
100
AcDbEntity
  8
TRIM
100
AcDbLine
 10
10.42
 20
-1.5475
 30
0.0
 11
8.026999999999999
 21
-1.547499999999999
 31
0.0
  0
TEXT
  5
3B0
330
3A1
100
AcDbEntity
  8
TRIM
100
AcDbText
 10
8.09375
 20
-1.717123664042923
 30
0.0
 40
0.1
  1
TASK FORCE TIPS, INC.
 51
10.0
  7
ROMAND
100
AcDbText
  0
TEXT
  5
3B1
330
3A1
100
AcDbEntity
  8
TRIM
100
AcDbText
 10
8.128853320039944
 20
-2.15479946193006
 30
0.0
 40
0.09
  1
219-462-6161
  7
SIMPLEX
100
AcDbText
  0
TEXT
  5
3B2
330
3A1
100
AcDbEntity
  8
TRIM
 62
     2
100
AcDbText
 10
8.128853320039944
 20
-2.004135382055867
 30
0.0
 40
0.09
  1
VALPARAISO, IN 46383
  7
SIMPLEX
100
AcDbText
  0
TEXT
  5
3B3
330
3A1
100
AcDbEntity
  8
TRIM
 62
     2
100
AcDbText
 10
8.128853320039944
 20
-1.859417196791166
 30
0.0
 40
0.09
  1
2800 E. EVANS AVE.
  7
SIMPLEX
100
AcDbText
  0
LINE
  5
3B4
330
3A1
100
AcDbEntity
  8
TRIM
100
AcDbLine
 10
10.42
 20
-1.5175
 30
0.0
 11
7.997000000000002
 21
-1.5175
 31
0.0
  0
LINE
  5
3B5
330
3A1
100
AcDbEntity
  8
TRIM
100
AcDbLine
 10
8.026999999999997
 20
-2.695684594848474
 30
0.0
 11
8.026999999999999
 21
-1.547499999999999
 31
0.0
  0
LINE
  5
3B6
330
3A1
100
AcDbEntity
  8
TRIM
100
AcDbLine
 10
7.996999999999998
 20
-3.281528356963998
 30
0.0
 11
7.997000000000002
 21
-1.5175
 31
0.0
  0
SOLID
  5
3B7
330
3A1
100
AcDbEntity
  8
SOLID
 62
     1
100
AcDbTrace
 10
8.043289410762174
 20
-2.390290100204915
 30
0.0
 11
8.307257976534963
 21
-2.390290100204915
 31
0.0
 12
8.114055539671543
 22
-2.380973562589404
 32
0.0
 13
8.327237355926614
 23
-2.380973562589404
 33
0.0
  0
SOLID
  5
3B8
330
3A1
100
AcDbEntity
  8
SOLID
 62
     1
100
AcDbTrace
 10
8.043289410762174
 20
-2.390290100204915
 30
0.0
 11
8.598232942251092
 21
-2.241593429097584
 31
0.0
 12
8.114055539671543
 22
-2.380973562589404
 32
0.0
 13
8.579947762673942
 23
-2.256138117675971
 33
0.0
  0
SOLID
  5
3B9
330
3A1
100
AcDbEntity
  8
SOLID
 62
     1
100
AcDbTrace
 10
8.168609832132082
 20
-2.589343763358916
 30
0.0
 11
8.353876528448813
 21
-2.368551512435391
 31
0.0
 12
8.260865893854138
 22
-2.564623826123615
 32
0.0
 13
8.365119392329857
 23
-2.368551512435391
 33
0.0
  0
SOLID
  5
3BA
330
3A1
100
AcDbEntity
  8
SOLID
 62
     1
100
AcDbTrace
 10
8.107639478387344
 20
-2.628186162520601
 30
0.0
 11
8.307257976534963
 21
-2.390290100204915
 31
0.0
 12
8.133769629992231
 22
-2.611539420022736
 32
0.0
 13
8.327237355926614
 23
-2.380973562589404
 33
0.0
  0
SOLID
  5
3BB
330
3A1
100
AcDbEntity
  8
SOLID
 62
     1
100
AcDbTrace
 10
8.269298174632586
 20
-2.575224655934988
 30
0.0
 11
8.372583313074986
 21
-2.380973562589404
 31
0.0
 12
8.275622385216422
 22
-2.583175278293517
 32
0.0
 13
8.378181253633837
 23
-2.390290100204915
 33
0.0
  0
SOLID
  5
3BC
330
3A1
100
AcDbEntity
  8
SOLID
 62
     1
100
AcDbTrace
 10
8.519123824336961
 20
-2.473989674493337
 30
0.0
 11
8.389737608104452
 21
-2.628186162520601
 31
0.0
 12
8.534207787034423
 22
-2.470507267310368
 32
0.0
 13
8.415867759709337
 23
-2.611539420022736
 33
0.0
  0
SOLID
  5
3BD
330
3A1
100
AcDbEntity
  8
SOLID
 62
     1
100
AcDbTrace
 10
8.55772051493353
 20
-2.583175278293517
 30
0.0
 11
8.597274695487142
 21
-2.508784684111249
 31
0.0
 12
8.551396304349692
 22
-2.575224655934988
 32
0.0
 13
8.59312736164485
 23
-2.496739952053105
 33
0.0
  0
SOLID
  5
3BE
330
3A1
100
AcDbEntity
  8
SOLID
 62
     1
100
AcDbTrace
 10
8.902260686836454
 20
-2.380973562589404
 30
0.0
 11
8.708792960902071
 21
-2.611539420022735
 31
0.0
 12
8.882281307444802
 22
-2.390290100204915
 32
0.0
 13
8.682662809297184
 23
-2.628186162520601
 33
0.0
  0
SOLID
  5
3BF
330
3A1
100
AcDbEntity
  8
SOLID
 62
     1
100
AcDbTrace
 10
8.450707961849186
 20
-2.589343763358916
 30
0.0
 11
8.554319737297706
 21
-2.465864057733076
 31
0.0
 12
8.542964023571245
 22
-2.564623826123615
 32
0.0
 13
8.587597583188456
 23
-2.480680309308914
 33
0.0
  0
SOLID
  5
3C0
330
3A1
100
AcDbEntity
  8
SOLID
 62
     1
100
AcDbTrace
 10
8.389737608104452
 20
-2.628186162520601
 30
0.0
 11
8.55772051493353
 21
-2.583175278293517
 31
0.0
 12
8.415867759709337
 22
-2.611539420022736
 32
0.0
 13
8.551396304349692
 23
-2.575224655934988
 33
0.0
  0
SOLID
  5
3C1
330
3A1
100
AcDbEntity
  8
SOLID
 62
     1
100
AcDbTrace
 10
8.107639478387344
 20
-2.628186162520601
 30
0.0
 11
8.275622385216422
 21
-2.583175278293517
 31
0.0
 12
8.133769629992231
 22
-2.611539420022736
 32
0.0
 13
8.269298174632586
 23
-2.575224655934988
 33
0.0
  0
SOLID
  5
3C2
330
3A1
100
AcDbEntity
  8
SOLID
 62
     1
100
AcDbTrace
 10
8.682662809297184
 20
-2.628186162520601
 30
0.0
 11
8.850645716126262
 21
-2.583175278293517
 31
0.0
 12
8.708792960902071
 22
-2.611539420022735
 32
0.0
 13
8.844321505542426
 23
-2.575224655934988
 33
0.0
  0
SOLID
  5
3C3
330
3A1
100
AcDbEntity
  8
SOLID
 62
     1
100
AcDbTrace
 10
8.20841037821737
 20
-2.368551512435391
 30
0.0
 11
8.555567523237739
 21
-2.27553103578049
 31
0.0
 12
8.50610765846268
 22
-2.368551512435391
 32
0.0
 13
8.50610765846268
 23
-2.368551512435391
 33
0.0
  0
SOLID
  5
3C4
330
3A1
100
AcDbEntity
  8
SOLID
 62
     1
100
AcDbTrace
 10
8.372583313074986
 20
-2.380973562589404
 30
0.0
 11
8.609335485643718
 21
-2.380973562589404
 31
0.0
 12
8.378181253633837
 22
-2.390290100204915
 32
0.0
 13
8.58935610625207
 23
-2.390290100204915
 33
0.0
  0
SOLID
  5
3C5
330
3A1
100
AcDbEntity
  8
SOLID
 62
     1
100
AcDbTrace
 10
8.572168428944467
 20
-2.410773576384598
 30
0.0
 11
8.457090831512811
 21
-2.446370806652485
 31
0.0
 12
8.577542132047717
 22
-2.418863405958059
 32
0.0
 13
8.483530453625318
 23
-2.44794426478169
 33
0.0
  0
SOLID
  5
3C6
330
3A1
100
AcDbEntity
  8
SOLID
 62
     1
100
AcDbTrace
 10
8.457090831512811
 20
-2.446370806652485
 30
0.0
 11
8.519123824336961
 21
-2.473989674493337
 31
0.0
 12
8.483530453625318
 22
-2.44794426478169
 32
0.0
 13
8.534207787034423
 23
-2.470507267310368
 33
0.0
  0
SOLID
  5
3C7
330
3A1
100
AcDbEntity
  8
SOLID
 62
     1
100
AcDbTrace
 10
8.492196430183701
 20
-2.368551512435391
 30
0.0
 11
8.839353575204068
 21
-2.27553103578049
 31
0.0
 12
8.789893710429009
 22
-2.368551512435391
 32
0.0
 13
8.789893710429009
 23
-2.368551512435391
 33
0.0
  0
SOLID
  5
3C8
330
3A1
100
AcDbEntity
  8
SOLID
 62
     1
100
AcDbTrace
 10
8.710751963821957
 20
-2.380973562589404
 30
0.0
 11
8.902260686836454
 21
-2.380973562589404
 31
0.0
 12
8.716349904380804
 22
-2.390290100204915
 32
0.0
 13
8.882281307444802
 23
-2.390290100204915
 33
0.0
  0
SOLID
  5
3C9
330
3A1
100
AcDbEntity
  8
SOLID
 62
     1
100
AcDbTrace
 10
8.551084309439481
 20
-2.330267110631281
 30
0.0
 11
8.882018994217425
 21
-2.241593429097584
 31
0.0
 12
8.532799129862327
 22
-2.344811799209669
 32
0.0
 13
8.863733814640273
 23
-2.256138117675971
 33
0.0
  0
SOLID
  5
3CA
330
3A1
100
AcDbEntity
  8
SOLID
 62
     1
100
AcDbTrace
 10
8.532799129862327
 20
-2.344811799209669
 30
0.0
 11
8.579947762673942
 21
-2.256138117675971
 31
0.0
 12
8.551084309439481
 22
-2.330267110631281
 32
0.0
 13
8.598232942251092
 23
-2.241593429097584
 33
0.0
  0
SOLID
  5
3CB
330
3A1
100
AcDbEntity
  8
SOLID
 62
     1
100
AcDbTrace
 10
8.59312736164485
 20
-2.496739952053105
 30
0.0
 11
8.638464999731692
 21
-2.516925569053504
 31
0.0
 12
8.597274695487142
 22
-2.508784684111249
 32
0.0
 13
8.642612333573987
 23
-2.528970301111649
 33
0.0
  0
SOLID
  5
3CC
330
3A1
100
AcDbEntity
  8
SOLID
 62
     1
100
AcDbTrace
 10
8.518783283108662
 20
-2.45004220895396
 30
0.0
 11
8.687749359579141
 21
-2.397775525726124
 31
0.0
 12
8.6329352212753
 22
-2.500865926309312
 32
0.0
 13
8.6329352212753
 23
-2.500865926309312
 33
0.0
  0
SOLID
  5
3CD
330
3A1
100
AcDbEntity
  8
SOLID
 62
     1
100
AcDbTrace
 10
8.584707069518715
 20
-2.429649845389338
 30
0.0
 11
8.635974658165919
 21
-2.368551512435391
 31
0.0
 12
8.620641232051863
 22
-2.41853424437989
 32
0.0
 13
8.647217522046963
 23
-2.368551512435391
 33
0.0
  0
SOLID
  5
3CE
330
3A1
100
AcDbEntity
  8
SOLID
 62
     1
100
AcDbTrace
 10
8.58935610625207
 20
-2.390290100204915
 30
0.0
 11
8.572168428944467
 21
-2.410773576384598
 31
0.0
 12
8.609335485643718
 22
-2.380973562589404
 32
0.0
 13
8.577542132047717
 23
-2.418863405958059
 33
0.0
  0
SOLID
  5
3CF
330
3A1
100
AcDbEntity
  8
SOLID
 62
     1
100
AcDbTrace
 10
8.638464999731692
 20
-2.516925569053504
 30
0.0
 11
8.710751963821957
 21
-2.380973562589404
 31
0.0
 12
8.642612333573987
 22
-2.528970301111649
 32
0.0
 13
8.716349904380804
 23
-2.390290100204915
 33
0.0
  0
SOLID
  5
3D0
330
3A1
100
AcDbEntity
  8
SOLID
 62
     1
100
AcDbTrace
 10
8.645754239211187
 20
-2.397763190625548
 30
0.0
 11
8.700031216426285
 21
-2.380973562589404
 31
0.0
 12
8.654681442792094
 22
-2.380973562589404
 32
0.0
 13
8.654681442792094
 23
-2.380973562589404
 33
0.0
  0
SOLID
  5
3D1
330
3A1
100
AcDbEntity
  8
SOLID
 62
     1
100
AcDbTrace
 10
8.816585181828658
 20
-2.34481179920967
 30
0.0
 11
8.863733814640273
 21
-2.256138117675971
 31
0.0
 12
8.834870361405812
 22
-2.330267110631281
 32
0.0
 13
8.882018994217425
 23
-2.241593429097584
 33
0.0
  0
LINE
  5
3D2
330
3A1
100
AcDbEntity
  8
TRIM
100
AcDbLine
 10
10.42
 20
-2.169660401921236
 30
0.0
 11
10.42
 21
-1.5475
 31
0.0
  0
LINE
  5
3D3
330
3A1
100
AcDbEntity
  8
TRIM
100
AcDbLine
 10
9.212094456945932
 20
-2.199660401921236
 30
0.0
 11
9.212094456945999
 21
-3.595684594848473
 31
0.0
  0
LINE
  5
3D4
330
3A1
100
AcDbEntity
  8
TRIM
100
AcDbLine
 10
10.42
 20
-3.595684594848473
 30
0.0
 11
10.42
 21
-2.199660401921236
 31
0.0
  0
LINE
  5
3D5
330
3A1
100
AcDbEntity
  8
TRIM
100
AcDbLine
 10
9.212094456945932
 20
-2.199660401921236
 30
0.0
 11
10.42
 21
-2.199660401921236
 31
0.0
  0
LINE
  5
3D6
330
3A1
100
AcDbEntity
  8
TRIM
100
AcDbLine
 10
9.182094456945931
 20
-2.169660401921236
 30
0.0
 11
10.42
 21
-2.169660401921236
 31
0.0
  0
TEXT
  5
3D7
330
3A1
100
AcDbEntity
  8
DIM
100
AcDbText
 10
9.571579665705826
 20
-2.334434594848473
 30
0.0
 40
0.09
  1
DATE
 41
0.9
 72
     1
 11
9.714293951420112
 21
-2.334434594848473
 31
0.0
100
AcDbText
  0
LINE
  5
3D8
330
3A1
100
AcDbEntity
  8
TRIM
100
AcDbLine
 10
9.994468265884984
 20
-2.365684594848473
 30
0.0
 11
9.434119636955239
 21
-2.365684594848473
 31
0.0
  0
LINE
  5
3D9
330
3A1
100
AcDbEntity
  8
TRIM
100
AcDbLine
 10
10.42
 20
-2.545684594848474
 30
0.0
 11
9.212094456945944
 21
-2.545684594848474
 31
0.0
  0
LINE
  5
3DA
330
3A1
100
AcDbEntity
  8
TRIM
100
AcDbLine
 10
9.434119636955239
 20
-2.199660401921236
 30
0.0
 11
9.434119636955236
 21
-3.265684594848473
 31
0.0
  0
LINE
  5
3DB
330
3A1
100
AcDbEntity
  8
TRIM
100
AcDbLine
 10
9.182094456945931
 20
-2.169660401921236
 30
0.0
 11
9.182094456945957
 21
-2.695684594848474
 31
0.0
  0
TEXT
  5
3DC
330
3A1
100
AcDbEntity
  8
DIM
100
AcDbText
 10
9.227107046950591
 20
-2.334434594848473
 30
0.0
 40
0.09
  1
REV
 41
0.8
 72
     1
 11
9.323107046950591
 21
-2.334434594848473
 31
0.0
100
AcDbText
  0
LINE
  5
3DD
330
3A1
100
AcDbEntity
  8
TRIM
100
AcDbLine
 10
9.434119636955239
 20
-2.365684594848473
 30
0.0
 11
9.212094456945939
 21
-2.365684594848473
 31
0.0
  0
SOLID
  5
3DE
330
3A1
100
AcDbEntity
  8
SOLID
 62
     1
100
AcDbTrace
 10
9.086741623699323
 20
-2.390290100204915
 30
0.0
 11
9.165805046183756
 21
-2.241593429097584
 31
0.0
 12
9.081143683140474
 22
-2.380973562589404
 32
0.0
 13
9.147519866606604
 23
-2.256138117675971
 33
0.0
  0
SOLID
  5
3DF
330
3A1
100
AcDbEntity
  8
SOLID
 62
     1
100
AcDbTrace
 10
8.953204584543676
 20
-2.390290100204915
 30
0.0
 11
9.086741623699323
 21
-2.390290100204915
 31
0.0
 12
8.947606643984824
 22
-2.380973562589404
 32
0.0
 13
9.081143683140474
 23
-2.380973562589404
 33
0.0
  0
LINE
  5
3E0
330
3A1
100
AcDbEntity
  8
TRIM
100
AcDbLine
 10
9.994468265884982
 20
-2.199660401921236
 30
0.0
 11
9.994468265884982
 21
-3.265684594848474
 31
0.0
  0
TEXT
  5
3E1
330
3A1
100
AcDbEntity
  8
DIM
100
AcDbText
 10
10.01058171753503
 20
-2.334434594848473
 30
0.0
 40
0.09
  1
INITIALS
 41
0.8
 72
     1
 11
10.21115314610646
 21
-2.334434594848473
 31
0.0
100
AcDbText
  0
LINE
  5
3E2
330
3A1
100
AcDbEntity
  8
TRIM
100
AcDbLine
 10
10.42
 20
-2.365684594848473
 30
0.0
 11
9.994468265884984
 21
-2.365684594848473
 31
0.0
  0
LINE
  5
3E3
330
3A1
100
AcDbEntity
  8
TRIM
100
AcDbLine
 10
0.0300000000000482
 20
-3.600764178481991
 30
0.0
 11
7.996999999999998
 21
-3.600764178481997
 31
0.0
  0
LINE
  5
3E4
330
3A1
100
AcDbEntity
  8
TRIM
100
AcDbLine
 10
0.0299999999999994
 20
-3.311528356963991
 30
0.0
 11
7.996999999999998
 21
-3.311528356963997
 31
0.0
  0
LINE
  5
3E5
330
3A1
100
AcDbEntity
  8
TRIM
100
AcDbLine
 10
0.0
 20
-3.95
 30
0.0
 11
10.45
 21
-3.949999999999998
 31
0.0
  0
LINE
  5
3E6
330
3A1
100
AcDbEntity
  8
TRIM
100
AcDbLine
 10
0.0299999999999994
 20
-3.630764178481991
 30
0.0
 11
7.996999999999998
 21
-3.630764178481998
 31
0.0
  0
LINE
  5
3E7
330
3A1
100
AcDbEntity
  8
TRIM
100
AcDbLine
 10
0.0300000000000482
 20
-3.919999999999991
 30
0.0
 11
7.996999999999998
 21
-3.919999999999998
 31
0.0
  0
LINE
  5
3E8
330
3A1
100
AcDbEntity
  8
TRIM
100
AcDbLine
 10
0.0300000000000001
 20
-2.962292535445996
 30
0.0
 11
6.060374999999972
 21
-2.962292535446001
 31
0.0
  0
LINE
  5
3E9
330
3A1
100
AcDbEntity
  8
TRIM
100
AcDbLine
 10
0.0300000000000491
 20
-2.992292535445997
 30
0.0
 11
5.249124999999974
 21
-2.992292535445998
 31
0.0
  0
LINE
  5
3EA
330
3A1
100
AcDbEntity
  8
TRIM
100
AcDbLine
 10
0.0299999999999994
 20
-3.281528356963996
 30
0.0
 11
5.249125000000023
 21
-3.281528356963999
 31
0.0
  0
TEXT
  5
3EB
330
3A1
100
AcDbEntity
  8
TRIM
100
AcDbText
 10
0.1075473557651141
 20
-3.529971212324581
 30
0.0
 40
0.14
  1
DESCRIPTION:
 41
0.9
  7
SIMPLEX
100
AcDbText
  0
TEXT
  5
3EC
330
3A1
100
AcDbEntity
  8
TRIM
100
AcDbText
 10
0.1075473557651141
 20
-3.842471212324581
 30
0.0
 40
0.14
  1
EXTRA DESC:
 41
0.9
  7
SIMPLEX
100
AcDbText
  0
TEXT
  5
3ED
330
3A1
100
AcDbEntity
  8
TRIM
100
AcDbText
 10
0.1101805231206985
 20
-3.206860587244686
 30
0.0
 40
0.14
  1
PART NUMBER:
 41
0.8
  7
SIMPLEX
100
AcDbText
  0
LINE
  5
3EE
330
3A1
100
AcDbEntity
  8
TRIM
100
AcDbLine
 10
0.0299999999999994
 20
-3.311528356963991
 30
0.0
 11
0.0300000000000482
 21
-3.600764178481991
 31
0.0
  0
LINE
  5
3EF
330
3A1
100
AcDbEntity
  8
TRIM
100
AcDbLine
 10
0.0299999999999994
 20
-3.630764178481991
 30
0.0
 11
0.0300000000000482
 21
-3.919999999999991
 31
0.0
  0
LINE
  5
3F0
330
3A1
100
AcDbEntity
  8
TRIM
100
AcDbLine
 10
0.0300000000000003
 20
-2.992292535445995
 30
0.0
 11
0.0299999999999994
 21
-3.281528356963996
 31
0.0
  0
LINE
  5
3F1
330
3A1
100
AcDbEntity
  8
TRIM
100
AcDbLine
 10
5.279124999999976
 20
-2.992292535445998
 30
0.0
 11
6.030374999999975
 21
-2.992292535445998
 31
0.0
  0
TEXT
  5
3F2
330
3A1
100
AcDbEntity
  8
DIM
 62
     1
100
AcDbText
 10
5.476327380952356
 20
-3.096250000000001
 30
0.0
 40
0.08
  1
SHEET
 72
     1
 11
5.655374999999975
 21
-3.096250000000001
 31
0.0
100
AcDbText
  0
LINE
  5
3F3
330
3A1
100
AcDbEntity
  8
TRIM
100
AcDbLine
 10
5.279124999999976
 20
-2.992292535445998
 30
0.0
 11
5.279125000000023
 21
-3.281528356963996
 31
0.0
  0
LINE
  5
3F4
330
3A1
100
AcDbEntity
  8
TRIM
100
AcDbLine
 10
5.249124999999974
 20
-2.992292535445999
 30
0.0
 11
5.249125000000023
 21
-3.281528356963999
 31
0.0
  0
LINE
  5
3F5
330
3A1
100
AcDbEntity
  8
TRIM
100
AcDbLine
 10
6.060374999999972
 20
-2.962292535446001
 30
0.0
 11
6.060375000000023
 21
-3.281528356963996
 31
0.0
  0
LINE
  5
3F6
330
3A1
100
AcDbEntity
  8
TRIM
100
AcDbLine
 10
6.030374999999975
 20
-2.992292535445998
 30
0.0
 11
6.030375000000024
 21
-3.281528356963999
 31
0.0
  0
LINE
  5
3F7
330
3A1
100
AcDbEntity
  8
TRIM
100
AcDbLine
 10
6.060375000000023
 20
-3.281528356963998
 30
0.0
 11
7.996999999999998
 21
-3.281528356963998
 31
0.0
  0
LINE
  5
3F8
330
3A1
100
AcDbEntity
  8
TRIM
100
AcDbLine
 10
9.182094456945961
 20
-2.695684594848474
 30
0.0
 11
8.026999999999997
 21
-2.695684594848474
 31
0.0
  0
TEXT
  5
3F9
330
3A1
100
AcDbEntity
  8
DIM
100
AcDbText
 10
8.043249999999996
 20
-3.684660772043168
 30
0.0
 40
0.056
  1
DIMENSIONS IN 'INCHES' UNLESS SPECIFIED OTHERWISE
100
AcDbText
  0
LINE
  5
3FA
330
3A1
100
AcDbEntity
  8
TRIM
100
AcDbLine
 10
9.182094456945938
 20
-2.905684594848473
 30
0.0
 11
8.026999999999986
 21
-2.905684594848473
 31
0.0
  0
LINE
  5
3FB
330
3A1
100
AcDbEntity
  8
TRIM
100
AcDbLine
 10
9.182094456945961
 20
-2.725684594848474
 30
0.0
 11
8.027000000000001
 21
-2.725684594848474
 31
0.0
  0
LINE
  5
3FC
330
3A1
100
AcDbEntity
  8
TRIM
100
AcDbLine
 10
8.026999999999999
 20
-3.874999999999998
 30
0.0
 11
10.42
 21
-3.875
 31
0.0
  0
LINE
  5
3FD
330
3A1
100
AcDbEntity
  8
TRIM
100
AcDbLine
 10
8.026999999999999
 20
-3.724999999999998
 30
0.0
 11
10.42
 21
-3.724999999999998
 31
0.0
  0
TEXT
  5
3FE
330
3A1
100
AcDbEntity
  8
TRIM
100
AcDbText
 10
8.07456365306904
 20
-3.368985470670738
 30
0.0
 40
0.07
  1
PRINT APPROVED
 41
1.058889550608496
  7
SIMPLEX
 72
     5
 11
9.024034616781325
 21
-3.368985470670738
 31
0.0
100
AcDbText
  0
LINE
  5
3FF
330
3A1
100
AcDbEntity
  8
TRIM
100
AcDbLine
 10
9.182094456945996
 20
-3.595684594848473
 30
0.0
 11
8.026999999999999
 21
-3.595684594848473
 31
0.0
  0
LINE
  5
400
330
3A1
100
AcDbEntity
  8
TRIM
 62
     2
100
AcDbLine
 10
9.182094456945947
 20
-3.085684594848473
 30
0.0
 11
8.026999999999999
 21
-3.085684594848473
 31
0.0
  0
LINE
  5
401
330
3A1
100
AcDbEntity
  8
TRIM
100
AcDbLine
 10
9.182094456945954
 20
-3.265684594848473
 30
0.0
 11
8.026999999999999
 21
-3.265684594848474
 31
0.0
  0
LINE
  5
402
330
3A1
100
AcDbEntity
  8
TRIM
 62
     2
100
AcDbLine
 10
9.182094456945961
 20
-3.404239025796373
 30
0.0
 11
8.026999999999999
 21
-3.404239025796373
 31
0.0
  0
LINE
  5
403
330
3A1
100
AcDbEntity
  8
TRIM
100
AcDbLine
 10
9.182094456945966
 20
-3.595684594848473
 30
0.0
 11
8.026999999999999
 21
-3.595684594848473
 31
0.0
  0
LINE
  5
404
330
3A1
100
AcDbEntity
  8
TRIM
100
AcDbLine
 10
7.996999999999998
 20
-3.600764178482001
 30
0.0
 11
7.996999999999998
 21
-3.311528356964001
 31
0.0
  0
LINE
  5
405
330
3A1
100
AcDbEntity
  8
TRIM
100
AcDbLine
 10
8.026999999999999
 20
-3.595684594848473
 30
0.0
 11
8.026999999999999
 21
-3.085684594848473
 31
0.0
  0
TEXT
  5
406
330
3A1
100
AcDbEntity
  8
TRIM
100
AcDbText
 10
8.0625
 20
-3.839999999999998
 30
0.0
 40
0.08
  1
FILE:
  7
SIMPLEX
100
AcDbText
  0
LINE
  5
407
330
3A1
100
AcDbEntity
  8
TRIM
100
AcDbLine
 10
8.026999999999999
 20
-3.874999999999996
 30
0.0
 11
8.099999999999999
 21
-3.874999999999996
 31
0.0
  0
LINE
  5
408
330
3A1
100
AcDbEntity
  8
TRIM
100
AcDbLine
 10
8.026999999999999
 20
-3.875
 30
0.0
 11
8.026999999999999
 21
-3.724999999999998
 31
0.0
  0
LINE
  5
409
330
3A1
100
AcDbEntity
  8
TRIM
100
AcDbLine
 10
7.996999999999998
 20
-3.920000000000001
 30
0.0
 11
7.996999999999998
 21
-3.630764178482002
 31
0.0
  0
TEXT
  5
40A
330
3A1
100
AcDbEntity
  8
TRIM
100
AcDbText
 10
8.074563653069027
 20
-3.050431039722838
 30
0.0
 40
0.07
  1
PRINT DRAWN
 41
1.047995828933662
  7
SIMPLEX
 72
     5
 11
8.81165405275237
 21
-3.050431039722838
 31
0.0
100
AcDbText
  0
TEXT
  5
40B
330
3A1
100
AcDbEntity
  8
TRIM
100
AcDbText
 10
8.074583589391936
 20
-2.867078253753203
 30
0.0
 40
0.09
  1
SCALE:
  7
SIMPLEX
100
AcDbText
  0
LINE
  5
40C
330
3A1
100
AcDbEntity
  8
TRIM
100
AcDbLine
 10
8.026999999999999
 20
-3.085684594848473
 30
0.0
 11
8.026999999999999
 21
-2.725684594848474
 31
0.0
  0
LINE
  5
40D
330
3A1
100
AcDbEntity
  8
TRIM
100
AcDbLine
 10
10.42
 20
-3.595684594848473
 30
0.0
 11
9.212094456945999
 21
-3.595684594848473
 31
0.0
  0
LINE
  5
40E
330
3A1
100
AcDbEntity
  8
TRIM
100
AcDbLine
 10
10.42
 20
-3.875
 30
0.0
 11
10.42
 21
-3.724999999999998
 31
0.0
  0
LINE
  5
40F
330
3A1
100
AcDbEntity
  8
TRIM
100
AcDbLine
 10
10.42
 20
-3.265684594848474
 30
0.0
 11
9.212094456945974
 21
-3.265684594848473
 31
0.0
  0
LINE
  5
410
330
3A1
100
AcDbEntity
  8
TRIM
100
AcDbLine
 10
10.42
 20
-3.085684594848473
 30
0.0
 11
9.212094456945965
 21
-3.085684594848473
 31
0.0
  0
LINE
  5
411
330
3A1
100
AcDbEntity
  8
TRIM
100
AcDbLine
 10
10.42
 20
-2.905684594848473
 30
0.0
 11
9.21209445694596
 21
-2.905684594848473
 31
0.0
  0
LINE
  5
412
330
3A1
100
AcDbEntity
  8
TRIM
100
AcDbLine
 10
10.42
 20
-2.725684594848474
 30
0.0
 11
9.212094456945953
 21
-2.725684594848474
 31
0.0
  0
TEXT
  5
413
330
3A1
100
AcDbEntity
  8
TRIM
100
AcDbText
 10
9.277645855643239
 20
-3.368985470670738
 30
0.0
 40
0.07
  1
DESIGN ENGINEER
  7
SIMPLEX
100
AcDbText
  0
LINE
  5
414
330
3A1
100
AcDbEntity
  8
TRIM
 62
     2
100
AcDbLine
 10
10.41418891389197
 20
-3.404239025796373
 30
0.0
 11
9.212094456945999
 21
-3.404239025796373
 31
0.0
  0
LINE
  5
415
330
3A1
100
AcDbEntity
  8
TRIM
100
AcDbLine
 10
9.182094456945961
 20
-2.725684594848474
 30
0.0
 11
9.182094456945996
 21
-3.595684594848473
 31
0.0
  0
LINE
  5
416
330
3A1
100
AcDbEntity
  8
TRIM
 62
     2
100
AcDbLine
 10
8.736598448036387
 20
-3.404239025796373
 30
0.0
 11
8.736598448036383
 21
-3.595684594848473
 31
0.0
  0
LINE
  5
417
330
3A1
100
AcDbEntity
  8
TRIM
 62
     2
100
AcDbLine
 10
8.736598448036387
 20
-3.085684594848473
 30
0.0
 11
8.736598448036387
 21
-3.265684594848473
 31
0.0
  0
LINE
  5
418
330
3A1
100
AcDbEntity
  8
TRIM
100
AcDbLine
 10
5.279125000000023
 20
-3.281528356963996
 30
0.0
 11
6.030375000000022
 21
-3.281528356963998
 31
0.0
  0
ATTDEF
  5
419
330
3A1
100
AcDbEntity
  8
DIM
100
AcDbText
 10
1.498750002566997
 20
-3.206945014218479
 30
0.0
 40
0.13
  1

  7
SIMPLEX
100
AcDbAttributeDefinition
  3
PART_#
  2
PART_#
 70
     0
  0
ATTDEF
  5
41A
330
3A1
100
AcDbEntity
  8
DIM
100
AcDbText
 10
1.50468374509182
 20
-3.531130609568118
 30
0.0
 40
0.13
  1

  7
SIMPLEX
100
AcDbAttributeDefinition
  3
PART_DESCRIPTION
  2
PART_DESCRIPTION
 70
     0
  0
ATTDEF
  5
41B
330
3A1
100
AcDbEntity
  8
DIM
100
AcDbText
 10
1.500000001465934
 20
-3.844457553051038
 30
0.0
 40
0.13
  1

  7
SIMPLEX
100
AcDbAttributeDefinition
  3
EXTRA_DESCRIPTION
  2
EXTRA_DESCRIPTION
 70
     0
  0
ATTDEF
  5
41C
330
3A1
100
AcDbEntity
  8
DIM
100
AcDbText
 10
5.65537500146591
 20
-3.199999998273463
 30
0.0
 40
0.1
  1

  7
SIMPLEX
 72
     4
 11
5.65537500146591
 21
-3.199999998273463
 31
0.0
100
AcDbAttributeDefinition
  3
SHEET
  2
SHEET
 70
     0
  0
ATTDEF
  5
41D
330
3A1
100
AcDbEntity
  8
DIM
100
AcDbText
 10
8.370750001651003
 20
-3.841069024870303
 30
0.0
 40
0.08
  1

  7
SIMPLEX
100
AcDbAttributeDefinition
  3
FILE_NAME
  2
FILE_NAME
 70
     0
  0
ATTDEF
  5
41E
330
3A1
100
AcDbEntity
  8
DIM
100
AcDbText
 10
8.593750001465933
 20
-2.867243860095428
 30
0.0
 40
0.08
  1

  7
SIMPLEX
100
AcDbAttributeDefinition
  3
DRAWING_SCALE
  2
SCALE
 70
     0
  0
ATTDEF
  5
41F
330
3A1
100
AcDbEntity
  8
DIM
100
AcDbText
 10
8.381799224018191
 20
-3.175684594848473
 30
0.0
 40
0.08
  1

  7
SIMPLEX
 72
     4
 11
8.381799224018191
 21
-3.175684594848473
 31
0.0
100
AcDbAttributeDefinition
  3
DATE_DRAWN
  2
DATE
 70
     0
  0
ATTDEF
  5
420
330
3A1
100
AcDbEntity
  8
DIM
100
AcDbText
 10
8.959346452491168
 20
-3.175684594848473
 30
0.0
 40
0.08
  1

  7
SIMPLEX
 72
     4
 11
8.959346452491168
 21
-3.175684594848473
 31
0.0
100
AcDbAttributeDefinition
  3
DRAWN_BY?
  2
WHO?
 70
     0
  0
ATTDEF
  5
421
330
3A1
100
AcDbEntity
  8
DIM
100
AcDbText
 10
8.381799224018191
 20
-3.499961810322423
 30
0.0
 40
0.08
  1

  7
SCRIPT
 72
     4
 11
8.381799224018191
 21
-3.499961810322423
 31
0.0
100
AcDbAttributeDefinition
  3
DATE_APPROVED
  2
DATE
 70
     0
  0
ATTDEF
  5
422
330
3A1
100
AcDbEntity
  8
DIM
100
AcDbText
 10
8.959346452491192
 20
-3.499961810322423
 30
0.0
 40
0.08
  1

  7
SCRIPT
 72
     4
 11
8.959346452491192
 21
-3.499961810322423
 31
0.0
100
AcDbAttributeDefinition
  3
APPROVED_BY?
  2
WHO?
 70
     0
  0
ATTDEF
  5
423
330
3A1
100
AcDbEntity
  8
DIM
100
AcDbText
 10
9.277645855643239
 20
-3.539961810322423
 30
0.0
 40
0.08
  1

  7
SCRIPT
 11
9.277645855643239
 21
-3.499961810322423
 31
0.0
100
AcDbAttributeDefinition
  3
ENGINEER_IN_CHARGE
  2
WHO?
 70
     0
 74
     2
  0
TEXT
  5
424
330
3A1
100
AcDbEntity
  8
DIM
100
AcDbText
 10
9.716766296807858
 20
-3.931972942467266
 30
0.0
 40
0.04
  1
F04-0052-01 REV. 00
 72
     2
 11
10.41771867776024
 21
-3.931972942467266
 31
0.0
100
AcDbText
  0
ENDBLK
  5
426
330
3A1
100
AcDbEntity
  8
0
100
AcDbBlockEnd
  0
BLOCK
  5
442
330
43E
100
AcDbEntity
  8
0
100
AcDbBlockBegin
  2
rvsn_blk
 70
     2
 10
0.0
 20
0.0
 30
0.0
  3
rvsn_blk
  1

  0
ATTDEF
  5
43F
330
43E
100
AcDbEntity
  8
DIM
100
AcDbText
 10
-0.1443252782292399
 20
0.0442732402878181
 30
1.0
 40
0.07
  1

  7
SIMPLEX
100
AcDbAttributeDefinition
  3
REV_#
  2
X
 70
     0
  0
ATTDEF
  5
440
330
43E
100
AcDbEntity
  8
DIM
100
AcDbText
 10
0.269150253848311
 20
0.0469563354417511
 30
1.0
 40
0.07
  1

  7
SIMPLEX
 72
     1
 11
0.269150253848311
 21
0.0469563354417511
 31
1.0
100
AcDbAttributeDefinition
  3
DATE
  2
DATE
 70
     0
  0
ATTDEF
  5
441
330
43E
100
AcDbEntity
  8
DIM
100
AcDbText
 10
0.7631729674994113
 20
0.0469563354417511
 30
1.0
 40
0.07
  1

  7
SIMPLEX
 72
     1
 11
0.7631729674994113
 21
0.0469563354417511
 31
1.0
100
AcDbAttributeDefinition
  3
INITIALS
  2
XXX
 70
     0
  0
ENDBLK
  5
443
330
43E
100
AcDbEntity
  8
0
100
AcDbBlockEnd
  0
BLOCK
  5
4DB
330
4D4
100
AcDbEntity
  8
0
100
AcDbBlockBegin
  2
safety_sym
 70
     0
 10
0.0
 20
0.0
 30
0.0
  3
safety_sym
  1

  0
LWPOLYLINE
  5
4D5
330
4D4
100
AcDbEntity
  8
DIM
100
AcDbPolyline
 90
        6
 70
     1
 43
0.0
 10
0.7586602540378529
 20
1.0
 10
1.030015505349697
 20
1.0
 42
0.5773502691490997
 10
1.034345632368925
 20
1.007499999999473
 10
0.8986680066572921
 20
1.24250054108542
 42
0.5773502691903687
 10
0.8900077526194422
 20
1.242500541086464
 10
0.7543301270184882
 20
1.007499999999232
 42
0.5773502691306194
  0
CIRCLE
  5
4D6
330
4D4
100
AcDbEntity
  8
DIM
100
AcDbCircle
 10
0.8943378796935284
 20
1.038207085801228
 30
0.0
 40
0.016980927022768
  0
LINE
  5
4D7
330
4D4
100
AcDbEntity
  8
DIM
100
AcDbLine
 10
0.919391706448432
 20
1.15248037338887
 30
0.0
 11
0.9069475215547043
 21
1.074626752773892
 31
0.0
  0
LINE
  5
4D8
330
4D4
100
AcDbEntity
  8
DIM
100
AcDbLine
 10
0.8690346245147825
 20
1.154151758213687
 30
0.0
 11
0.8817256390380642
 21
1.074645183308408
 31
0.0
  0
ARC
  5
4D9
330
4D4
100
AcDbEntity
  8
DIM
100
AcDbCircle
 10
0.8943378796935284
 20
1.076414171602456
 30
0.0
 40
0.012735695267076
100
AcDbArc
 50
187.9842000023703
 51
351.9320638487962
  0
ARC
  5
4DA
330
4D4
100
AcDbEntity
  8
DIM
100
AcDbCircle
 10
0.8943378796935284
 20
1.157073574960604
 30
0.0
 40
0.0254713905341521
100
AcDbArc
 50
349.6111421845342
 51
186.5868839506858
  0
ENDBLK
  5
4DC
330
4D4
100
AcDbEntity
  8
0
100
AcDbBlockEnd
  0
BLOCK
  5
4E5
330
4DE
100
AcDbEntity
  8
0
100
AcDbBlockBegin
  2
rvsn_sym
 70
     2
 10
0.0
 20
0.0
 30
0.0
  3
rvsn_sym
  1

  0
ATTDEF
  5
4DF
330
4DE
100
AcDbEntity
  8
PART
 62
     2
100
AcDbText
 10
-0.0105718175815284
 20
-0.0211293743372223
 30
0.0
 40
0.07
  1

 72
     1
 11
-0.0105718175815284
 21
-0.0211293743372223
 31
0.0
100
AcDbAttributeDefinition
  3
REVISION_#
  2
#
 70
     0
  0
LINE
  5
4E0
330
4DE
100
AcDbEntity
  8
NOTES
100
AcDbLine
 10
-0.0640704948746427
 20
-0.0837435829103912
 30
0.0
 11
-0.0640704948746427
 21
0.0662564170896092
 31
0.0
  0
LINE
  5
4E1
330
4DE
100
AcDbEntity
  8
NOTES
100
AcDbLine
 10
-0.0640704948746427
 20
0.0662564170896092
 30
0.0
 11
0.0172516073044453
 21
0.0662564170896092
 31
0.0
  0
LINE
  5
4E2
330
4DE
100
AcDbEntity
  8
NOTES
100
AcDbLine
 10
-0.0640704948746427
 20
-0.053743582910391
 30
0.0
 11
0.0172516081509615
 21
-0.053743582910391
 31
0.0
  0
ARC
  5
4E3
330
4DE
100
AcDbEntity
  8
NOTES
100
AcDbCircle
 10
0.0172516073044453
 20
0.0062564170896091
 30
0.0
 40
0.06
100
AcDbArc
 50
270.0
 51
90.0
  0
LINE
  5
4E4
330
4DE
100
AcDbEntity
  8
NOTES
100
AcDbLine
 10
0.0172516073044453
 20
-0.053743582910391
 30
0.0
 11
0.0429016660194259
 21
-0.0837435829103912
 31
0.0
  0
ENDBLK
  5
4E6
330
4DE
100
AcDbEntity
  8
0
100
AcDbBlockEnd
  0
ENDSEC
  0
SECTION
  2
ENTITIES
  0
LINE
  5
1E
330
2
100
AcDbEntity
  8
PART
100
AcDbLine
 10
5.032401314577941
 20
3.73749999999999
 30
0.0
 11
5.03240131457797
 21
8.737499999999982
 31
0.0
  0
LINE
  5
3C
330
2
100
AcDbEntity
  8
PART
100
AcDbLine
 10
5.032401314577955
 20
3.737499999999982
 30
0.0
 11
5.032401314577955
 21
8.737499999999986
 31
0.0
  0
LINE
  5
1FB
330
2
100
AcDbEntity
  8
PART
100
AcDbLine
 10
3.865875648044461
 20
3.745945425361891
 30
0.0
 11
0.5740634100526913
 21
2.547823753939663
 31
0.0
  0
ARC
  5
204
330
2
100
AcDbEntity
  8
PART
100
AcDbCircle
 10
0.4586640333774419
 20
2.682143160563775
 30
0.0
 40
0.0625
100
AcDbArc
 50
19.99999999999969
 51
110.0
  0
LINE
  5
205
330
2
100
AcDbEntity
  8
PART
100
AcDbLine
 10
0.5740634100526913
 20
2.547823753939663
 30
0.0
 11
-0.547997924283429
 21
5.630661933269565
 31
0.0
  0
ARC
  5
207
330
2
100
AcDbEntity
  8
PART
100
AcDbCircle
 10
-0.6067287130820099
 20
5.609285674311894
 30
0.0
 40
0.0625
100
AcDbArc
 50
289.9999999999995
 51
19.99999999999951
  0
ARC
  5
211
330
2
100
AcDbEntity
  8
PART
100
AcDbCircle
 10
-0.6067287130820063
 20
6.865714325688073
 30
0.0
 40
0.0625
100
AcDbArc
 50
339.9999999999994
 51
70.00000000000042
  0
LINE
  5
212
330
2
100
AcDbEntity
  8
PART
100
AcDbLine
 10
-0.7307516613173064
 20
6.342226300907206
 30
0.0
 11
-0.547997924282889
 21
6.84433806673022
 31
0.0
  0
LINE
  5
213
330
2
100
AcDbEntity
  8
PART
100
AcDbLine
 10
-0.7307516613173064
 20
6.132773699092772
 30
0.0
 11
-0.7307516613173064
 21
6.342226300907206
 31
0.0
  0
LINE
  5
214
330
2
100
AcDbEntity
  8
PART
100
AcDbLine
 10
-0.7307516613173064
 20
6.132773699092772
 30
0.0
 11
-0.5479979242828854
 21
5.630661933269753
 31
0.0
  0
LINE
  5
21C
330
2
100
AcDbEntity
  8
PART
100
AcDbLine
 10
3.842672049736694
 20
3.737500006249995
 30
0.0
 11
5.032401314577955
 21
3.737500006249998
 31
0.0
  0
LINE
  5
21D
330
2
100
AcDbEntity
  8
PART
100
AcDbLine
 10
3.865875648044475
 20
8.729054574638082
 30
0.0
 11
0.5740634100526698
 21
9.927176246060328
 31
0.0
  0
LINE
  5
21E
330
2
100
AcDbEntity
  8
PART
100
AcDbLine
 10
-0.5479979242828481
 20
6.844338066730207
 30
0.0
 11
0.574063410052677
 21
9.927176246060341
 31
0.0
  0
ARC
  5
21F
330
2
100
AcDbEntity
  8
PART
100
AcDbCircle
 10
0.4586640333774632
 20
9.792856839436188
 30
0.0
 40
0.0625
100
AcDbArc
 50
249.9999999999995
 51
339.9999999999999
  0
LINE
  5
228
330
2
100
AcDbEntity
  8
PART
100
AcDbLine
 10
3.842672049736694
 20
8.737499993749985
 30
0.0
 11
5.032401314577955
 21
8.737499993749985
 31
0.0
  0
LINE
  5
229
330
2
100
AcDbEntity
  8
PART
100
AcDbLine
 10
5.032401314577955
 20
3.737500006249998
 30
0.0
 11
5.032401314577955
 21
8.737499993749985
 31
0.0
  0
ARC
  5
230
330
2
100
AcDbEntity
  8
PART
100
AcDbCircle
 10
1.383084367106991
 20
6.237499999999982
 30
0.0
 40
0.75
100
AcDbArc
 50
95.06279770078441
 51
264.9372022992156
  0
ARC
  5
231
330
2
100
AcDbEntity
  8
PART
100
AcDbCircle
 10
1.383084367106991
 20
6.237499999999982
 30
0.0
 40
0.8156164974804125
100
AcDbArc
 50
95.06279770078441
 51
134.9848251383175
  0
LINE
  5
232
330
2
100
AcDbEntity
  8
PART
100
AcDbLine
 10
1.316898707525105
 20
5.490426068942483
 30
0.0
 11
5.032401314577955
 21
5.170939814038025
 31
0.0
  0
LINE
  5
233
330
2
100
AcDbEntity
  8
PART
100
AcDbLine
 10
3.842672049736694
 20
5.245788788782077
 30
0.0
 11
1.31110821263818
 21
5.425065569322589
 31
0.0
  0
ARC
  5
234
330
2
100
AcDbEntity
  8
PART
100
AcDbCircle
 10
0.011101314577946
 20
6.237499999999982
 30
0.0
 40
1.073223302020297
100
AcDbArc
 50
289.9999999999995
 51
323.5538982173468
  0
ARC
  5
235
330
2
100
AcDbEntity
  8
PART
100
AcDbCircle
 10
1.383084367106991
 20
6.237499999999982
 30
0.0
 40
0.8156164974804125
100
AcDbArc
 50
225.0151748616825
 51
264.9372022992156
  0
LINE
  5
236
330
2
100
AcDbEntity
  8
PART
100
AcDbLine
 10
1.916308024037458
 20
5.381583753065143
 30
0.0
 11
2.146173826993655
 21
5.229499999999987
 31
0.0
  0
LINE
  5
237
330
2
100
AcDbEntity
  8
PART
100
AcDbLine
 10
1.316898707525105
 20
5.490426068942483
 30
0.0
 11
1.31110821263818
 21
5.425065569322589
 31
0.0
  0
LINE
  5
238
330
2
100
AcDbEntity
  8
PART
100
AcDbLine
 10
2.146173826993655
 20
5.229499999999987
 30
0.0
 11
2.541740847963029
 21
5.03458845592484
 31
0.0
  0
ARC
  5
239
330
2
100
AcDbEntity
  8
PART
100
AcDbCircle
 10
1.265818763735012
 20
6.237499999999982
 30
0.0
 40
0.7373985475160918
100
AcDbArc
 50
179.9999999999999
 51
231.4733676450046
  0
ARC
  5
23A
330
2
100
AcDbEntity
  8
PART
100
AcDbCircle
 10
1.265818763735012
 20
6.237499999999982
 30
0.0
 40
0.7373985475160918
100
AcDbArc
 50
128.5266323549954
 51
180.0
  0
LINE
  5
23B
330
2
100
AcDbEntity
  8
PART
100
AcDbLine
 10
3.845015309425174
 20
5.273040000212604
 30
0.0
 11
4.942672046736698
 21
5.17865539676524
 31
0.0
  0
LINE
  5
23C
330
2
100
AcDbEntity
  8
PART
100
AcDbLine
 10
3.843901583528808
 20
5.260087795202344
 30
0.0
 11
5.032401314577955
 21
5.157891842679769
 31
0.0
  0
LINE
  5
23D
330
2
100
AcDbEntity
  8
PART
100
AcDbLine
 10
1.316898707525105
 20
6.984573931057488
 30
0.0
 11
3.845015309425174
 21
7.201959999787368
 31
0.0
  0
LINE
  5
23E
330
2
100
AcDbEntity
  8
PART
100
AcDbLine
 10
1.31110821263818
 20
7.049934430677375
 30
0.0
 11
3.842672049736694
 21
7.229211211217889
 31
0.0
  0
ARC
  5
23F
330
2
100
AcDbEntity
  8
PART
100
AcDbCircle
 10
0.011101314577946
 20
6.237499999999982
 30
0.0
 40
1.073223302020297
100
AcDbArc
 50
36.44610178265317
 51
70.0000000000001
  0
LINE
  5
240
330
2
100
AcDbEntity
  8
PART
100
AcDbLine
 10
1.916308024037458
 20
7.093416246934823
 30
0.0
 11
2.146173826993655
 21
7.245499999999985
 31
0.0
  0
LINE
  5
241
330
2
100
AcDbEntity
  8
PART
100
AcDbLine
 10
2.146173826993655
 20
7.245499999999985
 30
0.0
 11
2.541740847963029
 21
7.440411544075129
 31
0.0
  0
LINE
  5
242
330
2
100
AcDbEntity
  8
PART
100
AcDbLine
 10
3.845015309425174
 20
7.201959999787368
 30
0.0
 11
5.032401314577955
 21
7.304060185961942
 31
0.0
  0
LINE
  5
243
330
2
100
AcDbEntity
  8
PART
100
AcDbLine
 10
3.843901583528808
 20
7.214912204797627
 30
0.0
 11
5.032401314577955
 21
7.317108157320188
 31
0.0
  0
LINE
  5
244
330
2
100
AcDbEntity
  8
PART
100
AcDbLine
 10
0.1644027131112402
 20
6.658692130841032
 30
0.0
 11
0.3781653021553666
 21
7.246000017363948
 31
0.0
  0
LINE
  5
245
330
2
100
AcDbEntity
  8
PART
100
AcDbLine
 10
-0.5251697623135101
 20
6.907057926268747
 30
0.0
 11
0.1644027131112402
 21
6.658692130841032
 31
0.0
  0
ARC
  5
246
330
2
100
AcDbEntity
  8
PART
100
AcDbCircle
 10
0.011101314577946
 20
6.237499999999982
 30
0.0
 40
0.4482233035828093
100
AcDbArc
 50
289.9999999999995
 51
70.38463833292578
  0
LINE
  5
247
330
2
100
AcDbEntity
  8
PART
100
AcDbLine
 10
0.3781653021553666
 20
7.246000017363948
 30
0.0
 11
-0.3105657450059063
 21
7.496677617945645
 31
0.0
  0
LINE
  5
248
330
2
100
AcDbEntity
  8
PART
100
AcDbLine
 10
-0.5251697623135101
 20
5.567942073731219
 30
0.0
 11
0.1644027131112402
 21
5.816307869158933
 31
0.0
  0
LINE
  5
249
330
2
100
AcDbEntity
  8
PART
100
AcDbLine
 10
0.3781653021553666
 20
5.228999982636021
 30
0.0
 11
-0.3105657450059098
 21
4.978322382054328
 31
0.0
  0
LINE
  5
24A
330
2
100
AcDbEntity
  8
PART
100
AcDbLine
 10
0.1644027131112402
 20
5.816307869158933
 30
0.0
 11
0.3781653021553701
 21
5.228999982636011
 31
0.0
  0
LINE
  5
24B
330
2
100
AcDbEntity
  8
PART
100
AcDbLine
 10
3.215706716782544
 20
8.016927327176793
 30
0.0
 11
2.541740847963029
 21
7.440411544075125
 31
0.0
  0
LINE
  5
24C
330
2
100
AcDbEntity
  8
PART
100
AcDbLine
 10
3.842672049736694
 20
8.737236322215856
 30
0.0
 11
3.842672049736694
 21
7.229211211217889
 31
0.0
  0
LINE
  5
24D
330
2
100
AcDbEntity
  8
PART
100
AcDbLine
 10
3.865875648044475
 20
8.729054574638082
 30
0.0
 11
3.215706716782544
 21
8.016927327176793
 31
0.0
  0
LINE
  5
24E
330
2
100
AcDbEntity
  8
PART
100
AcDbLine
 10
3.685501289340518
 20
8.545007348749564
 30
0.0
 11
3.488729839359056
 21
8.31596838470061
 31
0.0
  0
LINE
  5
24F
330
2
100
AcDbEntity
  8
PART
100
AcDbLine
 10
3.215706716782544
 20
4.458072672823173
 30
0.0
 11
2.541740847963029
 21
5.03458845592484
 31
0.0
  0
LINE
  5
250
330
2
100
AcDbEntity
  8
PART
100
AcDbLine
 10
3.842672049736694
 20
5.245788788782077
 30
0.0
 11
3.842672049736694
 21
3.737500006249983
 31
0.0
  0
LINE
  5
251
330
2
100
AcDbEntity
  8
PART
100
AcDbLine
 10
3.865875648044461
 20
3.745945425361891
 30
0.0
 11
3.215706716782544
 21
4.458072672823173
 31
0.0
  0
LINE
  5
252
330
2
100
AcDbEntity
  8
PART
100
AcDbLine
 10
3.685501289340518
 20
3.929992651250404
 30
0.0
 11
3.488729839359056
 21
4.159031615299355
 31
0.0
  0
INSERT
  5
429
330
2
100
AcDbEntity
  8
DIM
100
AcDbBlockReference
 66
     1
  2
tft_aprlist
 10
-6.686416596340315
 20
4.839744882671843
 30
0.0
 41
2.0
 42
2.0
 43
2.0
  0
ATTRIB
  5
42A
330
429
100
AcDbEntity
  8
DIM
100
AcDbText
 10
-3.688916591206317
 20
-1.574145145765115
 30
0.0
 40
0.26
  1
AS9NJ-SP
  7
SIMPLEX
100
AcDbAttribute
  2
PART_#
 70
     0
  0
ATTRIB
  5
42B
330
429
100
AcDbEntity
  8
DIM
100
AcDbText
 10
-3.677049106156673
 20
-2.222516336464393
 30
0.0
 40
0.26
  1
SIAMESE 2.5"NHF X 4.0"STORZ
  7
SIMPLEX
100
AcDbAttribute
  2
PART_DESCRIPTION
 70
     0
  0
ATTRIB
  5
42C
330
429
100
AcDbEntity
  8
DIM
100
AcDbText
 10
-3.686416593408444
 20
-2.849170223430234
 30
0.0
 40
0.26
  1
DBL SWIVEL ROCKERLUG TO STORZ SWIVEL
  7
SIMPLEX
100
AcDbAttribute
  2
EXTRA_DESCRIPTION
 70
     0
  0
ATTRIB
  5
42D
330
429
100
AcDbEntity
  8
DIM
100
AcDbText
 10
4.152904835162932
 20
-1.660255113875084
 30
0.0
 40
0.2
  1
1 OF 1
  7
SIMPLEX
 72
     4
 11
4.624333406591504
 21
-1.560255113875084
 31
0.0
100
AcDbAttribute
  2
SHEET
 70
     0
  0
ATTRIB
  5
42E
330
429
100
AcDbEntity
  8
DIM
100
AcDbText
 10
10.05508340696169
 20
-2.84239316706876
 30
0.0
 40
0.16
  1

  7
SIMPLEX
100
AcDbAttribute
  2
FILE_NAME
 70
     0
  0
ATTRIB
  5
42F
330
429
100
AcDbEntity
  8
DIM
100
AcDbText
 10
10.50108340659155
 20
-0.894742837519014
 30
0.0
 40
0.16
  1
1/2x
  7
SIMPLEX
100
AcDbAttribute
  2
SCALE
 70
     0
  0
ATTRIB
  5
430
330
429
100
AcDbEntity
  8
DIM
100
AcDbText
 10
9.600991375505593
 20
-1.580195735596533
 30
0.0
 40
0.16
  1
7/25/11
  7
SIMPLEX
 72
     4
 11
10.07718185169607
 21
-1.511624307025105
 31
0.0
100
AcDbAttribute
  2
DATE
 70
     0
  0
ATTRIB
  5
431
330
429
100
AcDbEntity
  8
DIM
100
AcDbText
 10
11.01894297530868
 20
-1.591624307025105
 30
0.0
 40
0.16
  1
CPD
  7
SIMPLEX
 72
     4
 11
11.23227630864202
 21
-1.511624307025105
 31
0.0
100
AcDbAttribute
  2
WHO?
 70
     0
  0
ATTRIB
  5
432
330
429
100
AcDbEntity
  8
DIM
100
AcDbText
 10
9.997181851696069
 20
-2.160178737973004
 30
0.0
 40
0.16
  1
 
  7
SCRIPT
 72
     4
 11
10.07718185169607
 21
-2.160178737973004
 31
0.0
100
AcDbAttribute
  2
DATE
 70
     0
  0
ATTRIB
  5
433
330
429
100
AcDbEntity
  8
DIM
100
AcDbText
 10
11.15227630864207
 20
-2.160178737973003
 30
0.0
 40
0.16
  1
 
  7
SCRIPT
 72
     4
 11
11.23227630864207
 21
-2.160178737973003
 31
0.0
100
AcDbAttribute
  2
WHO?
 70
     0
  0
ATTRIB
  5
434
330
429
100
AcDbEntity
  8
DIM
100
AcDbText
 10
11.86887511494616
 20
-2.240178737973003
 30
0.0
 40
0.16
  1
Robert W. Steingass
  7
SCRIPT
 11
11.86887511494616
 21
-2.160178737973003
 31
0.0
100
AcDbAttribute
  2
WHO?
 70
     0
 74
     2
  0
SEQEND
  5
435
330
429
100
AcDbEntity
  8
DIM
  0
LINE
  5
45E
330
2
100
AcDbEntity
  8
PART
100
AcDbLine
 10
-0.5935018364355153
 20
6.868828484920274
 30
0.0
 11
0.5365327171124869
 21
9.973572903996918
 31
0.0
  0
LINE
  5
460
330
2
100
AcDbEntity
  8
PART
100
AcDbLine
 10
0.1024230427135099
 20
9.014770728031976
 30
0.0
 11
0.2641452925991067
 21
9.459098957816053
 31
0.0
  0
LINE
  5
461
330
2
100
AcDbEntity
  8
PART
100
AcDbLine
 10
0.1024230427135099
 20
9.014770728031976
 30
0.0
 11
0.1210950812673691
 21
9.173549739391683
 31
0.0
  0
ARC
  5
462
330
2
100
AcDbEntity
  8
PART
100
AcDbCircle
 10
0.0734235789926559
 20
9.17915579601574
 30
0.0
 40
0.0480000000000012
100
AcDbArc
 50
353.2929554962568
 51
84.34081183702913
  0
LINE
  5
463
330
2
100
AcDbEntity
  8
PART
100
AcDbLine
 10
0.0781569043814409
 20
9.226921847043264
 30
0.0
 11
0.0281999455095402
 21
9.23187227808556
 31
0.0
  0
LINE
  5
464
330
2
100
AcDbEntity
  8
PART
100
AcDbLine
 10
-1.344703593296785
 20
9.541481748753499
 30
0.0
 11
0.1024230427135126
 21
9.014770728031974
 31
0.0
  0
LINE
  5
465
330
2
100
AcDbEntity
  8
PART
100
AcDbLine
 10
-1.148295215714415
 20
9.660081497529301
 30
0.0
 11
-0.9931700303762079
 21
10.08628444143474
 31
0.0
  0
LINE
  5
466
330
2
100
AcDbEntity
  8
PART
100
AcDbLine
 10
-1.148295215714413
 20
9.660081497529297
 30
0.0
 11
0.028199945509542
 21
9.231872278085567
 31
0.0
  0
LINE
  5
467
330
2
100
AcDbEntity
  8
PART
100
AcDbLine
 10
-1.344703593296785
 20
9.541481748753499
 30
0.0
 11
-1.18298134341119
 21
9.985809978537576
 31
0.0
  0
LINE
  5
468
330
2
100
AcDbEntity
  8
PART
100
AcDbLine
 10
-0.9931700303762079
 20
10.08628444143474
 30
0.0
 11
0.1833251308477449
 21
9.658075221991007
 31
0.0
  0
LINE
  5
469
330
2
100
AcDbEntity
  8
PART
100
AcDbLine
 10
0.507844438194393
 20
10.03509511667427
 30
0.0
 11
-0.9994225255462103
 21
10.58369542656864
 31
0.0
  0
LINE
  5
46A
330
2
100
AcDbEntity
  8
PART
100
AcDbLine
 10
-0.9931700303762079
 20
10.08628444143474
 30
0.0
 11
-1.130587106427202
 21
9.944561717559174
 31
0.0
  0
ARC
  5
46B
330
2
100
AcDbEntity
  8
PART
100
AcDbCircle
 10
-1.14781738542015
 20
9.961268527123699
 30
0.0
 40
0.024
100
AcDbArc
 50
201.0540521470631
 51
315.8837001623092
  0
ARC
  5
46C
330
2
100
AcDbEntity
  8
PART
100
AcDbCircle
 10
-1.015839492425842
 20
10.53859018077092
 30
0.0
 40
0.048
100
AcDbArc
 50
70.00000000000018
 51
160.0000000000001
  0
LINE
  5
46D
330
2
100
AcDbEntity
  8
PART
100
AcDbLine
 10
-1.170215191766873
 20
9.952646562680804
 30
0.0
 11
-1.18298134341119
 21
9.985809978537576
 31
0.0
  0
LINE
  5
46E
330
2
100
AcDbEntity
  8
PART
100
AcDbLine
 10
0.028199945509542
 20
9.231872278085567
 30
0.0
 11
0.1833251308477449
 21
9.658075221991007
 31
0.0
  0
LINE
  5
46F
330
2
100
AcDbEntity
  8
PART
100
AcDbLine
 10
0.233048820264345
 20
9.441900231484472
 30
0.0
 11
0.2641452925991067
 21
9.459098957816053
 31
0.0
  0
LINE
  5
470
330
2
100
AcDbEntity
  8
PART
100
AcDbLine
 10
0.1833251308477449
 20
9.658075221991007
 30
0.0
 11
0.197495107428031
 21
9.461179323057518
 31
0.0
  0
ARC
  5
471
330
2
100
AcDbEntity
  8
PART
100
AcDbCircle
 10
0.2214331970894327
 20
9.462902071838554
 30
0.0
 40
0.024
100
AcDbArc
 50
184.116299837691
 51
298.9459478529373
  0
ARC
  5
472
330
2
100
AcDbEntity
  8
PART
100
AcDbCircle
 10
0.491427471314765
 20
9.989989870876552
 30
0.0
 40
0.048
100
AcDbArc
 50
340.0000000000002
 51
70.00000000000018
  0
LINE
  5
473
330
2
100
AcDbEntity
  8
PART
100
AcDbLine
 10
-1.18974654218996
 20
9.688400961518777
 30
0.0
 11
-1.14829521571442
 21
9.660081497529304
 31
0.0
  0
ARC
  5
474
330
2
100
AcDbEntity
  8
PART
100
AcDbCircle
 10
-1.216824030342549
 20
9.648767520646886
 30
0.0
 40
0.048
100
AcDbArc
 50
55.65918816296829
 51
146.7070445037405
  0
LINE
  5
475
330
2
100
AcDbEntity
  8
PART
100
AcDbLine
 10
-1.344703593296785
 20
9.541481748753499
 30
0.0
 11
-1.256946023492379
 21
9.675115683119539
 31
0.0
  0
ARC
  5
476
330
2
100
AcDbEntity
  8
PART
100
AcDbCircle
 10
-0.5300452181323463
 20
7.744887166862239
 30
0.0
 40
0.1612856203950268
100
AcDbArc
 50
230.2661015353809
 51
249.9999999999879
  0
ARC
  5
477
330
2
100
AcDbEntity
  8
PART
100
AcDbCircle
 10
-0.5433363033101398
 20
7.728897235885812
 30
0.0
 40
0.1404930535060099
100
AcDbArc
 50
209.1066053508796
 51
230.2661015354035
  0
ARC
  5
478
330
2
100
AcDbEntity
  8
PART
100
AcDbCircle
 10
-0.5577590007529662
 20
7.720867487503903
 30
0.0
 40
0.123985750255506
100
AcDbArc
 50
185.5614458367923
 51
209.1066053508624
  0
ARC
  5
479
330
2
100
AcDbEntity
  8
PART
100
AcDbCircle
 10
-0.5761947973184723
 20
7.719072365680496
 30
0.0
 40
0.1054627629865584
100
AcDbArc
 50
160.0000000000023
 51
185.5614458367994
  0
ARC
  5
47A
330
2
100
AcDbEntity
  8
PART
100
AcDbCircle
 10
-0.5761947973184578
 20
7.719072365680482
 30
0.0
 40
0.1054627629865769
100
AcDbArc
 50
134.4385541631995
 51
159.9999999999976
  0
ARC
  5
47B
330
2
100
AcDbEntity
  8
PART
100
AcDbCircle
 10
-0.5632260398709822
 20
7.705846920975972
 30
0.0
 40
0.1239857502554675
100
AcDbArc
 50
110.893394649135
 51
134.4385541632074
  0
ARC
  5
47C
330
2
100
AcDbEntity
  8
PART
100
AcDbCircle
 10
-0.5573390354088783
 20
7.690425045633827
 30
0.0
 40
0.140493053506015
100
AcDbArc
 50
89.73389846459999
 51
110.8933946491257
  0
ARC
  5
47D
330
2
100
AcDbEntity
  8
PART
100
AcDbCircle
 10
-0.55743560297683
 20
7.669632702991918
 30
0.0
 40
0.1612856203950208
100
AcDbArc
 50
70.00000000000428
 51
89.73389846461079
  0
ARC
  5
47E
330
2
100
AcDbEntity
  8
PART
100
AcDbCircle
 10
-0.5574356029768687
 20
7.669632702991896
 30
0.0
 40
0.1612856203950526
100
AcDbArc
 50
50.26610153538698
 51
69.9999999999938
  0
ARC
  5
47F
330
2
100
AcDbEntity
  8
PART
100
AcDbCircle
 10
-0.544144517799067
 20
7.685622633968362
 30
0.0
 40
0.1404930535060001
100
AcDbArc
 50
29.10660535087894
 51
50.26610153540275
  0
ARC
  5
480
330
2
100
AcDbEntity
  8
PART
100
AcDbCircle
 10
-0.5297218203562371
 20
7.693652382350276
 30
0.0
 40
0.1239857502554914
100
AcDbArc
 50
5.561445836789465
 51
29.10660535086089
  0
ARC
  5
481
330
2
100
AcDbEntity
  8
PART
100
AcDbCircle
 10
-0.5112860237907432
 20
7.695447504173673
 30
0.0
 40
0.1054627629865568
100
AcDbArc
 50
340.0000000000022
 51
5.561445836799587
  0
ARC
  5
482
330
2
100
AcDbEntity
  8
PART
100
AcDbCircle
 10
-0.5112860237907634
 20
7.695447504173682
 30
0.0
 40
0.105462762986578
100
AcDbArc
 50
314.4385541632008
 51
340.0000000000029
  0
ARC
  5
483
330
2
100
AcDbEntity
  8
PART
100
AcDbCircle
 10
-0.5242547812382225
 20
7.708672948878199
 30
0.0
 40
0.1239857502554627
100
AcDbArc
 50
290.8933946491296
 51
314.4385541632003
  0
ARC
  5
484
330
2
100
AcDbEntity
  8
PART
100
AcDbCircle
 10
-0.5301417857003351
 20
7.724094824220338
 30
0.0
 40
0.1404930535060069
100
AcDbArc
 50
269.7338984646026
 51
290.8933946491254
  0
ARC
  5
485
330
2
100
AcDbEntity
  8
PART
100
AcDbCircle
 10
-0.5300452181324045
 20
7.744887166862284
 30
0.0
 40
0.1612856203950482
100
AcDbArc
 50
250.0000000000127
 51
269.7338984646206
  0
LINE
  5
486
330
2
100
AcDbEntity
  8
PART
100
AcDbLine
 10
-0.4873525700496665
 20
7.590276360967155
 30
0.0
 11
-0.6546052490102993
 21
7.789600341989499
 31
0.0
  0
LINE
  5
487
330
2
100
AcDbEntity
  8
PART
100
AcDbLine
 10
-0.4328755720989178
 20
7.624919527864673
 30
0.0
 11
-0.600128251059548
 21
7.824243508887014
 31
0.0
  0
ARC
  5
488
330
2
100
AcDbEntity
  8
PART
100
AcDbCircle
 10
-1.542511524299558
 20
7.163159230254199
 30
0.0
 40
0.6275555555555571
100
AcDbArc
 50
160.0000000000001
 51
199.5977527090499
  0
LINE
  5
489
330
2
100
AcDbEntity
  8
PART
100
AcDbLine
 10
-0.6550240491128722
 20
6.840140206002177
 30
0.0
 11
-2.162291012853471
 21
7.388740515896545
 31
0.0
  0
ARC
  5
48A
330
2
100
AcDbEntity
  8
PART
100
AcDbCircle
 10
-2.145874045973839
 20
7.433845761694269
 30
0.0
 40
0.048
100
AcDbArc
 50
160.0000000000001
 51
250.0000000000002
  0
LINE
  5
48B
330
2
100
AcDbEntity
  8
PART
100
AcDbLine
 10
-2.133713168925413
 20
6.952667922356869
 30
0.0
 11
-0.9572180077014555
 21
6.524458702913142
 31
0.0
  0
LINE
  5
48C
330
2
100
AcDbEntity
  8
PART
100
AcDbLine
 10
-2.168799763168735
 20
7.123296752122643
 30
0.0
 11
-0.8206620195246355
 21
6.632614741745403
 31
0.0
  0
ARC
  5
48D
330
2
100
AcDbEntity
  8
PART
100
AcDbCircle
 10
-1.274803537666779
 20
7.065721491644533
 30
0.0
 40
0.6275555555555571
100
AcDbArc
 50
300.4022472909504
 51
340.0000000000002
  0
ARC
  5
48E
330
2
100
AcDbEntity
  8
PART
100
AcDbCircle
 10
-0.6386070822332371
 20
6.885245451799905
 30
0.0
 40
0.048
100
AcDbArc
 50
250.0000000000002
 51
340.0000000000002
  0
LINE
  5
48F
330
2
100
AcDbEntity
  8
PART
100
AcDbLine
 10
-2.190979291771563
 20
7.450262728573902
 30
0.0
 11
-1.060944738223564
 21
10.55500714765055
 31
0.0
  0
LINE
  5
492
330
2
100
AcDbEntity
  8
PART
100
AcDbLine
 10
-0.5935018364355153
 20
5.606171515079691
 30
0.0
 11
0.5365327171124869
 21
2.501427096003044
 31
0.0
  0
ARC
  5
493
330
2
100
AcDbEntity
  8
PART
100
AcDbCircle
 10
0.491427471314765
 20
2.485010129123412
 30
0.0
 40
0.048
100
AcDbArc
 50
289.9999999999998
 51
19.99999999999984
  0
ARC
  5
494
330
2
100
AcDbEntity
  8
PART
100
AcDbCircle
 10
-0.6386070822332371
 20
5.58975454820006
 30
0.0
 40
0.048
100
AcDbArc
 50
19.99999999999984
 51
109.9999999999998
  0
ARC
  5
495
330
2
100
AcDbEntity
  8
PART
100
AcDbCircle
 10
-0.6067287130820063
 20
5.609285674311891
 30
0.0
 40
0.0625
100
AcDbArc
 50
289.9999999999995
 51
20.00000000000065
  0
LINE
  5
496
330
2
100
AcDbEntity
  8
PART
100
AcDbLine
 10
-2.190979291771563
 20
5.024737271426062
 30
0.0
 11
-1.060944738223564
 21
1.919992852349411
 31
0.0
  0
LINE
  5
497
330
2
100
AcDbEntity
  8
PART
100
AcDbLine
 10
-2.168799763168735
 20
5.351703247877322
 30
0.0
 11
-0.8206620195246355
 21
5.842385258254561
 31
0.0
  0
LINE
  5
498
330
2
100
AcDbEntity
  8
PART
100
AcDbLine
 10
-2.133713168925413
 20
5.522332077643095
 30
0.0
 11
-0.9572180077014555
 21
5.950541297086822
 31
0.0
  0
LINE
  5
499
330
2
100
AcDbEntity
  8
PART
100
AcDbLine
 10
-0.6550240491128722
 20
5.634859793997787
 30
0.0
 11
-2.162291012853471
 21
5.086259484103418
 31
0.0
  0
ARC
  5
49A
330
2
100
AcDbEntity
  8
PART
100
AcDbCircle
 10
-1.542511524299558
 20
5.311840769745765
 30
0.0
 40
0.6275555555555571
100
AcDbArc
 50
160.40224729095
 51
199.9999999999998
  0
ARC
  5
49B
330
2
100
AcDbEntity
  8
PART
100
AcDbCircle
 10
-2.145874045973839
 20
5.041154238305694
 30
0.0
 40
0.048
100
AcDbArc
 50
109.9999999999998
 51
199.9999999999998
  0
ARC
  5
49C
330
2
100
AcDbEntity
  8
PART
100
AcDbCircle
 10
-1.274803537666779
 20
5.409278508355431
 30
0.0
 40
0.6275555555555571
100
AcDbArc
 50
19.99999999999984
 51
59.59775270904959
  0
LINE
  5
49D
330
2
100
AcDbEntity
  8
PART
100
AcDbLine
 10
-0.7307516613173064
 20
6.132773699092759
 30
0.0
 11
-0.547997924282889
 21
5.630661933269744
 31
0.0
  0
ARC
  5
49E
330
2
100
AcDbEntity
  8
PART
100
AcDbCircle
 10
-0.55743560297683
 20
4.805367297008047
 30
0.0
 40
0.1612856203950208
100
AcDbArc
 50
270.2661015353892
 51
289.9999999999957
  0
ARC
  5
49F
330
2
100
AcDbEntity
  8
PART
100
AcDbCircle
 10
-0.5573390354088783
 20
4.784574954366138
 30
0.0
 40
0.140493053506015
100
AcDbArc
 50
249.1066053508743
 51
270.2661015354
  0
LINE
  5
4A0
330
2
100
AcDbEntity
  8
PART
100
AcDbLine
 10
-0.4873525700496665
 20
4.884723639032808
 30
0.0
 11
-0.6546052490102993
 21
4.685399658010465
 31
0.0
  0
ARC
  5
4A1
330
2
100
AcDbEntity
  8
PART
100
AcDbCircle
 10
-0.5300452181324045
 20
4.730112833137681
 30
0.0
 40
0.1612856203950482
100
AcDbArc
 50
90.26610153537935
 51
109.9999999999873
  0
ARC
  5
4A2
330
2
100
AcDbEntity
  8
PART
100
AcDbCircle
 10
-0.5301417857003351
 20
4.750905175779626
 30
0.0
 40
0.1404930535060069
100
AcDbArc
 50
69.1066053508747
 51
90.26610153539749
  0
ARC
  5
4A3
330
2
100
AcDbEntity
  8
PART
100
AcDbCircle
 10
-0.5632260398709822
 20
4.769153079023991
 30
0.0
 40
0.1239857502554675
100
AcDbArc
 50
225.5614458367925
 51
249.1066053508649
  0
ARC
  5
4A4
330
2
100
AcDbEntity
  8
PART
100
AcDbCircle
 10
-0.5761947973184578
 20
4.755927634319481
 30
0.0
 40
0.1054627629865769
100
AcDbArc
 50
200.0000000000024
 51
225.5614458368004
  0
ARC
  5
4A5
330
2
100
AcDbEntity
  8
PART
100
AcDbCircle
 10
-0.5761947973184723
 20
4.755927634319466
 30
0.0
 40
0.1054627629865584
100
AcDbArc
 50
174.4385541632006
 51
199.9999999999976
  0
ARC
  5
4A6
330
2
100
AcDbEntity
  8
PART
100
AcDbCircle
 10
-0.5577590007529662
 20
4.75413251249606
 30
0.0
 40
0.123985750255506
100
AcDbArc
 50
150.8933946491376
 51
174.4385541632077
  0
ARC
  5
4A7
330
2
100
AcDbEntity
  8
PART
100
AcDbCircle
 10
-0.5433363033101398
 20
4.746102764114151
 30
0.0
 40
0.1404930535060099
100
AcDbArc
 50
129.7338984645965
 51
150.8933946491204
  0
ARC
  5
4A8
330
2
100
AcDbEntity
  8
PART
100
AcDbCircle
 10
-0.5300452181323463
 20
4.730112833137724
 30
0.0
 40
0.1612856203950268
100
AcDbArc
 50
110.0000000000121
 51
129.7338984646191
  0
LINE
  5
4A9
330
2
100
AcDbEntity
  8
PART
100
AcDbLine
 10
-0.4328755720989178
 20
4.850080472135291
 30
0.0
 11
-0.600128251059548
 21
4.65075649111295
 31
0.0
  0
ARC
  5
4AA
330
2
100
AcDbEntity
  8
PART
100
AcDbCircle
 10
-0.5242547812382225
 20
4.766327051121766
 30
0.0
 40
0.1239857502554627
100
AcDbArc
 50
45.56144583679968
 51
69.10660535087036
  0
ARC
  5
4AB
330
2
100
AcDbEntity
  8
PART
100
AcDbCircle
 10
-0.5112860237907634
 20
4.779552495826282
 30
0.0
 40
0.105462762986578
100
AcDbArc
 50
19.99999999999724
 51
45.56144583679921
  0
ARC
  5
4AC
330
2
100
AcDbEntity
  8
PART
100
AcDbCircle
 10
-0.5112860237907432
 20
4.77955249582629
 30
0.0
 40
0.1054627629865568
100
AcDbArc
 50
354.4385541632004
 51
19.9999999999978
  0
ARC
  5
4AD
330
2
100
AcDbEntity
  8
PART
100
AcDbCircle
 10
-0.5297218203562371
 20
4.781347617649688
 30
0.0
 40
0.1239857502554914
100
AcDbArc
 50
330.8933946491391
 51
354.4385541632105
  0
ARC
  5
4AE
330
2
100
AcDbEntity
  8
PART
100
AcDbCircle
 10
-0.544144517799067
 20
4.789377366031604
 30
0.0
 40
0.1404930535060001
100
AcDbArc
 50
309.7338984645972
 51
330.893394649121
  0
ARC
  5
4AF
330
2
100
AcDbEntity
  8
PART
100
AcDbCircle
 10
-0.5574356029768687
 20
4.805367297008068
 30
0.0
 40
0.1612856203950526
100
AcDbArc
 50
290.0000000000062
 51
309.733898464613
  0
LINE
  5
4B0
330
2
100
AcDbEntity
  8
PART
100
AcDbLine
 10
0.507844438194393
 20
2.43990488332569
 30
0.0
 11
-0.9994225255462103
 21
1.891304573431321
 31
0.0
  0
LINE
  5
4B1
330
2
100
AcDbEntity
  8
PART
100
AcDbLine
 10
-1.344703593296785
 20
2.933518251246466
 30
0.0
 11
0.1024230427135126
 21
3.46022927196799
 31
0.0
  0
LINE
  5
4B2
330
2
100
AcDbEntity
  8
PART
100
AcDbLine
 10
-1.148295215714413
 20
2.814918502470667
 30
0.0
 11
0.028199945509542
 21
3.243127721914397
 31
0.0
  0
LINE
  5
4B3
330
2
100
AcDbEntity
  8
PART
100
AcDbLine
 10
-0.9931700303762079
 20
2.38871555856522
 30
0.0
 11
0.1833251308477449
 21
2.816924778008957
 31
0.0
  0
LINE
  5
4B4
330
2
100
AcDbEntity
  8
PART
100
AcDbLine
 10
-1.18974654218996
 20
2.786599038481186
 30
0.0
 11
-1.14829521571442
 21
2.814918502470661
 31
0.0
  0
LINE
  5
4B5
330
2
100
AcDbEntity
  8
PART
100
AcDbLine
 10
-1.344703593296785
 20
2.933518251246466
 30
0.0
 11
-1.18298134341119
 21
2.489190021462388
 31
0.0
  0
ARC
  5
4B6
330
2
100
AcDbEntity
  8
PART
100
AcDbCircle
 10
-1.216824030342549
 20
2.826232479353078
 30
0.0
 40
0.048
100
AcDbArc
 50
213.2929554962594
 51
304.3408118370316
  0
LINE
  5
4B7
330
2
100
AcDbEntity
  8
PART
100
AcDbLine
 10
-1.344703593296785
 20
2.933518251246466
 30
0.0
 11
-1.256946023492379
 21
2.799884316880425
 31
0.0
  0
ARC
  5
4B8
330
2
100
AcDbEntity
  8
PART
100
AcDbCircle
 10
-1.14781738542015
 20
2.513731472876266
 30
0.0
 40
0.024
100
AcDbArc
 50
44.11629983769084
 51
158.9459478529369
  0
LINE
  5
4B9
330
2
100
AcDbEntity
  8
PART
100
AcDbLine
 10
-1.148295215714415
 20
2.814918502470666
 30
0.0
 11
-0.9931700303762079
 21
2.38871555856522
 31
0.0
  0
LINE
  5
4BA
330
2
100
AcDbEntity
  8
PART
100
AcDbLine
 10
-1.170215191766873
 20
2.522353437319161
 30
0.0
 11
-1.18298134341119
 21
2.489190021462388
 31
0.0
  0
LINE
  5
4BB
330
2
100
AcDbEntity
  8
PART
100
AcDbLine
 10
-0.9931700303762079
 20
2.38871555856522
 30
0.0
 11
-1.130587106427202
 21
2.53043828244079
 31
0.0
  0
LINE
  5
4BC
330
2
100
AcDbEntity
  8
PART
100
AcDbLine
 10
0.028199945509542
 20
3.243127721914397
 30
0.0
 11
0.1833251308477449
 21
2.816924778008957
 31
0.0
  0
LINE
  5
4BD
330
2
100
AcDbEntity
  8
PART
100
AcDbLine
 10
0.1024230427135099
 20
3.460229271967988
 30
0.0
 11
0.2641452925991067
 21
3.015901042183912
 31
0.0
  0
LINE
  5
4BE
330
2
100
AcDbEntity
  8
PART
100
AcDbLine
 10
0.0781569043814409
 20
3.248078152956701
 30
0.0
 11
0.0281999455095402
 21
3.243127721914406
 31
0.0
  0
ARC
  5
4BF
330
2
100
AcDbEntity
  8
PART
100
AcDbCircle
 10
0.0734235789926559
 20
3.295844203984225
 30
0.0
 40
0.0480000000000012
100
AcDbArc
 50
275.6591881629709
 51
6.707044503743191
  0
LINE
  5
4C0
330
2
100
AcDbEntity
  8
PART
100
AcDbLine
 10
0.1024230427135099
 20
3.460229271967988
 30
0.0
 11
0.1210950812673691
 21
3.301450260608281
 31
0.0
  0
ARC
  5
4C1
330
2
100
AcDbEntity
  8
PART
100
AcDbCircle
 10
0.4586640333774632
 20
2.682143160563775
 30
0.0
 40
0.0625
100
AcDbArc
 50
20.00000000000025
 51
110.0000000000005
  0
ARC
  5
4C2
330
2
100
AcDbEntity
  8
PART
100
AcDbCircle
 10
0.2214331970894327
 20
3.012097928161411
 30
0.0
 40
0.024
100
AcDbArc
 50
61.05405214706271
 51
175.8837001623089
  0
LINE
  5
4C3
330
2
100
AcDbEntity
  8
PART
100
AcDbLine
 10
0.1833251308477449
 20
2.816924778008957
 30
0.0
 11
0.197495107428031
 21
3.013820676942446
 31
0.0
  0
LINE
  5
4C4
330
2
100
AcDbEntity
  8
PART
100
AcDbLine
 10
0.233048820264345
 20
3.033099768515493
 30
0.0
 11
0.2641452925991067
 21
3.015901042183912
 31
0.0
  0
ARC
  5
4C5
330
2
100
AcDbEntity
  8
PART
100
AcDbCircle
 10
-1.015839492425842
 20
1.936409819229043
 30
0.0
 40
0.048
100
AcDbArc
 50
199.9999999999998
 51
289.9999999999998
  0
LINE
  5
9FC
330
2
100
AcDbEntity
  8
PART
 62
     1
100
AcDbLine
 10
7.050401280177965
 20
8.041384854749992
 30
0.0
 11
7.007401310277952
 21
8.217612352249993
 31
0.0
  0
ARC
  5
9FD
330
2
100
AcDbEntity
  8
PART
 62
     1
100
AcDbCircle
 10
6.882401312077956
 20
3.291500000049989
 30
0.0
 40
0.1250000000000036
100
AcDbArc
 50
270.0
 51
0.0
  0
ARC
  5
9FE
330
2
100
AcDbEntity
  8
PART
 62
     1
100
AcDbCircle
 10
6.882401312077956
 20
9.183500000049988
 30
0.0
 40
0.1250000000000036
100
AcDbArc
 50
0.0
 51
90.0
  0
LINE
  5
9FF
330
2
100
AcDbEntity
  8
PART
 62
     1
100
AcDbLine
 10
6.712703274677952
 20
3.166500036449988
 30
0.0
 11
6.882401247577963
 21
3.166500036449988
 31
0.0
  0
LINE
  5
A00
330
2
100
AcDbEntity
  8
PART
 62
     1
100
AcDbLine
 10
6.882401247577966
 20
9.308499963549987
 30
0.0
 11
6.712703274677956
 21
9.308499963549987
 31
0.0
  0
ARC
  5
A01
330
2
100
AcDbEntity
  8
PART
 62
     1
100
AcDbCircle
 10
5.191290119777953
 20
8.62300046004999
 30
0.0
 40
0.062500000000003
100
AcDbArc
 50
119.9581497025001
 51
135.0000000000001
  0
ARC
  5
A02
330
2
100
AcDbEntity
  8
PART
 62
     1
100
AcDbCircle
 10
5.191290119777953
 20
3.851999540049988
 30
0.0
 40
0.062499999999998
100
AcDbArc
 50
224.9999999999999
 51
240.0328846753001
  0
LINE
  5
A03
330
2
100
AcDbEntity
  8
PART
 62
     1
100
AcDbLine
 10
5.147095943977966
 20
8.667194611949991
 30
0.0
 11
5.132401314577954
 21
8.652499955049989
 31
0.0
  0
LINE
  5
A04
330
2
100
AcDbEntity
  8
PART
 62
     1
100
AcDbLine
 10
5.132401314577951
 20
3.822500044949993
 30
0.0
 11
5.147095943977966
 21
3.807805388049992
 31
0.0
  0
SPLINE
  5
A05
330
2
100
AcDbEntity
  8
PART
 62
     1
100
AcDbSpline
210
0.0
220
0.0
230
1.0
 70
     8
 71
     3
 72
    12
 73
     8
 74
     0
 42
0.0000000001
 43
0.0000000001
 40
0.0
 40
0.0
 40
0.0
 40
0.0
 40
0.1442023685489235
 40
0.3731876343142431
 40
0.6080072665866043
 40
0.8403199024352716
 40
1.0
 40
1.0
 40
1.0
 40
1.0
 10
5.966935503150125
 20
4.761336999458492
 30
0.0
 10
5.975234510660701
 20
4.760732188757142
 30
0.0
 10
5.996711876193543
 20
4.759166972615979
 30
0.0
 10
6.031911601121414
 20
4.745048313235628
 30
0.0
 10
6.067083766892142
 20
4.720158696725409
 30
0.0
 10
6.092726853129157
 20
4.690488955872673
 30
0.0
 10
6.101867269478574
 20
4.669310893106477
 30
0.0
 10
6.105590661393904
 20
4.660683908878247
 30
0.0
  0
LINE
  5
A06
330
2
100
AcDbEntity
  8
PART
 62
     1
100
AcDbLine
 10
5.478225412077954
 20
4.796568125749992
 30
0.0
 11
5.967140467477953
 21
4.762355147649991
 31
0.0
  0
SPLINE
  5
A07
330
2
100
AcDbEntity
  8
PART
 62
     1
100
AcDbSpline
210
0.0
220
0.0
230
1.0
 70
     8
 71
     3
 72
    15
 73
    11
 74
     0
 42
0.0000000001
 43
0.0000000001
 40
0.0
 40
0.0
 40
0.0
 40
0.0
 40
0.1050120273103257
 40
0.2228875699682515
 40
0.3458852725124307
 40
0.4850421354564238
 40
0.6415941383993192
 40
0.8005140109731247
 40
0.9561224664528374
 40
1.0
 40
1.0
 40
1.0
 40
1.0
 10
5.242401312301765
 20
4.948686688512228
 30
0.0
 10
5.243302756806702
 20
4.938751301334313
 30
0.0
 10
5.245216068836914
 20
4.91766348538124
 30
0.0
 10
5.260205105707477
 20
4.88862283667979
 30
0.0
 10
5.283372430840444
 20
4.862539629937909
 30
0.0
 10
5.315736765515826
 20
4.839584552514807
 30
0.0
 10
5.357836233791182
 20
4.82011917132171
 30
0.0
 10
5.408034559824656
 20
4.805597184801207
 30
0.0
 10
5.449579277610592
 20
4.798855209515441
 30
0.0
 10
5.473060621120076
 20
4.796980478444961
 30
0.0
 10
5.478225412104134
 20
4.796568125798849
 30
0.0
  0
LINE
  5
A08
330
2
100
AcDbEntity
  8
PART
 62
     1
100
AcDbLine
 10
5.982935038277965
 20
8.077294013249989
 30
0.0
 11
5.478049579177952
 21
8.040532291249988
 31
0.0
  0
SPLINE
  5
A09
330
2
100
AcDbEntity
  8
PART
 62
     1
100
AcDbSpline
210
0.0
220
0.0
230
1.0
 70
     8
 71
     3
 72
    14
 73
    10
 74
     0
 42
0.0000000001
 43
0.0000000001
 40
0.0
 40
0.0
 40
0.0
 40
0.0
 40
0.047996278112954
 40
0.2158963512898758
 40
0.3991018229318437
 40
0.589804981010032
 40
0.7905428537968029
 40
0.9761566045817964
 40
1.0
 40
1.0
 40
1.0
 40
1.0
 10
6.116791538667072
 20
8.204312919240202
 30
0.0
 10
6.116710071519772
 20
8.202278698212499
 30
0.0
 10
6.116343616858213
 20
8.19312838667032
 30
0.0
 10
6.109238987791435
 20
8.167329296440051
 30
0.0
 10
6.091149306410933
 20
8.135647567995707
 30
0.0
 10
6.061560425903213
 20
8.105678253469768
 30
0.0
 10
6.025434160516674
 20
8.086111732037114
 30
0.0
 10
5.997111204684664
 20
8.077456154381597
 30
0.0
 10
5.983772213475496
 20
8.077684938311406
 30
0.0
 10
5.982253779525432
 20
8.077710981756588
 30
0.0
  0
SPLINE
  5
A0A
330
2
100
AcDbEntity
  8
PART
 62
     1
100
AcDbSpline
210
0.0
220
0.0
230
1.0
 70
     8
 71
     3
 72
    15
 73
    11
 74
     0
 42
0.0000000001
 43
0.0000000001
 40
0.0
 40
0.0
 40
0.0
 40
0.0
 40
0.0830210246751194
 40
0.2380284763275672
 40
0.3953207678360079
 40
0.5564147811914652
 40
0.7000881978711058
 40
0.8338672250849866
 40
0.960937050013439
 40
1.0
 40
1.0
 40
1.0
 40
1.0
 10
5.478049579135365
 20
8.040532291247991
 30
0.0
 10
5.468118701905524
 20
8.039582145148187
 30
0.0
 10
5.439646015801432
 20
8.03685799389483
 30
0.0
 10
5.393763176203353
 20
8.026294818983657
 30
0.0
 10
5.343759207061982
 20
8.006546521386511
 30
0.0
 10
5.302053461493112
 20
7.980082790837119
 30
0.0
 10
5.270654125815426
 20
7.948573373731292
 30
0.0
 10
5.250458014951792
 20
7.914002992581149
 30
0.0
 10
5.242985199270655
 20
7.885199803382782
 30
0.0
 10
5.242512466408285
 20
7.8689685472301
 30
0.0
 10
5.242401312301765
 20
7.865152077255189
 30
0.0
  0
LINE
  5
A0B
330
2
100
AcDbEntity
  8
PART
 62
     1
100
AcDbLine
 10
6.097401329377952
 20
4.498090240549991
 30
0.0
 11
6.117401298277954
 21
4.498090240549991
 31
0.0
  0
LINE
  5
A0C
330
2
100
AcDbEntity
  8
PART
 62
     1
100
AcDbLine
 10
6.097401329377952
 20
4.345906118549986
 30
0.0
 11
6.117401298277954
 21
4.345906118549986
 31
0.0
  0
LINE
  5
A0D
330
2
100
AcDbEntity
  8
PART
 62
     1
100
AcDbLine
 10
6.097401329377952
 20
3.73254293754999
 30
0.0
 11
6.117401298277954
 21
3.73254293754999
 31
0.0
  0
LINE
  5
A0E
330
2
100
AcDbEntity
  8
PART
 62
     1
100
AcDbLine
 10
6.117401298277954
 20
8.755651630149991
 30
0.0
 11
6.097401329377952
 21
8.755651630149991
 31
0.0
  0
LINE
  5
A0F
330
2
100
AcDbEntity
  8
PART
 62
     1
100
AcDbLine
 10
6.117401298277954
 20
8.862250078649989
 30
0.0
 11
6.097401329377952
 21
8.862250078649989
 31
0.0
  0
LINE
  5
A10
330
2
100
AcDbEntity
  8
PART
 62
     1
100
AcDbLine
 10
6.097401329377952
 20
3.534568984549991
 30
0.0
 11
6.117401298277954
 21
3.534568984549991
 31
0.0
  0
LINE
  5
A11
330
2
100
AcDbEntity
  8
PART
 62
     1
100
AcDbLine
 10
7.322895118977953
 20
3.691303093949986
 30
0.0
 11
7.495429739177964
 21
3.691303093949986
 31
0.0
  0
LINE
  5
A12
330
2
100
AcDbEntity
  8
PART
 62
     1
100
AcDbLine
 10
6.192453137977963
 20
3.272887874149986
 30
0.0
 11
6.195025054877962
 21
3.27084307114999
 31
0.0
  0
LWPOLYLINE
  5
A13
330
2
100
AcDbEntity
  8
PART
 62
     1
100
AcDbPolyline
 90
        6
 70
   128
 43
0.0
 10
6.180033988077966
 20
3.281055939749993
 10
6.179990721877953
 20
3.281061513049991
 10
6.183560400677954
 20
3.279000576849991
 10
6.192445584677951
 20
3.27289403404999
 10
6.192453137977963
 20
3.272887874149986
 10
6.192453137977963
 20
3.272887874149986
  0
SPLINE
  5
A14
330
2
100
AcDbEntity
  8
PART
 62
     1
100
AcDbSpline
210
0.0
220
0.0
230
1.0
 70
     8
 71
     3
 72
     9
 73
     5
 74
     0
 42
0.0000000001
 43
0.0000000001
 40
0.0
 40
0.0
 40
0.0
 40
0.0
 40
0.4253841025411653
 40
1.0
 40
1.0
 40
1.0
 40
1.0
 10
6.163584338112677
 20
9.263004489144847
 30
0.0
 10
6.162767428161146
 20
9.26246412853824
 30
0.0
 10
6.160847022704864
 20
9.261193839866461
 30
0.0
 10
6.160737088400018
 20
9.261117413769046
 30
0.0
 10
6.160673918400767
 20
9.261073498118488
 30
0.0
  0
SPLINE
  5
A15
330
2
100
AcDbEntity
  8
PART
 62
     1
100
AcDbSpline
210
0.0
220
0.0
230
1.0
 70
     8
 71
     3
 72
    10
 73
     6
 74
     0
 42
0.0000000001
 43
0.0000000001
 40
0.0
 40
0.0
 40
0.0
 40
0.0
 40
0.151347411378971
 40
0.7171642563418378
 40
1.0
 40
1.0
 40
1.0
 40
1.0
 10
6.162326245979585
 20
9.261676877814863
 30
0.0
 10
6.160255434866733
 20
9.260589369439042
 30
0.0
 10
6.150442834186975
 20
9.255436178323911
 30
0.0
 10
6.138149342407217
 20
9.244194831704067
 30
0.0
 10
6.133042974888105
 20
9.23476986304777
 30
0.0
 10
6.131341143922135
 20
9.231628744933459
 30
0.0
  0
SPLINE
  5
A16
330
2
100
AcDbEntity
  8
PART
 62
     1
100
AcDbSpline
210
0.0
220
0.0
230
1.0
 70
    11
 71
     3
 72
    15
 73
    11
 74
     0
 42
0.0000000001
 43
0.0000000001
 40
0.0
 40
0.0
 40
0.0
 40
0.0
 40
0.0044237533507811
 40
0.2005916447159826
 40
0.3785945582536536
 40
0.5
 40
0.6214054417463465
 40
0.7994083552840176
 40
0.9955762466492188
 40
1.0
 40
1.0
 40
1.0
 40
1.0
 10
6.116581514426634
 20
9.244246625837291
 30
0.0
 10
6.116800962652376
 20
9.24427548214885
 30
0.0
 10
6.126751671256826
 20
9.245583949085791
 30
0.0
 10
6.138266929404053
 20
9.247911499907061
 30
0.0
 10
6.149873142672952
 20
9.250666006505831
 30
0.0
 10
6.152356043577292
 20
9.251625152157757
 30
0.0
 10
6.149873142672952
 20
9.250666006505831
 30
0.0
 10
6.138266929404053
 20
9.247911499907068
 30
0.0
 10
6.126751671256826
 20
9.245583949085776
 30
0.0
 10
6.116800962652376
 20
9.24427548214885
 30
0.0
 10
6.116581514426634
 20
9.244246625837291
 30
0.0
  0
SPLINE
  5
A17
330
2
100
AcDbEntity
  8
PART
 62
     1
100
AcDbSpline
210
0.0
220
0.0
230
1.0
 70
     8
 71
     3
 72
    13
 73
     9
 74
     0
 42
0.0000000001
 43
0.0000000001
 40
0.0
 40
0.0
 40
0.0
 40
0.0
 40
0.0276976242614294
 40
0.2592676711244878
 40
0.4002764272327928
 40
0.5752903307933818
 40
0.7919433013597166
 40
1.0
 40
1.0
 40
1.0
 40
1.0
 10
5.159961409133725
 20
3.797914888992931
 30
0.0
 10
5.159974757939004
 20
3.79790700583193
 30
0.0
 10
5.160099711387204
 20
3.797833214348024
 30
0.0
 10
5.164025402648334
 20
3.795521935792994
 30
0.0
 10
5.175687951246356
 20
3.786870478347719
 30
0.0
 10
5.190909951168041
 20
3.772989446854431
 30
0.0
 10
5.207233288739704
 20
3.754428842851702
 30
0.0
 10
5.21558764613438
 20
3.738799218166029
 30
0.0
 10
5.219680277277106
 20
3.731142580352337
 30
0.0
  0
SPLINE
  5
A18
330
2
100
AcDbEntity
  8
PART
 62
     1
100
AcDbSpline
210
0.0
220
0.0
230
1.0
 70
     8
 71
     3
 72
    14
 73
    10
 74
     0
 42
0.0000000001
 43
0.0000000001
 40
0.0
 40
0.0
 40
0.0
 40
0.0
 40
0.1116400471664
 40
0.3222120296525442
 40
0.4972408069125311
 40
0.6355319587949447
 40
0.7416856951483164
 40
0.8581709548547548
 40
1.0
 40
1.0
 40
1.0
 40
1.0
 10
5.220552648553557
 20
8.745073858990362
 30
0.0
 10
5.218480398576417
 20
8.740818096300863
 30
0.0
 10
5.212499535185266
 20
8.728535246474951
 30
0.0
 10
5.199662782952898
 20
8.711855291931769
 30
0.0
 10
5.184916063127495
 20
8.696188522969457
 30
0.0
 10
5.173254055001734
 20
8.68632647470557
 30
0.0
 10
5.16593430729393
 20
8.680927961572589
 30
0.0
 10
5.161299335085836
 20
8.677870574674081
 30
0.0
 10
5.160450368653073
 20
8.677379800176417
 30
0.0
 10
5.159984238453326
 20
8.677110337444087
 30
0.0
  0
LINE
  5
A19
330
2
100
AcDbEntity
  8
PART
 62
     1
100
AcDbLine
 10
5.479085290477954
 20
3.269349141649989
 30
0.0
 11
6.054908966877952
 21
3.23702418174999
 31
0.0
  0
SPLINE
  5
A1A
330
2
100
AcDbEntity
  8
PART
 62
     1
100
AcDbSpline
210
0.0
220
0.0
230
1.0
 70
     8
 71
     3
 72
    11
 73
     7
 74
     0
 42
0.0000000001
 43
0.0000000001
 40
0.0
 40
0.0
 40
0.0
 40
0.0
 40
0.2741505800677226
 40
0.675733903799065
 40
0.9976808837973971
 40
1.0
 40
1.0
 40
1.0
 40
1.0
 10
6.115990161257993
 20
3.23076774739178
 30
0.0
 10
6.121836937916203
 20
3.229862858712689
 30
0.0
 10
6.136248234127656
 20
3.227632464162837
 30
0.0
 10
6.147079283030514
 20
3.225293606095952
 30
0.0
 10
6.153379573605146
 20
3.222854099700906
 30
0.0
 10
6.151947620500411
 20
3.223555613497868
 30
0.0
 10
6.151937379325996
 20
3.223560630648997
 30
0.0
  0
LINE
  5
A1B
330
2
100
AcDbEntity
  8
PART
 62
     1
100
AcDbLine
 10
6.054908966877952
 20
9.237975818249992
 30
0.0
 11
5.479085290477954
 21
9.20565085834999
 31
0.0
  0
SPLINE
  5
A1C
330
2
100
AcDbEntity
  8
PART
 62
     1
100
AcDbSpline
210
0.0
220
0.0
230
1.0
 70
     8
 71
     3
 72
     9
 73
     5
 74
     0
 42
0.0000000001
 43
0.0000000001
 40
0.0
 40
0.0
 40
0.0
 40
0.0
 40
0.7291318143605792
 40
1.0
 40
1.0
 40
1.0
 40
1.0
 10
6.149426548331323
 20
3.22322242122269
 30
0.0
 10
6.152150838951232
 20
3.220332210831887
 30
0.0
 10
6.155887187532144
 20
3.21636830425988
 30
0.0
 10
6.160919804095275
 20
3.213874989881951
 30
0.0
 10
6.162282979812733
 20
3.213199630340159
 30
0.0
  0
SPLINE
  5
A1D
330
2
100
AcDbEntity
  8
PART
 62
     1
100
AcDbSpline
210
0.0
220
0.0
230
1.0
 70
     8
 71
     3
 72
     9
 73
     5
 74
     0
 42
0.0000000001
 43
0.0000000001
 40
0.0
 40
0.0
 40
0.0
 40
0.0
 40
0.444851849917855
 40
1.0
 40
1.0
 40
1.0
 40
1.0
 10
6.160618919036107
 20
3.213963168186381
 30
0.0
 10
6.160692215009913
 20
3.213915074782182
 30
0.0
 10
6.160856979917202
 20
3.213806963724049
 30
0.0
 10
6.162387463603412
 20
3.212779656275998
 30
0.0
 10
6.163237108790553
 20
3.212209348446648
 30
0.0
  0
LINE
  5
A1E
330
2
100
AcDbEntity
  8
PART
 62
     1
100
AcDbLine
 10
7.495429739177964
 20
8.783696906149991
 30
0.0
 11
7.322895118977953
 21
8.783696906149991
 31
0.0
  0
LINE
  5
A2D
330
2
100
AcDbEntity
  8
PART
 62
     1
100
AcDbLine
 10
7.050401280177965
 20
4.816313191049989
 30
0.0
 11
7.050401280177965
 21
4.75926902334999
 31
0.0
  0
LINE
  5
A2E
330
2
100
AcDbEntity
  8
PART
 62
     1
100
AcDbLine
 10
7.050401280177965
 20
8.041384854749992
 30
0.0
 11
7.050401280177965
 21
4.816313191049989
 31
0.0
  0
LINE
  5
A2F
330
2
100
AcDbEntity
  8
PART
 62
     1
100
AcDbLine
 10
7.007401310277952
 20
3.291499952449992
 30
0.0
 11
7.007401310277955
 21
9.183500047549991
 31
0.0
  0
SPLINE
  5
A30
330
2
100
AcDbEntity
  8
PART
 62
     1
100
AcDbSpline
210
0.0
220
0.0
230
1.0
 70
     8
 71
     3
 72
    10
 73
     6
 74
     0
 42
0.0000000001
 43
0.0000000001
 40
0.0
 40
0.0
 40
0.0
 40
0.0
 40
0.3342174388542144
 40
0.6704167911354324
 40
1.0
 40
1.0
 40
1.0
 40
1.0
 10
6.192401291883435
 20
3.188170666143559
 30
0.0
 10
6.192773965025363
 20
3.187612079033886
 30
0.0
 10
6.193521521265413
 20
3.186491592386275
 30
0.0
 10
6.200140921640194
 20
3.185013726155222
 30
0.0
 10
6.207839757897904
 20
3.184401065876649
 30
0.0
 10
6.211650922843372
 20
3.184097779860561
 30
0.0
  0
SPLINE
  5
A31
330
2
100
AcDbEntity
  8
PART
 62
     1
100
AcDbSpline
210
0.0
220
0.0
230
1.0
 70
     8
 71
     3
 72
     9
 73
     5
 74
     0
 42
0.0000000001
 43
0.0000000001
 40
0.0
 40
0.0
 40
0.0
 40
0.0
 40
0.3655443635111981
 40
1.0
 40
1.0
 40
1.0
 40
1.0
 10
6.782096486340883
 20
3.16688165874266
 30
0.0
 10
6.714065158635317
 20
3.166739684227298
 30
0.0
 10
6.527955524630566
 20
3.16635129220289
 30
0.0
 10
6.334432620291195
 20
3.177209028112933
 30
0.0
 10
6.211650922843372
 20
3.184097779860561
 30
0.0
  0
SPLINE
  5
A32
330
2
100
AcDbEntity
  8
PART
 62
     1
100
AcDbSpline
210
0.0
220
0.0
230
1.0
 70
     8
 71
     3
 72
    13
 73
     9
 74
     0
 42
0.0000000001
 43
0.0000000001
 40
0.0
 40
0.0
 40
0.0
 40
0.0
 40
0.1442849026218793
 40
0.3277306529348312
 40
0.5051303342132814
 40
0.6782523268899401
 40
0.851346176897686
 40
1.0
 40
1.0
 40
1.0
 40
1.0
 10
6.782096486340883
 20
3.193273727192565
 30
0.0
 10
6.797533640665402
 20
3.191603301569898
 30
0.0
 10
6.832597798968116
 20
3.187809074522959
 30
0.0
 10
6.867050086024505
 20
3.180850961965401
 30
0.0
 10
6.879589869032344
 20
3.17447434535008
 30
0.0
 10
6.866122093187765
 20
3.170034187080648
 30
0.0
 10
6.832365743016094
 20
3.167679677497918
 30
0.0
 10
6.797982314191035
 20
3.167133844460245
 30
0.0
 10
6.782096486340883
 20
3.16688165874266
 30
0.0
  0
SPLINE
  5
A33
330
2
100
AcDbEntity
  8
PART
 62
     1
100
AcDbSpline
210
0.0
220
0.0
230
1.0
 70
     8
 71
     3
 72
     9
 73
     5
 74
     0
 42
0.0000000001
 43
0.0000000001
 40
0.0
 40
0.0
 40
0.0
 40
0.0
 40
0.3557225215666178
 40
1.0
 40
1.0
 40
1.0
 40
1.0
 10
6.211650922843372
 20
3.265815395851682
 30
0.0
 10
6.280809929520245
 20
3.255491339341865
 30
0.0
 10
6.475228338487625
 20
3.226468559270632
 30
0.0
 10
6.66185629628563
 20
3.206280462970909
 30
0.0
 10
6.782096486340883
 20
3.193273727192565
 30
0.0
  0
SPLINE
  5
A34
330
2
100
AcDbEntity
  8
PART
 62
     1
100
AcDbSpline
210
0.0
220
0.0
230
1.0
 70
     8
 71
     3
 72
    11
 73
     7
 74
     0
 42
0.0000000001
 43
0.0000000001
 40
0.0
 40
0.0
 40
0.0
 40
0.0
 40
0.3096948139733902
 40
0.6198624970252464
 40
0.9210876570165959
 40
1.0
 40
1.0
 40
1.0
 40
1.0
 10
6.211650922843372
 20
3.265815395851682
 30
0.0
 10
6.208039752518985
 20
3.266478644577158
 30
0.0
 10
6.200811898020067
 20
3.26780615473417
 30
0.0
 10
6.194479997508341
 20
3.2708713422981
 30
0.0
 10
6.192528628867012
 20
3.27341067621268
 30
0.0
 10
6.192423181575382
 20
3.27483694410148
 30
0.0
 10
6.192401291883435
 20
3.275133021547009
 30
0.0
  0
LINE
  5
A35
330
2
100
AcDbEntity
  8
PART
 62
     1
100
AcDbLine
 10
6.192401291877963
 20
3.27513302154999
 30
0.0
 11
6.192401291877963
 21
9.286829333949988
 31
0.0
  0
SPLINE
  5
A36
330
2
100
AcDbEntity
  8
PART
 62
     1
100
AcDbSpline
210
0.0
220
0.0
230
1.0
 70
     8
 71
     3
 72
    10
 73
     6
 74
     0
 42
0.0000000001
 43
0.0000000001
 40
0.0
 40
0.0
 40
0.0
 40
0.0
 40
0.3342174388542144
 40
0.6704167911354324
 40
1.0
 40
1.0
 40
1.0
 40
1.0
 10
6.192401291883435
 20
9.286829333918205
 30
0.0
 10
6.192773965025367
 20
9.287387921027882
 30
0.0
 10
6.193521521265417
 20
9.28850840767549
 30
0.0
 10
6.200140921640198
 20
9.289986273906549
 30
0.0
 10
6.207839757897907
 20
9.290598934185123
 30
0.0
 10
6.211650922843375
 20
9.290902220201207
 30
0.0
  0
SPLINE
  5
A37
330
2
100
AcDbEntity
  8
PART
 62
     1
100
AcDbSpline
210
0.0
220
0.0
230
1.0
 70
     8
 71
     3
 72
     9
 73
     5
 74
     0
 42
0.0000000001
 43
0.0000000001
 40
0.0
 40
0.0
 40
0.0
 40
0.0
 40
0.2759942391287786
 40
1.0
 40
1.0
 40
1.0
 40
1.0
 10
6.712703274643864
 20
9.307754025527717
 30
0.0
 10
6.667637771637537
 20
9.3077667551977
 30
0.0
 10
6.504353555457626
 20
9.307812878153079
 30
0.0
 10
6.334573013386624
 20
9.298003944600953
 30
0.0
 10
6.211650922843375
 20
9.290902220201207
 30
0.0
  0
SPLINE
  5
A38
330
2
100
AcDbEntity
  8
PART
 62
     1
100
AcDbSpline
210
0.0
220
0.0
230
1.0
 70
     8
 71
     3
 72
    10
 73
     6
 74
     0
 42
0.0000000001
 43
0.0000000001
 40
0.0
 40
0.0
 40
0.0
 40
0.0
 40
0.2497670640065417
 40
0.7609177251954708
 40
1.0
 40
1.0
 40
1.0
 40
1.0
 10
6.192401291883435
 20
9.286829333918205
 30
0.0
 10
6.188256711684879
 20
9.283107745659147
 30
0.0
 10
6.175630208870657
 20
9.271769891793329
 30
0.0
 10
6.162256474336693
 20
9.26079506479169
 30
0.0
 10
6.156005140707385
 20
9.256424561752744
 30
0.0
 10
6.154012982015132
 20
9.255031781246273
 30
0.0
  0
LINE
  5
A39
330
2
100
AcDbEntity
  8
PART
 62
     1
100
AcDbLine
 10
6.117401298277954
 20
7.545285159049988
 30
0.0
 11
6.117401298277954
 21
5.332724592049991
 31
0.0
  0
LINE
  5
A3A
330
2
100
AcDbEntity
  8
PART
 62
     1
100
AcDbLine
 10
5.132401314577954
 20
8.652499955049989
 30
0.0
 11
5.132401314577951
 21
3.822500044949993
 31
0.0
  0
LINE
  5
A3B
330
2
100
AcDbEntity
  8
PART
 62
     1
100
AcDbLine
 10
5.242401312277952
 20
4.948686688549987
 30
0.0
 11
5.242401312277952
 21
5.16453008174999
 31
0.0
  0
LINE
  5
A3C
330
2
100
AcDbEntity
  8
PART
 62
     1
100
AcDbLine
 10
6.117401298277954
 20
4.606964489449989
 30
0.0
 11
6.117401298277954
 21
3.35872120254999
 31
0.0
  0
LINE
  5
A3D
330
2
100
AcDbEntity
  8
PART
 62
     1
100
AcDbLine
 10
6.117488270577965
 20
4.605710943949986
 30
0.0
 11
6.117401298277954
 21
4.606964489449989
 31
0.0
  0
SPLINE
  5
A3E
330
2
100
AcDbEntity
  8
PART
 62
     1
100
AcDbSpline
210
0.0
220
0.0
230
1.0
 70
     8
 71
     3
 72
    11
 73
     7
 74
     0
 42
0.0000000001
 43
0.0000000001
 40
0.0
 40
0.0
 40
0.0
 40
0.0
 40
0.1511036188095886
 40
0.6703127834282184
 40
0.8643279199877648
 40
1.0
 40
1.0
 40
1.0
 40
1.0
 10
6.11748827061838
 20
3.353828752447206
 30
0.0
 10
6.117624126259926
 20
3.351266227009471
 30
0.0
 10
6.118226797287626
 20
3.339898573658011
 30
0.0
 10
6.120664131879024
 20
3.326624737321068
 30
0.0
 10
6.123482106186425
 20
3.315246543940208
 30
0.0
 10
6.124673487581695
 20
3.311108549628809
 30
0.0
 10
6.125163761950446
 20
3.309405692292859
 30
0.0
  0
LWPOLYLINE
  5
A3F
330
2
100
AcDbEntity
  8
PART
 62
     1
100
AcDbPolyline
 90
        3
 70
   128
 43
0.0
 10
6.117488270577965
 20
4.605710943949986
 10
6.113968971277952
 20
4.637363004949992
 10
6.105642140777966
 20
4.663713860549989
  0
LINE
  5
A40
330
2
100
AcDbEntity
  8
PART
 62
     1
100
AcDbLine
 10
5.242401312277952
 20
5.16453008174999
 30
0.0
 11
5.242401312277952
 21
5.21870929584999
 31
0.0
  0
LINE
  5
A41
330
2
100
AcDbEntity
  8
PART
 62
     1
100
AcDbLine
 10
5.242401312277952
 20
7.667016646149992
 30
0.0
 11
5.242401312277952
 21
7.865152077249991
 31
0.0
  0
LINE
  5
A42
330
2
100
AcDbEntity
  8
PART
 62
     1
100
AcDbLine
 10
6.117116548277952
 20
8.204452544249988
 30
0.0
 11
6.117488270577965
 21
8.21344560044999
 31
0.0
  0
LINE
  5
A43
330
2
100
AcDbEntity
  8
PART
 62
     1
100
AcDbLine
 10
6.097401329377952
 20
4.519224223049992
 30
0.0
 11
6.117401298277954
 21
4.519224223049992
 31
0.0
  0
LINE
  5
A44
330
2
100
AcDbEntity
  8
PART
 62
     1
100
AcDbLine
 10
6.097401329377952
 20
4.644332377749989
 30
0.0
 11
6.112268610877954
 21
4.644332377749989
 31
0.0
  0
SPLINE
  5
A45
330
2
100
AcDbEntity
  8
PART
 62
     1
100
AcDbSpline
210
0.0
220
0.0
230
1.0
 70
    24
 71
     3
 72
    11
 73
     7
 74
     0
 42
0.0000000001
 43
0.0000000001
 40
0.0
 40
0.0
 40
0.0
 40
0.0
 40
0.5007934434524107
 40
0.7498643675598009
 40
0.874836525398287
 40
1.0
 40
1.0
 40
1.0
 40
1.0
 10
6.097401329331106
 20
4.644332377772538
 30
0.0
 10
6.097401329331106
 20
4.628304777090409
 30
0.0
 10
6.097401329331106
 20
4.604305807443068
 30
0.0
 10
6.097401329331106
 20
4.56257650816623
 30
0.0
 10
6.097401329331106
 20
4.53591555187495
 30
0.0
 10
6.097401329331106
 20
4.5247908355676
 30
0.0
 10
6.097401329331106
 20
4.519224223032612
 30
0.0
  0
LINE
  5
A46
330
2
100
AcDbEntity
  8
PART
 62
     1
100
AcDbLine
 10
6.117401298277954
 20
9.17582066964999
 30
0.0
 11
6.117401298277954
 21
8.211503462849993
 31
0.0
  0
SPLINE
  5
A47
330
2
100
AcDbEntity
  8
PART
 62
     1
100
AcDbSpline
210
0.0
220
0.0
230
1.0
 70
     8
 71
     3
 72
    10
 73
     6
 74
     0
 42
0.0000000001
 43
0.0000000001
 40
0.0
 40
0.0
 40
0.0
 40
0.0
 40
0.2918213471431922
 40
0.7450082788623642
 40
1.0
 40
1.0
 40
1.0
 40
1.0
 10
6.125163761950446
 20
9.221049507145721
 30
0.0
 10
6.124130250848217
 20
9.217840493986951
 30
0.0
 10
6.121491738158894
 20
9.20964801117627
 30
0.0
 10
6.118536829943415
 20
9.19618500297954
 30
0.0
 10
6.117765868387394
 20
9.184706733453101
 30
0.0
 10
6.11748827061838
 20
9.180573788058012
 30
0.0
  0
LINE
  5
A48
330
2
100
AcDbEntity
  8
PART
 62
     1
100
AcDbLine
 10
5.242401312277952
 20
7.596885416249989
 30
0.0
 11
5.242401312277952
 21
7.667016646149992
 31
0.0
  0
SPLINE
  5
A49
330
2
100
AcDbEntity
  8
PART
 62
     1
100
AcDbSpline
210
0.0
220
0.0
230
1.0
 70
    24
 71
     3
 72
    10
 73
     6
 74
     0
 42
0.0000000001
 43
0.0000000001
 40
0.0
 40
0.0
 40
0.0
 40
0.0
 40
0.3755985913953711
 40
0.7511641609698489
 40
1.0
 40
1.0
 40
1.0
 40
1.0
 10
6.097401329331106
 20
4.519224223032612
 30
0.0
 10
6.097401329331106
 20
4.514497666176431
 30
0.0
 10
6.097401329331106
 20
4.505044968012796
 30
0.0
 10
6.097401329331106
 20
4.497926405454862
 30
0.0
 10
6.097401329331106
 20
4.499612434033277
 30
0.0
 10
6.097401329331106
 20
4.500284348494332
 30
0.0
  0
SPLINE
  5
A4A
330
2
100
AcDbEntity
  8
PART
 62
     1
100
AcDbSpline
210
0.0
220
0.0
230
1.0
 70
    24
 71
     3
 72
     9
 73
     5
 74
     0
 42
0.0000000001
 43
0.0000000001
 40
0.0
 40
0.0
 40
0.0
 40
0.0
 40
0.558328988624413
 40
1.0
 40
1.0
 40
1.0
 40
1.0
 10
6.097401329331106
 20
4.686286479781831
 30
0.0
 10
6.097401329331106
 20
4.681508976819543
 30
0.0
 10
6.097401329331106
 20
4.672952188510812
 30
0.0
 10
6.097401329331106
 20
4.653100356496118
 30
0.0
 10
6.097401329331106
 20
4.644332377772538
 30
0.0
  0
LINE
  5
A4B
330
2
100
AcDbEntity
  8
PART
 62
     1
100
AcDbLine
 10
6.097401329377952
 20
4.36406221544999
 30
0.0
 11
6.117401298277954
 21
4.36406221544999
 31
0.0
  0
LINE
  5
A4C
330
2
100
AcDbEntity
  8
PART
 62
     1
100
AcDbLine
 10
6.097401329377952
 20
4.49265806324999
 30
0.0
 11
6.117401298277954
 21
4.49265806324999
 31
0.0
  0
SPLINE
  5
A4D
330
2
100
AcDbEntity
  8
PART
 62
     1
100
AcDbSpline
210
0.0
220
0.0
230
1.0
 70
    24
 71
     3
 72
    11
 73
     7
 74
     0
 42
0.0000000001
 43
0.0000000001
 40
0.0
 40
0.0
 40
0.0
 40
0.0
 40
0.5008360713310605
 40
0.749919336535154
 40
0.8748725016498093
 40
1.0
 40
1.0
 40
1.0
 40
1.0
 10
6.097401329331106
 20
4.492658063260492
 30
0.0
 10
6.097401329331106
 20
4.475329126642609
 30
0.0
 10
6.097401329331106
 20
4.449381904796542
 30
0.0
 10
6.097401329331106
 20
4.406413144974731
 30
0.0
 10
6.097401329331106
 20
4.37997328649099
 30
0.0
 10
6.097401329331106
 20
4.369368370072656
 30
0.0
 10
6.097401329331106
 20
4.36406221547736
 30
0.0
  0
SPLINE
  5
A4E
330
2
100
AcDbEntity
  8
PART
 62
     1
100
AcDbSpline
210
0.0
220
0.0
230
1.0
 70
    24
 71
     3
 72
    10
 73
     6
 74
     0
 42
0.0000000001
 43
0.0000000001
 40
0.0
 40
0.0
 40
0.0
 40
0.0
 40
0.4208268324011213
 40
0.8419050211732422
 40
1.0
 40
1.0
 40
1.0
 40
1.0
 10
6.097401329331106
 20
4.36406221547736
 30
0.0
 10
6.097401329331106
 20
4.359697010188121
 30
0.0
 10
6.097401329331106
 20
4.350963992308781
 30
0.0
 10
6.097401329331106
 20
4.345124749450132
 30
0.0
 10
6.097401329331106
 20
4.34690984346691
 30
0.0
 10
6.097401329331106
 20
4.347397114660701
 30
0.0
  0
LINE
  5
A4F
330
2
100
AcDbEntity
  8
PART
 62
     1
100
AcDbLine
 10
6.097401329377952
 20
4.54065417544999
 30
0.0
 11
6.097401329377952
 21
4.533003690549993
 31
0.0
  0
LINE
  5
A50
330
2
100
AcDbEntity
  8
PART
 62
     1
100
AcDbLine
 10
7.243401383977964
 20
3.769655628749987
 30
0.0
 11
7.243401383977964
 21
4.451086610149992
 31
0.0
  0
LINE
  5
A51
330
2
100
AcDbEntity
  8
PART
 62
     1
100
AcDbLine
 10
7.488647364177964
 20
4.451086610149992
 30
0.0
 11
7.243401383977964
 21
4.451086610149992
 31
0.0
  0
LINE
  5
A52
330
2
100
AcDbEntity
  8
PART
 62
     1
100
AcDbLine
 10
7.488647364177964
 20
3.700389868949987
 30
0.0
 11
7.488647364177964
 21
4.451086610149992
 31
0.0
  0
ELLIPSE
  5
A53
330
2
100
AcDbEntity
  8
PART
 62
     1
100
AcDbEllipse
 10
7.353401312077956
 20
6.23750000004999
 30
0.0
 11
-0.3708526437008091
 21
2.733124651522319
 31
0.0
210
0.0
220
0.0
230
1.0
 40
0.338144848
 41
2.649302635139179
 42
2.712097276188436
  0
ARC
  5
A54
330
2
100
AcDbEntity
  8
PART
 62
     1
100
AcDbCircle
 10
7.407532922577953
 20
4.555203141449986
 30
0.0
 40
0.1319841078476857
100
AcDbArc
 50
307.9212153034999
 51
357.6011053039001
  0
LINE
  5
A55
330
2
100
AcDbEntity
  8
PART
 62
     1
100
AcDbLine
 10
7.539401364577955
 20
3.796839688049992
 30
0.0
 11
7.539401364577955
 21
4.549678764549991
 31
0.0
  0
ARC
  5
A56
330
2
100
AcDbEntity
  8
PART
 62
     1
100
AcDbCircle
 10
7.316355433477966
 20
3.79684591134999
 30
0.0
 40
0.2230459311775879
100
AcDbArc
 50
354.4096987794
 51
359.9984013616
  0
SPLINE
  5
A57
330
2
100
AcDbEntity
  8
PART
 62
     1
100
AcDbSpline
210
0.0
220
0.0
230
1.0
 70
     8
 71
     3
 72
    12
 73
     8
 74
     0
 42
0.0000000001
 43
0.0000000001
 40
0.0
 40
0.0
 40
0.0
 40
0.0
 40
0.1799200621582629
 40
0.3590292425034545
 40
0.5576859377490271
 40
0.7827005460307288
 40
1.0
 40
1.0
 40
1.0
 40
1.0
 10
7.488647364204865
 20
3.700389868943616
 30
0.0
 10
7.489475604776423
 20
3.696733363573649
 30
0.0
 10
7.491128353121766
 20
3.689436832339488
 30
0.0
 10
7.502516439950436
 20
3.692504289004972
 30
0.0
 10
7.516802993240425
 20
3.7065124545487
 30
0.0
 10
7.531596082868542
 20
3.733705579758499
 30
0.0
 10
7.536118680947456
 20
3.761475332474383
 30
0.0
 10
7.538340536811745
 20
3.775118019010982
 30
0.0
  0
LINE
  5
A58
330
2
100
AcDbEntity
  8
PART
 62
     1
100
AcDbLine
 10
6.097401329377952
 20
4.222582436549991
 30
0.0
 11
6.117401298277954
 21
4.222582436549991
 31
0.0
  0
LINE
  5
A59
330
2
100
AcDbEntity
  8
PART
 62
     1
100
AcDbLine
 10
6.097401329377952
 20
4.240142780349991
 30
0.0
 11
6.097401329377952
 21
4.222582436549991
 31
0.0
  0
LINE
  5
A5A
330
2
100
AcDbEntity
  8
PART
 62
     1
100
AcDbLine
 10
6.097401329377952
 20
4.240142780349991
 30
0.0
 11
6.117401298277954
 21
4.240142780349991
 31
0.0
  0
LINE
  5
A5B
330
2
100
AcDbEntity
  8
PART
 62
     1
100
AcDbLine
 10
6.097401329377952
 20
4.339430126649986
 30
0.0
 11
6.097401329377952
 21
4.240142780349991
 31
0.0
  0
LINE
  5
A5C
330
2
100
AcDbEntity
  8
PART
 62
     1
100
AcDbLine
 10
6.097401329377952
 20
8.400635131349989
 30
0.0
 11
6.117401298277954
 21
8.400635131349989
 31
0.0
  0
LINE
  5
A5D
330
2
100
AcDbEntity
  8
PART
 62
     1
100
AcDbLine
 10
6.097401329377952
 20
8.14992221424999
 30
0.0
 11
6.097401329377952
 21
8.400635131349989
 31
0.0
  0
LWPOLYLINE
  5
A5E
330
2
100
AcDbEntity
  8
PART
 62
     1
100
AcDbPolyline
 90
        9
 70
   128
 43
0.0
 10
7.037401337077955
 20
4.566654941749991
 10
7.031548671277956
 20
4.56627859944999
 10
7.025920842977953
 20
4.565163945649988
 10
7.020734182877962
 20
4.56335380654999
 10
7.016188155377964
 20
4.560917848049992
 10
7.012457291877954
 20
4.557949495649989
 10
7.009684883877955
 20
4.554563001449988
 10
7.007977703577957
 20
4.550888457249993
 10
7.007401310277952
 20
4.547067101349991
  0
LINE
  5
A5F
330
2
100
AcDbEntity
  8
PART
 62
     1
100
AcDbLine
 10
7.007401310277952
 20
4.75926902334999
 30
0.0
 11
7.488647364177964
 21
4.75926902334999
 31
0.0
  0
ARC
  5
A60
330
2
100
AcDbEntity
  8
PART
 62
     1
100
AcDbCircle
 10
7.407532203677956
 20
4.655152130149993
 30
0.0
 40
0.1319848351853216
100
AcDbArc
 50
2.398974982800137
 51
52.07863503980011
  0
LINE
  5
A61
330
2
100
AcDbEntity
  8
PART
 62
     1
100
AcDbLine
 10
7.539401364577955
 20
4.660676722249991
 30
0.0
 11
7.539401364577955
 21
4.549678764549991
 31
0.0
  0
LWPOLYLINE
  5
A62
330
2
100
AcDbEntity
  8
PART
 62
     1
100
AcDbPolyline
 90
        9
 70
   128
 43
0.0
 10
7.213401357177954
 20
4.566654941749991
 10
7.219254022877954
 20
4.56627859944999
 10
7.224881851277963
 20
4.565163945649988
 10
7.230068364677954
 20
4.56335380654999
 10
7.234614538777954
 20
4.560917848049992
 10
7.238345402377962
 20
4.557949495649989
 10
7.241117663677954
 20
4.554563001449988
 10
7.242824843977956
 20
4.550888457249993
 10
7.243401383977964
 20
4.547067101349991
  0
LINE
  5
A63
330
2
100
AcDbEntity
  8
PART
 62
     1
100
AcDbLine
 10
7.213401357177954
 20
4.566654941749991
 30
0.0
 11
7.037401337077955
 21
4.566654941749991
 31
0.0
  0
LINE
  5
A64
330
2
100
AcDbEntity
  8
PART
 62
     1
100
AcDbLine
 10
7.243401383977964
 20
4.451086610149992
 30
0.0
 11
7.243401383977964
 21
4.547067101349991
 31
0.0
  0
SPLINE
  5
A65
330
2
100
AcDbEntity
  8
PART
 62
     1
100
AcDbSpline
210
0.0
220
0.0
230
1.0
 70
     8
 71
     3
 72
    12
 73
     8
 74
     0
 42
0.0000000001
 43
0.0000000001
 40
0.0
 40
0.0
 40
0.0
 40
0.0
 40
0.0517322040824433
 40
0.3990382017989618
 40
0.7513428587947987
 40
0.9871408671069403
 40
1.0
 40
1.0
 40
1.0
 40
1.0
 10
7.237709169730955
 20
3.924386587981068
 30
0.0
 10
7.237479468705213
 20
3.924765787262114
 30
0.0
 10
7.235707661648284
 20
3.92769075444481
 30
0.0
 10
7.229734162885492
 20
3.931334251079629
 30
0.0
 10
7.221611119040524
 20
3.934022918074564
 30
0.0
 10
7.215878712660355
 20
3.934211194666168
 30
0.0
 10
7.213523172349283
 20
3.934039565584729
 30
0.0
 10
7.213401357203544
 20
3.934030689904922
 30
0.0
  0
ARC
  5
A66
330
2
100
AcDbEntity
  8
PART
 62
     1
100
AcDbCircle
 10
7.036587114777955
 20
3.79220069714999
 30
0.0
 40
0.0291985421065485
100
AcDbArc
 50
88.40205893760016
 51
178.3075447896999
  0
LINE
  5
A67
330
2
100
AcDbEntity
  8
PART
 62
     1
100
AcDbLine
 10
7.037401337077955
 20
3.82138788444999
 30
0.0
 11
7.243401383977964
 21
3.82138788444999
 31
0.0
  0
LINE
  5
A68
330
2
100
AcDbEntity
  8
PART
 62
     1
100
AcDbLine
 10
6.097401329377952
 20
3.974981163549987
 30
0.0
 11
6.117401298277954
 21
3.974981163549987
 31
0.0
  0
LINE
  5
A69
330
2
100
AcDbEntity
  8
PART
 62
     1
100
AcDbLine
 10
6.097401329377952
 20
4.07543933634999
 30
0.0
 11
6.097401329377952
 21
3.974981163549987
 31
0.0
  0
LINE
  5
A6A
330
2
100
AcDbEntity
  8
PART
 62
     1
100
AcDbLine
 10
6.097401329377952
 20
4.07543933634999
 30
0.0
 11
6.117401298277954
 21
4.07543933634999
 31
0.0
  0
LINE
  5
A6B
330
2
100
AcDbEntity
  8
PART
 62
     1
100
AcDbLine
 10
6.097401329377952
 20
4.097039420149993
 30
0.0
 11
6.117401298277954
 21
4.097039420149993
 31
0.0
  0
LINE
  5
A6C
330
2
100
AcDbEntity
  8
PART
 62
     1
100
AcDbLine
 10
6.097401329377952
 20
4.097039420149993
 30
0.0
 11
6.097401329377952
 21
4.07543933634999
 31
0.0
  0
LINE
  5
A6D
330
2
100
AcDbEntity
  8
PART
 62
     1
100
AcDbLine
 10
6.097401329377952
 20
4.222582436549991
 30
0.0
 11
6.097401329377952
 21
4.097039420149993
 31
0.0
  0
LINE
  5
A6E
330
2
100
AcDbEntity
  8
PART
 62
     1
100
AcDbLine
 10
6.097401329377952
 20
8.496658888749987
 30
0.0
 11
6.117401298277954
 21
8.496658888749987
 31
0.0
  0
LINE
  5
A6F
330
2
100
AcDbEntity
  8
PART
 62
     1
100
AcDbLine
 10
6.097401329377952
 20
8.401963182649993
 30
0.0
 11
6.097401329377952
 21
8.496658888749987
 31
0.0
  0
LINE
  5
A70
330
2
100
AcDbEntity
  8
PART
 62
     1
100
AcDbLine
 10
6.097401329377952
 20
3.92204845494999
 30
0.0
 11
6.117401298277954
 21
3.92204845494999
 31
0.0
  0
LINE
  5
A71
330
2
100
AcDbEntity
  8
PART
 62
     1
100
AcDbLine
 10
6.097401329377952
 20
3.94126845964999
 30
0.0
 11
6.117401298277954
 21
3.94126845964999
 31
0.0
  0
LINE
  5
A72
330
2
100
AcDbEntity
  8
PART
 62
     1
100
AcDbLine
 10
6.097401329377952
 20
3.94126845964999
 30
0.0
 11
6.097401329377952
 21
3.92204845494999
 31
0.0
  0
LINE
  5
A73
330
2
100
AcDbEntity
  8
PART
 62
     1
100
AcDbLine
 10
6.097401329377952
 20
3.97435065074999
 30
0.0
 11
6.097401329377952
 21
3.94126845964999
 31
0.0
  0
LINE
  5
A74
330
2
100
AcDbEntity
  8
PART
 62
     1
100
AcDbLine
 10
6.097401329377952
 20
8.601646955849989
 30
0.0
 11
6.117401298277954
 21
8.601646955849989
 31
0.0
  0
LINE
  5
A75
330
2
100
AcDbEntity
  8
PART
 62
     1
100
AcDbLine
 10
6.097401329377952
 20
8.601646955849989
 30
0.0
 11
6.097401329377952
 21
8.496658888749987
 31
0.0
  0
LINE
  5
A76
330
2
100
AcDbEntity
  8
PART
 62
     1
100
AcDbLine
 10
6.097401329377952
 20
8.670303616049988
 30
0.0
 11
6.117401298277954
 21
8.670303616049988
 31
0.0
  0
LINE
  5
A77
330
2
100
AcDbEntity
  8
PART
 62
     1
100
AcDbLine
 10
6.097401329377952
 20
8.670303616049988
 30
0.0
 11
6.097401329377952
 21
8.601646955849989
 31
0.0
  0
LINE
  5
A78
330
2
100
AcDbEntity
  8
PART
 62
     1
100
AcDbLine
 10
6.097401329377952
 20
3.839445422549989
 30
0.0
 11
6.117401298277954
 21
3.839445422549989
 31
0.0
  0
LINE
  5
A79
330
2
100
AcDbEntity
  8
PART
 62
     1
100
AcDbLine
 10
6.097401329377952
 20
3.85472307274999
 30
0.0
 11
6.117401298277954
 21
3.85472307274999
 31
0.0
  0
LINE
  5
A7A
330
2
100
AcDbEntity
  8
PART
 62
     1
100
AcDbLine
 10
6.097401329377952
 20
3.85472307274999
 30
0.0
 11
6.097401329377952
 21
3.839445422549989
 31
0.0
  0
LINE
  5
A7B
330
2
100
AcDbEntity
  8
PART
 62
     1
100
AcDbLine
 10
6.097401329377952
 20
3.92204845494999
 30
0.0
 11
6.097401329377952
 21
3.85472307274999
 31
0.0
  0
LINE
  5
A7C
330
2
100
AcDbEntity
  8
PART
 62
     1
100
AcDbLine
 10
6.097401329377952
 20
3.812490893949988
 30
0.0
 11
6.117401298277954
 21
3.812490893949988
 31
0.0
  0
LINE
  5
A7D
330
2
100
AcDbEntity
  8
PART
 62
     1
100
AcDbLine
 10
6.097401329377952
 20
3.828296978049991
 30
0.0
 11
6.097401329377952
 21
3.812490893949988
 31
0.0
  0
LINE
  5
A7E
330
2
100
AcDbEntity
  8
PART
 62
     1
100
AcDbLine
 10
6.097401329377952
 20
3.744609944749992
 30
0.0
 11
6.117401298277954
 21
3.744609944749992
 31
0.0
  0
SPLINE
  5
A7F
330
2
100
AcDbEntity
  8
PART
 62
     1
100
AcDbSpline
210
0.0
220
0.0
230
1.0
 70
    24
 71
     3
 72
     9
 73
     5
 74
     0
 42
0.0000000001
 43
0.0000000001
 40
0.0
 40
0.0
 40
0.0
 40
0.0
 40
0.5591548268621423
 40
1.0
 40
1.0
 40
1.0
 40
1.0
 10
6.097401329331106
 20
3.81249089394301
 30
0.0
 10
6.097401329331106
 20
3.796846741019045
 30
0.0
 10
6.097401329331106
 20
3.768868527879497
 30
0.0
 10
6.097401329331106
 20
3.752032171305202
 30
0.0
 10
6.097401329331106
 20
3.74460994477619
 30
0.0
  0
LINE
  5
A80
330
2
100
AcDbEntity
  8
PART
 62
     1
100
AcDbLine
 10
6.097401329377952
 20
8.676421158749988
 30
0.0
 11
6.117401298277954
 21
8.676421158749988
 31
0.0
  0
LINE
  5
A81
330
2
100
AcDbEntity
  8
PART
 62
     1
100
AcDbLine
 10
6.097401329377952
 20
8.744352853949987
 30
0.0
 11
6.117401298277954
 21
8.744352853949987
 31
0.0
  0
SPLINE
  5
A82
330
2
100
AcDbEntity
  8
PART
 62
     1
100
AcDbSpline
210
0.0
220
0.0
230
1.0
 70
    24
 71
     3
 72
    10
 73
     6
 74
     0
 42
0.0000000001
 43
0.0000000001
 40
0.0
 40
0.0
 40
0.0
 40
0.0
 40
0.2804818884900868
 40
0.5607719620564921
 40
1.0
 40
1.0
 40
1.0
 40
1.0
 10
6.097401329331106
 20
8.744352853986132
 30
0.0
 10
6.097401329331106
 20
8.740039536070383
 30
0.0
 10
6.097401329331106
 20
8.731415850014919
 30
0.0
 10
6.097401329331106
 20
8.708451803682859
 30
0.0
 10
6.097401329331106
 20
8.688562521486399
 30
0.0
 10
6.097401329331106
 20
8.676421158738868
 30
0.0
  0
LINE
  5
A83
330
2
100
AcDbEntity
  8
PART
 62
     1
100
AcDbLine
 10
6.097401329377952
 20
8.853875215449988
 30
0.0
 11
6.117401298277954
 21
8.853875215449988
 31
0.0
  0
SPLINE
  5
A84
330
2
100
AcDbEntity
  8
PART
 62
     1
100
AcDbSpline
210
0.0
220
0.0
230
1.0
 70
    24
 71
     3
 72
    11
 73
     7
 74
     0
 42
0.0000000001
 43
0.0000000001
 40
0.0
 40
0.0
 40
0.0
 40
0.0
 40
0.422486484727888
 40
0.6352997585514673
 40
0.8485598861896546
 40
1.0
 40
1.0
 40
1.0
 40
1.0
 10
6.097401329331106
 20
8.853875215441128
 30
0.0
 10
6.097401329331106
 20
8.845870983195851
 30
0.0
 10
6.097401329331106
 20
8.833834889742838
 30
0.0
 10
6.097401329331106
 20
8.806527206447636
 30
0.0
 10
6.097401329331106
 20
8.786797064156882
 30
0.0
 10
6.097401329331106
 20
8.774328280002709
 30
0.0
 10
6.097401329331106
 20
8.76915067418626
 30
0.0
  0
LINE
  5
A85
330
2
100
AcDbEntity
  8
PART
 62
     1
100
AcDbLine
 10
6.097401329377952
 20
8.732167341449986
 30
0.0
 11
6.097401329377952
 21
8.699754969149989
 31
0.0
  0
LINE
  5
A86
330
2
100
AcDbEntity
  8
PART
 62
     1
100
AcDbLine
 10
6.097401329377952
 20
3.640666425549991
 30
0.0
 11
6.117401298277954
 21
3.640666425549991
 31
0.0
  0
LINE
  5
A87
330
2
100
AcDbEntity
  8
PART
 62
     1
100
AcDbLine
 10
6.097401329377952
 20
3.831570686849993
 30
0.0
 11
6.097401329377952
 21
3.819380921049987
 31
0.0
  0
LINE
  5
A88
330
2
100
AcDbEntity
  8
PART
 62
     1
100
AcDbLine
 10
6.097401329377952
 20
3.725996399849989
 30
0.0
 11
6.097401329377952
 21
3.640666425549991
 31
0.0
  0
LINE
  5
A89
330
2
100
AcDbEntity
  8
PART
 62
     1
100
AcDbLine
 10
6.097401329377952
 20
8.699754969149989
 30
0.0
 11
6.097401329377952
 21
8.68484838134999
 31
0.0
  0
LINE
  5
A8A
330
2
100
AcDbEntity
  8
PART
 62
     1
100
AcDbLine
 10
6.097401329377952
 20
3.629136505449988
 30
0.0
 11
6.117401298277954
 21
3.629136505449988
 31
0.0
  0
LINE
  5
A8B
330
2
100
AcDbEntity
  8
PART
 62
     1
100
AcDbLine
 10
6.097401329377952
 20
3.640666425549991
 30
0.0
 11
6.097401329377952
 21
3.629136505449988
 31
0.0
  0
LINE
  5
A8C
330
2
100
AcDbEntity
  8
PART
 62
     1
100
AcDbLine
 10
6.097401329377952
 20
8.90684972344999
 30
0.0
 11
6.097401329377952
 21
8.868695124249988
 31
0.0
  0
LINE
  5
A8D
330
2
100
AcDbEntity
  8
PART
 62
     1
100
AcDbLine
 10
6.097401329377952
 20
8.90684972344999
 30
0.0
 11
6.117401298277954
 21
8.90684972344999
 31
0.0
  0
LINE
  5
A8E
330
2
100
AcDbEntity
  8
PART
 62
     1
100
AcDbLine
 10
6.097401329377952
 20
3.54165847594999
 30
0.0
 11
6.117401298277954
 21
3.54165847594999
 31
0.0
  0
SPLINE
  5
A8F
330
2
100
AcDbEntity
  8
PART
 62
     1
100
AcDbSpline
210
0.0
220
0.0
230
1.0
 70
    24
 71
     3
 72
    11
 73
     7
 74
     0
 42
0.0000000001
 43
0.0000000001
 40
0.0
 40
0.0
 40
0.0
 40
0.0
 40
0.1835961790422832
 40
0.5000661146832376
 40
0.7496405498655772
 40
1.0
 40
1.0
 40
1.0
 40
1.0
 10
6.097401329331106
 20
3.623242626821809
 30
0.0
 10
6.097401329331106
 20
3.617032174303272
 30
0.0
 10
6.097401329331106
 20
3.600116588817936
 30
0.0
 10
6.097401329331106
 20
3.573968377844039
 30
0.0
 10
6.097401329331106
 20
3.55269472349056
 30
0.0
 10
6.097401329331106
 20
3.545341074125968
 30
0.0
 10
6.097401329331106
 20
3.54165847595555
 30
0.0
  0
LINE
  5
A90
330
2
100
AcDbEntity
  8
PART
 62
     1
100
AcDbLine
 10
6.097401329377952
 20
8.916791261949988
 30
0.0
 11
6.117401298277954
 21
8.916791261949988
 31
0.0
  0
LINE
  5
A91
330
2
100
AcDbEntity
  8
PART
 62
     1
100
AcDbLine
 10
6.097401329377952
 20
8.916791261949988
 30
0.0
 11
6.097401329377952
 21
8.90684972344999
 31
0.0
  0
LINE
  5
A92
330
2
100
AcDbEntity
  8
PART
 62
     1
100
AcDbLine
 10
6.097401329377952
 20
8.955924703249991
 30
0.0
 11
6.117401298277954
 21
8.955924703249991
 31
0.0
  0
LINE
  5
A93
330
2
100
AcDbEntity
  8
PART
 62
     1
100
AcDbLine
 10
6.097401329377952
 20
8.955924703249991
 30
0.0
 11
6.097401329377952
 21
8.916791261949988
 31
0.0
  0
ELLIPSE
  5
A94
330
2
100
AcDbEntity
  8
PART
 62
     1
100
AcDbEllipse
 10
7.307905032877965
 20
3.816303098049992
 30
0.0
 11
-0.0169431946135248
 21
0.1248686335673632
 31
0.0
210
0.0
220
0.0
230
1.0
 40
0.338144848
 41
2.712097276188417
 42
3.095742558957407
  0
LINE
  5
A95
330
2
100
AcDbEntity
  8
PART
 62
     1
100
AcDbLine
 10
6.097401329377952
 20
8.969075271349989
 30
0.0
 11
6.117401298277954
 21
8.969075271349989
 31
0.0
  0
LINE
  5
A96
330
2
100
AcDbEntity
  8
PART
 62
     1
100
AcDbLine
 10
6.097401329377952
 20
8.969075271349989
 30
0.0
 11
6.097401329377952
 21
8.955924703249991
 31
0.0
  0
LINE
  5
A97
330
2
100
AcDbEntity
  8
PART
 62
     1
100
AcDbLine
 10
6.097401329377952
 20
8.998247814349991
 30
0.0
 11
6.117401298277954
 21
8.998247814349991
 31
0.0
  0
LINE
  5
A98
330
2
100
AcDbEntity
  8
PART
 62
     1
100
AcDbLine
 10
6.097401329377952
 20
8.969075271349989
 30
0.0
 11
6.097401329377952
 21
8.998247814349991
 31
0.0
  0
LINE
  5
A99
330
2
100
AcDbEntity
  8
PART
 62
     1
100
AcDbLine
 10
6.097401329377952
 20
3.629136505449988
 30
0.0
 11
6.097401329377952
 21
3.626253952049992
 31
0.0
  0
LINE
  5
A9A
330
2
100
AcDbEntity
  8
PART
 62
     1
100
AcDbLine
 10
6.097401329377952
 20
3.622161999349991
 30
0.0
 11
6.097401329377952
 21
3.61375692304999
 31
0.0
  0
LINE
  5
A9B
330
2
100
AcDbEntity
  8
PART
 62
     1
100
AcDbLine
 10
6.097401329377952
 20
3.506101020049989
 30
0.0
 11
6.117401298277954
 21
3.506101020049989
 31
0.0
  0
LINE
  5
A9C
330
2
100
AcDbEntity
  8
PART
 62
     1
100
AcDbLine
 10
6.097401329377952
 20
3.532402742849992
 30
0.0
 11
6.117401298277954
 21
3.532402742849992
 31
0.0
  0
LINE
  5
A9D
330
2
100
AcDbEntity
  8
PART
 62
     1
100
AcDbLine
 10
6.097401329377952
 20
3.532402742849992
 30
0.0
 11
6.097401329377952
 21
3.506101020049989
 31
0.0
  0
LINE
  5
A9E
330
2
100
AcDbEntity
  8
PART
 62
     1
100
AcDbLine
 10
6.097401329377952
 20
3.443357158249991
 30
0.0
 11
6.117401298277954
 21
3.443357158249991
 31
0.0
  0
LINE
  5
A9F
330
2
100
AcDbEntity
  8
PART
 62
     1
100
AcDbLine
 10
6.097401329377952
 20
3.499260859049989
 30
0.0
 11
6.117401298277954
 21
3.499260859049989
 31
0.0
  0
LINE
  5
AA0
330
2
100
AcDbEntity
  8
PART
 62
     1
100
AcDbLine
 10
6.097401329377952
 20
3.499260859049989
 30
0.0
 11
6.097401329377952
 21
3.443357158249991
 31
0.0
  0
LINE
  5
AA1
330
2
100
AcDbEntity
  8
PART
 62
     1
100
AcDbLine
 10
6.097401329377952
 20
3.506101020049989
 30
0.0
 11
6.097401329377952
 21
3.499260859049989
 31
0.0
  0
LINE
  5
AA2
330
2
100
AcDbEntity
  8
PART
 62
     1
100
AcDbLine
 10
6.097401329377952
 20
3.437147949949991
 30
0.0
 11
6.117401298277954
 21
3.437147949949991
 31
0.0
  0
LINE
  5
AA3
330
2
100
AcDbEntity
  8
PART
 62
     1
100
AcDbLine
 10
6.097401329377952
 20
3.443357158249991
 30
0.0
 11
6.097401329377952
 21
3.437147949949991
 31
0.0
  0
SPLINE
  5
AA4
330
2
100
AcDbEntity
  8
PART
 62
     1
100
AcDbSpline
210
0.0
220
0.0
230
1.0
 70
     8
 71
     3
 72
    13
 73
     9
 74
     0
 42
0.0000000001
 43
0.0000000001
 40
0.0
 40
0.0
 40
0.0
 40
0.0
 40
0.0074550528593947
 40
0.0260590174210163
 40
0.0659112745519125
 40
0.1537419893575106
 40
0.5782477650158629
 40
1.0
 40
1.0
 40
1.0
 40
1.0
 10
6.053947431314234
 20
3.23724916585121
 30
0.0
 10
6.054154350092677
 20
3.237236968368957
 30
0.0
 10
6.054877631356227
 20
3.237194332265836
 30
0.0
 10
6.056704863647524
 20
3.237084211829508
 30
0.0
 10
6.060740239991542
 20
3.236827662052181
 30
0.0
 10
6.075649264991945
 20
3.235756530708112
 30
0.0
 10
6.098890410306683
 20
3.233547058366948
 30
0.0
 10
6.114507227003766
 20
3.231416143056133
 30
0.0
 10
6.122290228479073
 20
3.23035415216966
 30
0.0
  0
LINE
  5
AA5
330
2
100
AcDbEntity
  8
PART
 62
     1
100
AcDbLine
 10
6.097401329377952
 20
9.03643497314999
 30
0.0
 11
6.117401298277954
 21
9.03643497314999
 31
0.0
  0
LINE
  5
AA6
330
2
100
AcDbEntity
  8
PART
 62
     1
100
AcDbLine
 10
6.097401329377952
 20
8.998247814349991
 30
0.0
 11
6.097401329377952
 21
9.03643497314999
 31
0.0
  0
LWPOLYLINE
  5
AA7
330
2
100
AcDbEntity
  8
PART
 62
     1
100
AcDbPolyline
 90
        3
 70
   128
 43
0.0
 10
5.238865081177952
 20
3.697170572749989
 10
5.240956595877953
 20
3.684252028749988
 10
5.242401312277952
 20
3.66118837514999
  0
LINE
  5
AA8
330
2
100
AcDbEntity
  8
PART
 62
     1
100
AcDbLine
 10
6.097401329377952
 20
9.076087901749989
 30
0.0
 11
6.117401298277954
 21
9.076087901749989
 31
0.0
  0
LINE
  5
AA9
330
2
100
AcDbEntity
  8
PART
 62
     1
100
AcDbLine
 10
6.097401329377952
 20
9.03643497314999
 30
0.0
 11
6.097401329377952
 21
9.076087901749989
 31
0.0
  0
ELLIPSE
  5
AAA
330
2
100
AcDbEntity
  8
PART
 62
     1
100
AcDbEllipse
 10
5.492401312077952
 20
3.537604025549992
 30
0.0
 11
-0.2295661854592339
 21
-0.0993878694197754
 31
0.0
210
0.0
220
0.0
230
1.0
 40
0.996014405
 41
5.876064623343213
 42
7.394501072578284
  0
ELLIPSE
  5
AAB
330
2
100
AcDbEntity
  8
PART
 62
     1
100
AcDbEllipse
 10
5.492401312077952
 20
3.518444048349987
 30
0.0
 11
-0.2295661854592339
 21
0.0993878694197719
 31
0.0
210
0.0
220
0.0
230
1.0
 40
0.9960144050000002
 41
0.4071206838363769
 42
1.92555713307145
  0
LINE
  5
AAC
330
2
100
AcDbEntity
  8
PART
 62
     1
100
AcDbLine
 10
5.242401312277952
 20
3.519170042449992
 30
0.0
 11
5.242401312277952
 21
3.536878077849991
 31
0.0
  0
LINE
  5
AAD
330
2
100
AcDbEntity
  8
PART
 62
     1
100
AcDbLine
 10
5.242401312277952
 20
3.536878077849991
 30
0.0
 11
5.242401312277952
 21
3.66118837514999
 31
0.0
  0
ARC
  5
AAE
330
2
100
AcDbEntity
  8
PART
 62
     1
100
AcDbCircle
 10
5.055031234377963
 20
3.643478992849992
 30
0.0
 40
0.1873700779210741
100
AcDbArc
 50
0.0005015475000114
 51
28.05992402609993
  0
ARC
  5
AAF
330
2
100
AcDbEntity
  8
PART
 62
     1
100
AcDbCircle
 10
6.192635237077965
 20
9.218487517349988
 30
0.0
 40
0.0531710617743843
100
AcDbArc
 50
123.1171670811999
 51
136.5835482808999
  0
ARC
  5
AB0
330
2
100
AcDbEntity
  8
PART
 62
     1
100
AcDbCircle
 10
6.191212810677953
 20
9.211140337749988
 30
0.0
 40
0.0585369929456167
100
AcDbArc
 50
119.8408935831
 51
141.5676611578001
  0
LINE
  5
AB1
330
2
100
AcDbEntity
  8
PART
 62
     1
100
AcDbLine
 10
5.479317314477953
 20
3.26950695324999
 30
0.0
 11
5.479085290477954
 21
3.269349141649989
 31
0.0
  0
ARC
  5
AB2
330
2
100
AcDbEntity
  8
PART
 62
     1
100
AcDbCircle
 10
5.055031878177967
 20
8.831520917249992
 30
0.0
 40
0.1873694341349029
100
AcDbArc
 50
332.3905710915001
 51
359.9995259583
  0
SPLINE
  5
AB3
330
2
100
AcDbEntity
  8
PART
 62
     1
100
AcDbSpline
210
0.0
220
0.0
230
1.0
 70
     8
 71
     3
 72
     9
 73
     5
 74
     0
 42
0.0000000001
 43
0.0000000001
 40
0.0
 40
0.0
 40
0.0
 40
0.0
 40
0.055098601735075
 40
1.0
 40
1.0
 40
1.0
 40
1.0
 10
6.054909626865544
 20
3.237035328321478
 30
0.0
 10
6.054918846372213
 20
3.237031088092361
 30
0.0
 10
6.055086173788495
 20
3.236954130983022
 30
0.0
 10
6.054500672397395
 20
3.23710582755152
 30
0.0
 10
6.053947431314234
 20
3.23724916585121
 30
0.0
  0
ELLIPSE
  5
AB4
330
2
100
AcDbEntity
  8
PART
 62
     1
100
AcDbEllipse
 10
5.492401312077952
 20
8.956555951649988
 30
0.0
 11
-0.2295661854592358
 21
-0.0993878694197684
 31
0.0
210
0.0
220
0.0
230
0.9999999999999998
 40
0.9960144050000003
 41
4.357628174108173
 42
5.876064623343244
  0
LINE
  5
AB5
330
2
100
AcDbEntity
  8
PART
 62
     1
100
AcDbLine
 10
5.242401312277955
 20
8.831519367049992
 30
0.0
 11
5.242401312277955
 21
8.955829957649992
 31
0.0
  0
SPLINE
  5
AB6
330
2
100
AcDbEntity
  8
PART
 62
     1
100
AcDbSpline
210
0.0
220
0.0
230
1.0
 70
     8
 71
     3
 72
    15
 73
    11
 74
     0
 42
0.0000000001
 43
0.0000000001
 40
0.0
 40
0.0
 40
0.0
 40
0.0
 40
0.3826643213295507
 40
0.7834828086012438
 40
0.8500619068094222
 40
0.8809871620463795
 40
0.9448844369464499
 40
0.98427284307958
 40
0.9912785141327084
 40
1.0
 40
1.0
 40
1.0
 40
1.0
 10
6.100218250123127
 20
9.237623822344477
 30
0.0
 10
6.095143355376414
 20
9.237659467661551
 30
0.0
 10
6.084752805309726
 20
9.237732449362638
 30
0.0
 10
6.068816716850093
 20
9.237918952804839
 30
0.0
 10
6.05998475419841
 20
9.238059270833549
 30
0.0
 10
6.057446983080275
 20
9.238085216995223
 30
0.0
 10
6.055881937292795
 20
9.238068209640029
 30
0.0
 10
6.054814825119947
 20
9.23791642373995
 30
0.0
 10
6.054221285835438
 20
9.237805964063309
 30
0.0
 10
6.054045122558576
 20
9.23777050050598
 30
0.0
 10
6.053947431314234
 20
9.237750834210562
 30
0.0
  0
SPLINE
  5
AB7
330
2
100
AcDbEntity
  8
PART
 62
     1
100
AcDbSpline
210
0.0
220
0.0
230
1.0
 70
     8
 71
     3
 72
    13
 73
     9
 74
     0
 42
0.0000000001
 43
0.0000000001
 40
0.0
 40
0.0
 40
0.0
 40
0.0
 40
0.0074550528593947
 40
0.0260590174210163
 40
0.0659112745519125
 40
0.1537419893575106
 40
0.5782477650158629
 40
1.0
 40
1.0
 40
1.0
 40
1.0
 10
6.053947431314234
 20
9.237750834210562
 30
0.0
 10
6.05415435009268
 20
9.237763031692811
 30
0.0
 10
6.054877631356227
 20
9.237805667795932
 30
0.0
 10
6.056704863647524
 20
9.237915788232257
 30
0.0
 10
6.060740239991545
 20
9.238172338009597
 30
0.0
 10
6.075649264991945
 20
9.23924346935366
 30
0.0
 10
6.098890410306687
 20
9.24145294169482
 30
0.0
 10
6.11450722700377
 20
9.243583857005649
 30
0.0
 10
6.122290228479073
 20
9.244645847892112
 30
0.0
  0
SPLINE
  5
AB8
330
2
100
AcDbEntity
  8
PART
 62
     1
100
AcDbSpline
210
0.0
220
0.0
230
1.0
 70
     8
 71
     3
 72
    10
 73
     6
 74
     0
 42
0.0000000001
 43
0.0000000001
 40
0.0
 40
0.0
 40
0.0
 40
0.0
 40
0.2497670640065417
 40
0.7609177251954708
 40
1.0
 40
1.0
 40
1.0
 40
1.0
 10
6.192401291883435
 20
3.188170666143559
 30
0.0
 10
6.188256711684875
 20
3.19189225440262
 30
0.0
 10
6.175630208870654
 20
3.203230108268439
 30
0.0
 10
6.162256474336693
 20
3.214204935270078
 30
0.0
 10
6.156005140707382
 20
3.218575438309024
 30
0.0
 10
6.154012982015132
 20
3.21996821881553
 30
0.0
  0
LINE
  5
AB9
330
2
100
AcDbEntity
  8
PART
 62
     1
100
AcDbLine
 10
7.539401364577955
 20
8.678160311949991
 30
0.0
 11
7.539401364577955
 21
8.517652659549991
 31
0.0
  0
ARC
  5
ABA
330
2
100
AcDbEntity
  8
PART
 62
     1
100
AcDbCircle
 10
7.311754643777955
 20
8.518375910049989
 30
0.0
 40
0.2276478696739866
100
AcDbArc
 50
320.9908415835999
 51
359.8179676778
  0
LINE
  5
ABB
330
2
100
AcDbEntity
  8
PART
 62
     1
100
AcDbLine
 10
7.488647364177964
 20
8.375084186449988
 30
0.0
 11
7.007401310277952
 21
8.375084186449988
 31
0.0
  0
ARC
  5
ABC
330
2
100
AcDbEntity
  8
PART
 62
     1
100
AcDbCircle
 10
7.036587114777955
 20
8.682799302849993
 30
0.0
 40
0.0291985421065449
100
AcDbArc
 50
181.6924552103
 51
271.5979410624001
  0
LINE
  5
ABD
330
2
100
AcDbEntity
  8
PART
 62
     1
100
AcDbLine
 10
7.037401337077959
 20
8.653612115549989
 30
0.0
 11
7.32147598867796
 21
8.653612115549989
 31
0.0
  0
SPLINE
  5
ABE
330
2
100
AcDbEntity
  8
PART
 62
     1
100
AcDbSpline
210
0.0
220
0.0
230
1.0
 70
     8
 71
     3
 72
    12
 73
     8
 74
     0
 42
0.0000000001
 43
0.0000000001
 40
0.0
 40
0.0
 40
0.0
 40
0.0
 40
0.198564427154282
 40
0.3969492744374622
 40
0.6003288518044431
 40
0.8154638001453985
 40
1.0
 40
1.0
 40
1.0
 40
1.0
 10
7.353401286579092
 20
8.681917868573741
 30
0.0
 10
7.353078125119075
 20
8.678877558235061
 30
0.0
 10
7.352432094463374
 20
8.672799687186859
 30
0.0
 10
7.347429931336243
 20
8.664654558158218
 30
0.0
 10
7.339988481749315
 20
8.658263646850507
 30
0.0
 10
7.330929791304335
 20
8.654299373177231
 30
0.0
 10
7.324462203815343
 20
8.65382920271427
 30
0.0
 10
7.321475988716173
 20
8.653612115564222
 30
0.0
  0
LINE
  5
ABF
330
2
100
AcDbEntity
  8
PART
 62
     1
100
AcDbLine
 10
7.353401286577955
 20
8.699881981049987
 30
0.0
 11
7.353401286577955
 21
8.681917868549987
 31
0.0
  0
ARC
  5
AC0
330
2
100
AcDbEntity
  8
PART
 62
     1
100
AcDbCircle
 10
7.316355433477966
 20
8.678154088649989
 30
0.0
 40
0.223045931176531
100
AcDbArc
 50
0.0015986383999778
 51
5.590301220599993
  0
ARC
  5
AC1
330
2
100
AcDbEntity
  8
PART
 62
     1
100
AcDbCircle
 10
7.407532203677956
 20
7.81984786984999
 30
0.0
 40
0.1319848351853216
100
AcDbArc
 50
307.9213649602
 51
357.6010250172
  0
LINE
  5
AC2
330
2
100
AcDbEntity
  8
PART
 62
     1
100
AcDbLine
 10
7.488647364177964
 20
8.375084186449988
 30
0.0
 11
7.488647364177964
 21
7.715730976749991
 31
0.0
  0
LINE
  5
AC3
330
2
100
AcDbEntity
  8
PART
 62
     1
100
AcDbLine
 10
7.539401364577955
 20
8.517652659549991
 30
0.0
 11
7.539401364577955
 21
7.814323277749988
 31
0.0
  0
LINE
  5
AC4
330
2
100
AcDbEntity
  8
PART
 62
     1
100
AcDbLine
 10
7.050401280177965
 20
7.715730976749991
 30
0.0
 11
7.488647364177964
 21
7.715730976749991
 31
0.0
  0
SPLINE
  5
AC5
330
2
100
AcDbEntity
  8
PART
 62
     1
100
AcDbSpline
210
0.0
220
0.0
230
1.0
 70
     8
 71
     3
 72
    11
 73
     7
 74
     0
 42
0.0000000001
 43
0.0000000001
 40
0.0
 40
0.0
 40
0.0
 40
0.0
 40
0.1651842261416436
 40
0.4239194973438874
 40
0.7169839501994236
 40
1.0
 40
1.0
 40
1.0
 40
1.0
 10
7.495429739187621
 20
8.782622438559297
 30
0.0
 10
7.497626727997065
 20
8.782524408592831
 30
0.0
 10
7.503264956377158
 20
8.782272830006441
 30
0.0
 10
7.516980229047447
 20
8.768129138820988
 30
0.0
 10
7.531551351066333
 20
8.741384877065542
 30
0.0
 10
7.536103944748226
 20
8.71355446716635
 30
0.0
 10
7.538340536811745
 20
8.69988198105079
 30
0.0
  0
LINE
  5
AC6
330
2
100
AcDbEntity
  8
PART
 62
     1
100
AcDbLine
 10
7.243401383977968
 20
8.653612115549989
 30
0.0
 11
7.243401383977968
 21
8.705344371249989
 31
0.0
  0
ELLIPSE
  5
AC7
330
2
100
AcDbEntity
  8
PART
 62
     1
100
AcDbEllipse
 10
7.353401312077956
 20
6.23750000004999
 30
0.0
 11
0.3708526437008114
 21
2.733124651522319
 31
0.0
210
0.0
220
0.0
230
1.0
 40
0.338144848
 41
0.4294953774013607
 42
0.4922900184506149
  0
ELLIPSE
  5
AC8
330
2
100
AcDbEntity
  8
PART
 62
     1
100
AcDbEllipse
 10
7.307905032877968
 20
8.658696902049992
 30
0.0
 11
0.016943194613523
 21
0.1248686335673559
 31
0.0
210
0.0
220
0.0
230
0.9999999999999998
 40
0.338144848
 41
5.093991673604246
 42
6.71268068458102
  0
LINE
  5
AC9
330
2
100
AcDbEntity
  8
PART
 62
     1
100
AcDbLine
 10
6.882401247577963
 20
3.166500036449988
 30
0.0
 11
6.882401247577966
 21
9.308499963549987
 31
0.0
  0
LINE
  5
ACA
330
2
100
AcDbEntity
  8
PART
 62
     1
100
AcDbLine
 10
6.154012981977952
 20
4.68619848074999
 30
0.0
 11
6.154012981977952
 21
3.297426977349989
 31
0.0
  0
SPLINE
  5
ACB
330
2
100
AcDbEntity
  8
PART
 62
     1
100
AcDbSpline
210
0.0
220
0.0
230
1.0
 70
     8
 71
     3
 72
     9
 73
     5
 74
     0
 42
0.0000000001
 43
0.0000000001
 40
0.0
 40
0.0
 40
0.0
 40
0.0
 40
0.5027628646423398
 40
1.0
 40
1.0
 40
1.0
 40
1.0
 10
6.176717013069556
 20
4.77371156317314
 30
0.0
 10
6.176418834610593
 20
4.755909113037997
 30
0.0
 10
6.175825754890656
 20
4.720499874633311
 30
0.0
 10
6.161257072107932
 20
4.69759008097079
 30
0.0
 10
6.154012982015132
 20
4.68619848079841
 30
0.0
  0
SPLINE
  5
ACC
330
2
100
AcDbEntity
  8
PART
 62
     1
100
AcDbSpline
210
0.0
220
0.0
230
1.0
 70
     8
 71
     3
 72
     9
 73
     5
 74
     0
 42
0.0000000001
 43
0.0000000001
 40
0.0
 40
0.0
 40
0.0
 40
0.0
 40
0.557082308352643
 40
1.0
 40
1.0
 40
1.0
 40
1.0
 10
6.176717013069556
 20
5.048641140496542
 30
0.0
 10
6.17446594427529
 20
4.9976717474992
 30
0.0
 10
6.170425125242804
 20
4.906178278341918
 30
0.0
 10
6.174785656590625
 20
4.814373516410181
 30
0.0
 10
6.176717013069556
 20
4.77371156317314
 30
0.0
  0
SPLINE
  5
ACD
330
2
100
AcDbEntity
  8
PART
 62
     1
100
AcDbSpline
210
0.0
220
0.0
230
1.0
 70
     8
 71
     3
 72
     9
 73
     5
 74
     0
 42
0.0000000001
 43
0.0000000001
 40
0.0
 40
0.0
 40
0.0
 40
0.0
 40
0.5084756242879585
 40
1.0
 40
1.0
 40
1.0
 40
1.0
 10
6.154012982015132
 20
5.16262057712969
 30
0.0
 10
6.161401598091416
 20
5.14323207902213
 30
0.0
 10
6.175932513091773
 20
5.105101444668282
 30
0.0
 10
6.176458485037365
 20
5.067247350500494
 30
0.0
 10
6.176717013069556
 20
5.048641140496542
 30
0.0
  0
LINE
  5
ACE
330
2
100
AcDbEntity
  8
PART
 62
     1
100
AcDbLine
 10
6.154012981977952
 20
7.71853887764999
 30
0.0
 11
6.154012981977952
 21
5.16262057714999
 31
0.0
  0
SPLINE
  5
ACF
330
2
100
AcDbEntity
  8
PART
 62
     1
100
AcDbSpline
210
0.0
220
0.0
230
1.0
 70
     8
 71
     3
 72
     9
 73
     5
 74
     0
 42
0.0000000001
 43
0.0000000001
 40
0.0
 40
0.0
 40
0.0
 40
0.0
 40
0.502764190526295
 40
1.0
 40
1.0
 40
1.0
 40
1.0
 10
6.176717013069556
 20
7.828149238048478
 30
0.0
 10
6.176418845928864
 20
7.810423653476888
 30
0.0
 10
6.175825790285067
 20
7.775167394368562
 30
0.0
 10
6.161257070961145
 20
7.737345351641419
 30
0.0
 10
6.154012982015132
 20
7.718538877610047
 30
0.0
  0
SPLINE
  5
AD0
330
2
100
AcDbEntity
  8
PART
 62
     1
100
AcDbSpline
210
0.0
220
0.0
230
1.0
 70
     8
 71
     3
 72
     9
 73
     5
 74
     0
 42
0.0000000001
 43
0.0000000001
 40
0.0
 40
0.0
 40
0.0
 40
0.0
 40
0.5651880147803233
 40
1.0
 40
1.0
 40
1.0
 40
1.0
 10
6.176717013069556
 20
8.08052342926695
 30
0.0
 10
6.174446016581214
 20
8.032852998915899
 30
0.0
 10
6.170427890879764
 20
7.948508623054369
 30
0.0
 10
6.174811128721785
 20
7.86462349646932
 30
0.0
 10
6.176717013069556
 20
7.828149238048478
 30
0.0
  0
SPLINE
  5
AD1
330
2
100
AcDbEntity
  8
PART
 62
     1
100
AcDbSpline
210
0.0
220
0.0
230
1.0
 70
     8
 71
     3
 72
     9
 73
     5
 74
     0
 42
0.0000000001
 43
0.0000000001
 40
0.0
 40
0.0
 40
0.0
 40
0.0
 40
0.5084753353116138
 40
1.0
 40
1.0
 40
1.0
 40
1.0
 10
6.154012982015132
 20
8.155875052131907
 30
0.0
 10
6.161401597827065
 20
8.146597595544704
 30
0.0
 10
6.175932520565712
 20
8.128351958159889
 30
0.0
 10
6.176458487398452
 20
8.096285087242318
 30
0.0
 10
6.176717013069556
 20
8.08052342926695
 30
0.0
  0
LINE
  5
AD2
330
2
100
AcDbEntity
  8
PART
 62
     1
100
AcDbLine
 10
6.154012981977956
 20
9.255031781249989
 30
0.0
 11
6.154012981977952
 21
8.15587505214999
 31
0.0
  0
SPLINE
  5
AD3
330
2
100
AcDbEntity
  8
PART
 62
     1
100
AcDbSpline
210
0.0
220
0.0
230
1.0
 70
     8
 71
     3
 72
     9
 73
     5
 74
     0
 42
0.0000000001
 43
0.0000000001
 40
0.0
 40
0.0
 40
0.0
 40
0.0
 40
0.5322133364471564
 40
1.0
 40
1.0
 40
1.0
 40
1.0
 10
6.154012982015132
 20
3.297426977338659
 30
0.0
 10
6.158920194860407
 20
3.295886388960539
 30
0.0
 10
6.168140581703823
 20
3.292991706936227
 30
0.0
 10
6.184669353072326
 20
3.280824621737362
 30
0.0
 10
6.192401291883435
 20
3.275133021547009
 30
0.0
  0
SPLINE
  5
AD4
330
2
100
AcDbEntity
  8
PART
 62
     1
100
AcDbSpline
210
0.0
220
0.0
230
1.0
 70
     8
 71
     3
 72
    12
 73
     8
 74
     0
 42
0.0000000001
 43
0.0000000001
 40
0.0
 40
0.0
 40
0.0
 40
0.0
 40
0.0432266596286001
 40
0.1917581903032963
 40
0.2472604050409629
 40
0.5931355121556765
 40
1.0
 40
1.0
 40
1.0
 40
1.0
 10
6.11748827061838
 20
5.329774426154166
 30
0.0
 10
6.117624210537034
 20
5.32812214673444
 30
0.0
 10
6.118227254885514
 20
5.320792454499997
 30
0.0
 10
6.120658650117643
 20
5.30781509111707
 30
0.0
 10
6.127065791441424
 20
5.277957082012051
 30
0.0
 10
6.139303366054203
 20
5.230269880025989
 30
0.0
 10
6.148851892594112
 20
5.186356349868081
 30
0.0
 10
6.154012982015132
 20
5.16262057712969
 30
0.0
  0
LINE
  5
AD5
330
2
100
AcDbEntity
  8
PART
 62
     1
100
AcDbLine
 10
6.117401298277954
 20
5.332724592049991
 30
0.0
 11
6.117488270577965
 21
5.329774426149992
 31
0.0
  0
LINE
  5
AD6
330
2
100
AcDbEntity
  8
PART
 62
     1
100
AcDbLine
 10
6.117488270577965
 20
7.54878458524999
 30
0.0
 11
6.117401298277954
 21
7.545285159049988
 31
0.0
  0
SPLINE
  5
AD7
330
2
100
AcDbEntity
  8
PART
 62
     1
100
AcDbSpline
210
0.0
220
0.0
230
1.0
 70
     8
 71
     3
 72
    12
 73
     8
 74
     0
 42
0.0000000001
 43
0.0000000001
 40
0.0
 40
0.0
 40
0.0
 40
0.0
 40
0.2008918195988986
 40
0.5440017141862469
 40
0.7974434391481676
 40
0.9270659469498376
 40
1.0
 40
1.0
 40
1.0
 40
1.0
 10
6.154012982015132
 20
7.718538877610047
 30
0.0
 10
6.151600296355962
 20
7.707204611296241
 30
0.0
 10
6.145066903722092
 20
7.676512170379183
 30
0.0
 10
6.133238358437782
 20
7.630032278172361
 30
0.0
 10
6.123268923580553
 20
7.587345389487012
 30
0.0
 10
6.118534923804435
 20
7.56146767081114
 30
0.0
 10
6.117765364120465
 20
7.552142336102999
 30
0.0
 10
6.11748827061838
 20
7.5487845852928
 30
0.0
  0
SPLINE
  5
AD8
330
2
100
AcDbEntity
  8
PART
 62
     1
100
AcDbSpline
210
0.0
220
0.0
230
1.0
 70
     8
 71
     3
 72
    11
 73
     7
 74
     0
 42
0.0000000001
 43
0.0000000001
 40
0.0
 40
0.0
 40
0.0
 40
0.0
 40
0.0683373282244966
 40
0.4813306995007451
 40
0.9605704401170742
 40
1.0
 40
1.0
 40
1.0
 40
1.0
 10
5.188019124175269
 20
8.681892202203581
 30
0.0
 10
5.186788862963126
 20
8.681949294370387
 30
0.0
 10
5.178123577017771
 20
8.682351420313938
 30
0.0
 10
5.167920847314526
 20
8.680528495674479
 30
0.0
 10
5.161089469143597
 20
8.6780377231191
 30
0.0
 10
5.160164358422186
 20
8.677144098406888
 30
0.0
 10
5.160094030934999
 20
8.677076164505528
 30
0.0
  0
LINE
  5
AD9
330
2
100
AcDbEntity
  8
PART
 62
     1
100
AcDbLine
 10
5.188019124177955
 20
8.68189220224999
 30
0.0
 11
5.188019124177952
 21
7.861089604149988
 31
0.0
  0
SPLINE
  5
ADA
330
2
100
AcDbEntity
  8
PART
 62
     1
100
AcDbSpline
210
0.0
220
0.0
230
1.0
 70
     8
 71
     3
 72
    11
 73
     7
 74
     0
 42
0.0000000001
 43
0.0000000001
 40
0.0
 40
0.0
 40
0.0
 40
0.0
 40
0.0649779120655796
 40
0.4476764108642057
 40
0.7565969796197633
 40
1.0
 40
1.0
 40
1.0
 40
1.0
 10
5.157192919865543
 20
7.700706470278209
 30
0.0
 10
5.157212802847876
 20
7.704220594660228
 30
0.0
 10
5.157349790046861
 20
7.728431754124454
 30
0.0
 10
5.160674820436952
 20
7.76970702925659
 30
0.0
 10
5.169616580595882
 20
7.82123842646072
 30
0.0
 10
5.182390011567573
 20
7.84889961718736
 30
0.0
 10
5.188019124175266
 20
7.86108960418522
 30
0.0
  0
LINE
  5
ADB
330
2
100
AcDbEntity
  8
PART
 62
     1
100
AcDbLine
 10
5.157192919877953
 20
7.514568967249992
 30
0.0
 11
5.157192919877953
 21
7.70070647024999
 31
0.0
  0
SPLINE
  5
ADC
330
2
100
AcDbEntity
  8
PART
 62
     1
100
AcDbSpline
210
0.0
220
0.0
230
1.0
 70
     8
 71
     3
 72
    11
 73
     7
 74
     0
 42
0.0000000001
 43
0.0000000001
 40
0.0
 40
0.0
 40
0.0
 40
0.0
 40
0.0454805598043841
 40
0.3203401749875966
 40
0.6392887455440311
 40
1.0
 40
1.0
 40
1.0
 40
1.0
 10
5.188019124175266
 20
7.346007867786727
 30
0.0
 10
5.186789990147953
 20
7.34847506507975
 30
0.0
 10
5.178132642677201
 20
7.365852652690225
 30
0.0
 10
5.167610966270924
 20
7.401461911874779
 30
0.0
 10
5.158778232324035
 20
7.454948249160832
 30
0.0
 10
5.157742569944144
 20
7.49389762751603
 30
0.0
 10
5.157192919865543
 20
7.51456896722119
 30
0.0
  0
LINE
  5
ADD
330
2
100
AcDbEntity
  8
PART
 62
     1
100
AcDbLine
 10
5.188019124177952
 20
7.346007867749989
 30
0.0
 11
5.188019124177952
 21
5.462731576849993
 31
0.0
  0
SPLINE
  5
ADE
330
2
100
AcDbEntity
  8
PART
 62
     1
100
AcDbSpline
210
0.0
220
0.0
230
1.0
 70
     8
 71
     3
 72
    11
 73
     7
 74
     0
 42
0.0000000001
 43
0.0000000001
 40
0.0
 40
0.0
 40
0.0
 40
0.0
 40
0.0649781684816538
 40
0.447675943235261
 40
0.7565975127119639
 40
1.0
 40
1.0
 40
1.0
 40
1.0
 10
5.157192919865543
 20
5.280401203184531
 30
0.0
 10
5.157212802552734
 20
5.28443508361283
 30
0.0
 10
5.157349787034593
 20
5.312227052328509
 30
0.0
 10
5.160674858802586
 20
5.35879531456619
 30
0.0
 10
5.169616532228843
 20
5.415763990076271
 30
0.0
 10
5.182390008638293
 20
5.448364797826688
 30
0.0
 10
5.188019124175266
 20
5.462731576888479
 30
0.0
  0
LINE
  5
ADF
330
2
100
AcDbEntity
  8
PART
 62
     1
100
AcDbLine
 10
5.157192919877953
 20
5.077628078949988
 30
0.0
 11
5.157192919877953
 21
5.280401203149999
 31
0.0
  0
SPLINE
  5
AE0
330
2
100
AcDbEntity
  8
PART
 62
     1
100
AcDbSpline
210
0.0
220
0.0
230
1.0
 70
     8
 71
     3
 72
    11
 73
     7
 74
     0
 42
0.0000000001
 43
0.0000000001
 40
0.0
 40
0.0
 40
0.0
 40
0.0
 40
0.0454803694774942
 40
0.3203401348740743
 40
0.6392885528511193
 40
1.0
 40
1.0
 40
1.0
 40
1.0
 10
5.188019124175266
 20
4.901615592281547
 30
0.0
 10
5.186789989885024
 20
4.904025504152347
 30
0.0
 10
5.178132605416926
 20
4.920999673504891
 30
0.0
 10
5.167610989977792
 20
4.958486701217474
 30
0.0
 10
5.158778222451395
 20
5.01551833402107
 30
0.0
 10
5.157742566691794
 20
5.056093752025329
 30
0.0
 10
5.157192919865543
 20
5.077628078970292
 30
0.0
  0
LINE
  5
AE1
330
2
100
AcDbEntity
  8
PART
 62
     1
100
AcDbLine
 10
5.188019124177952
 20
4.901615592249992
 30
0.0
 11
5.188019124177952
 21
3.839141972749988
 31
0.0
  0
SPLINE
  5
AE2
330
2
100
AcDbEntity
  8
PART
 62
     1
100
AcDbSpline
210
0.0
220
0.0
230
1.0
 70
     8
 71
     3
 72
    11
 73
     7
 74
     0
 42
0.0000000001
 43
0.0000000001
 40
0.0
 40
0.0
 40
0.0
 40
0.0
 40
0.064978146142137
 40
0.4476759791069953
 40
0.7565973049332201
 40
1.0
 40
1.0
 40
1.0
 40
1.0
 10
5.157192919865543
 20
3.817194732937199
 30
0.0
 10
5.157212802598984
 20
3.817714490288171
 30
0.0
 10
5.157349787457533
 20
3.821295430878389
 30
0.0
 10
5.160674850175624
 20
3.826588254807671
 30
0.0
 10
5.169616546731905
 20
3.83202547283696
 30
0.0
 10
5.182390009485445
 20
3.836965125809602
 30
0.0
 10
5.188019124175266
 20
3.83914197273414
 30
0.0
  0
LINE
  5
AE3
330
2
100
AcDbEntity
  8
PART
 62
     1
100
AcDbLine
 10
5.157192919877953
 20
3.80055911174999
 30
0.0
 11
5.157192919877953
 21
3.817194732949989
 31
0.0
  0
LINE
  5
AE4
330
2
100
AcDbEntity
  8
PART
 62
     1
100
AcDbLine
 10
5.160093778877964
 20
3.797924128849992
 30
0.0
 11
5.157192919877953
 21
3.80055911174999
 31
0.0
  0
LINE
  5
AE5
330
2
100
AcDbEntity
  8
PART
 62
     1
100
AcDbLine
 10
5.147095943977966
 20
8.667194611949991
 30
0.0
 11
5.147095943977966
 21
3.807805388049992
 31
0.0
  0
LWPOLYLINE
  5
AE6
330
2
100
AcDbEntity
  8
PART
 62
     1
100
AcDbPolyline
 90
        9
 70
   128
 43
0.0
 10
5.969328782177953
 20
5.509824086249988
 10
5.998620783777965
 20
5.508553674249991
 10
6.026566914277953
 20
5.505690333949988
 10
6.052163471877953
 20
5.501336877549988
 10
6.074491087277952
 20
5.495649723249989
 10
6.092747723077952
 20
5.488833028649992
 10
6.106277786777965
 20
5.48113165094999
 10
6.114595230677952
 20
5.472822346949989
 10
6.117401298277954
 20
5.464203359849989
  0
LINE
  5
AE7
330
2
100
AcDbEntity
  8
PART
 62
     1
100
AcDbLine
 10
5.969328782177953
 20
5.509824086249988
 30
0.0
 11
5.969328782177953
 21
7.307982260349991
 31
0.0
  0
LWPOLYLINE
  5
AE8
330
2
100
AcDbEntity
  8
PART
 62
     1
100
AcDbPolyline
 90
        9
 70
   128
 43
0.0
 10
6.117401298277954
 20
7.375094758449989
 10
6.114595230677952
 20
7.36241549824999
 10
6.106277786777965
 20
7.350191632749989
 10
6.092747723077952
 20
7.338862203649991
 10
6.074491087277952
 20
7.328834206149991
 10
6.052163471877953
 20
7.320467776149989
 10
6.026566914277953
 20
7.314063356849992
 10
5.998620783777965
 20
7.309851138849989
 10
5.969328782177953
 20
7.307982260349991
  0
LINE
  5
AE9
330
2
100
AcDbEntity
  8
PART
 62
     1
100
AcDbLine
 10
5.969328782177953
 20
7.307982260349991
 30
0.0
 11
5.969167304077952
 21
7.310703995649987
 31
0.0
  0
LINE
  5
AEA
330
2
100
AcDbEntity
  8
PART
 62
     1
100
AcDbLine
 10
5.969167304077952
 20
5.506939259549991
 30
0.0
 11
5.969328782177953
 21
5.509824086249988
 31
0.0
  0
SPLINE
  5
AEB
330
2
100
AcDbEntity
  8
PART
 62
     1
100
AcDbSpline
210
0.0
220
0.0
230
1.0
 70
     8
 71
     3
 72
     9
 73
     5
 74
     0
 42
0.0000000001
 43
0.0000000001
 40
0.0
 40
0.0
 40
0.0
 40
0.0
 40
0.5605022031368902
 40
1.0
 40
1.0
 40
1.0
 40
1.0
 10
5.301630312562451
 20
5.490595721666171
 30
0.0
 10
5.426348132235663
 20
5.493636218522599
 30
0.0
 10
5.648858978714432
 20
5.499060812466062
 30
0.0
 10
5.871372917963523
 20
5.50453386500007
 30
0.0
 10
5.969167304034844
 20
5.506939259530891
 30
0.0
  0
SPLINE
  5
AEC
330
2
100
AcDbEntity
  8
PART
 62
     1
100
AcDbSpline
210
0.0
220
0.0
230
1.0
 70
     8
 71
     3
 72
     9
 73
     5
 74
     0
 42
0.0000000001
 43
0.0000000001
 40
0.0
 40
0.0
 40
0.0
 40
0.0
 40
0.3004600335191819
 40
1.0
 40
1.0
 40
1.0
 40
1.0
 10
5.188019124175266
 20
5.462731576888479
 30
0.0
 10
5.198688535081451
 20
5.467604539387433
 30
0.0
 10
5.23419878508443
 20
5.48382287778628
 30
0.0
 10
5.273875126216715
 20
5.487807981998869
 30
0.0
 10
5.301630312562451
 20
5.490595721666171
 30
0.0
  0
SPLINE
  5
AED
330
2
100
AcDbEntity
  8
PART
 62
     1
100
AcDbSpline
210
0.0
220
0.0
230
1.0
 70
     8
 71
     3
 72
     9
 73
     5
 74
     0
 42
0.0000000001
 43
0.0000000001
 40
0.0
 40
0.0
 40
0.0
 40
0.0
 40
0.3533822840072323
 40
1.0
 40
1.0
 40
1.0
 40
1.0
 10
5.301630312562451
 20
7.320712046672891
 30
0.0
 10
5.287642288846914
 20
7.321418189511341
 30
0.0
 10
5.248059026333265
 20
7.323416430143147
 30
0.0
 10
5.211596463362603
 20
7.337136334541217
 30
0.0
 10
5.188019124175266
 20
7.346007867786727
 30
0.0
  0
SPLINE
  5
AEE
330
2
100
AcDbEntity
  8
PART
 62
     1
100
AcDbSpline
210
0.0
220
0.0
230
1.0
 70
     8
 71
     3
 72
     9
 73
     5
 74
     0
 42
0.0000000001
 43
0.0000000001
 40
0.0
 40
0.0
 40
0.0
 40
0.0
 40
0.5602602564154628
 40
1.0
 40
1.0
 40
1.0
 40
1.0
 10
5.969167304034844
 20
7.310703995620066
 30
0.0
 10
5.844501655506622
 20
7.312588658869021
 30
0.0
 10
5.621987837864406
 20
7.315952565602302
 30
0.0
 10
5.399477119014385
 20
7.319258358258089
 30
0.0
 10
5.301630312562451
 20
7.320712046672891
 30
0.0
  0
SPLINE
  5
AEF
330
2
100
AcDbEntity
  8
PART
 62
     1
100
AcDbSpline
210
0.0
220
0.0
230
1.0
 70
     8
 71
     3
 72
    12
 73
     8
 74
     0
 42
0.0000000001
 43
0.0000000001
 40
0.0
 40
0.0
 40
0.0
 40
0.0
 40
0.1147995782442994
 40
0.7337962406167648
 40
0.8726534750099268
 40
0.9706017274590546
 40
1.0
 40
1.0
 40
1.0
 40
1.0
 10
6.034699120339041
 20
5.107748884345497
 30
0.0
 10
6.030774132146042
 20
5.10997532666731
 30
0.0
 10
6.005685698682064
 20
5.124206694331491
 30
0.0
 10
5.973521425764374
 20
5.137436875616138
 30
0.0
 10
5.948228137683212
 20
5.151837756213666
 30
0.0
 10
5.941976135269015
 20
5.156450304901888
 30
0.0
 10
5.940315140102843
 20
5.158514170407681
 30
0.0
 10
5.939931695100426
 20
5.158990619063281
 30
0.0
  0
ARC
  5
AF0
330
2
100
AcDbEntity
  8
PART
 62
     1
100
AcDbCircle
 10
5.936461038277954
 20
5.340289780849989
 30
0.0
 40
0.1813323785668833
100
AcDbArc
 50
271.0966939832999
 51
356.6755875046
  0
ARC
  5
AF1
330
2
100
AcDbEntity
  8
PART
 62
     1
100
AcDbCircle
 10
5.273819904177951
 20
6.91937128264999
 30
0.0
 40
1.964920582540401
100
AcDbArc
 50
292.7823468240999
 51
296.6124590945
  0
SPLINE
  5
AF2
330
2
100
AcDbEntity
  8
PART
 62
     1
100
AcDbSpline
210
0.0
220
0.0
230
1.0
 70
     8
 71
     3
 72
     9
 73
     5
 74
     0
 42
0.0000000001
 43
0.0000000001
 40
0.0
 40
0.0
 40
0.0
 40
0.0
 40
0.4429103359481082
 40
1.0
 40
1.0
 40
1.0
 40
1.0
 10
6.053947431314234
 20
4.79157638346388
 30
0.0
 10
6.05201612537413
 20
4.83396619938399
 30
0.0
 10
6.047655635714363
 20
4.929673642809007
 30
0.0
 10
6.051696376427713
 20
5.025212542672022
 30
0.0
 10
6.053947431314234
 20
5.078436276300585
 30
0.0
  0
ARC
  5
AF3
330
2
100
AcDbEntity
  8
PART
 62
     1
100
AcDbCircle
 10
6.035682351077966
 20
4.735344823649992
 30
0.0
 40
0.3435772955514969
100
AcDbArc
 50
65.76445031790007
 51
86.95263457579992
  0
ARC
  5
AF4
330
2
100
AcDbEntity
  8
PART
 62
     1
100
AcDbCircle
 10
6.068807670477962
 20
4.46292064764999
 30
0.0
 40
0.3289915186782576
100
AcDbArc
 50
70.85254854759996
 51
92.58887760040011
  0
SPLINE
  5
AF5
330
2
100
AcDbEntity
  8
PART
 62
     1
100
AcDbSpline
210
0.0
220
0.0
230
1.0
 70
     8
 71
     3
 72
    12
 73
     8
 74
     0
 42
0.0000000001
 43
0.0000000001
 40
0.0
 40
0.0
 40
0.0
 40
0.0
 40
0.1497572947800305
 40
0.3001449979188217
 40
0.4748612455493216
 40
0.7817002143834119
 40
1.0
 40
1.0
 40
1.0
 40
1.0
 10
6.053947431314234
 20
5.078436276300585
 30
0.0
 10
6.054448984428123
 20
5.080156247563451
 30
0.0
 10
6.055454201960554
 20
5.083603430365933
 30
0.0
 10
6.054108395410516
 20
5.089577206707389
 30
0.0
 10
6.049739254521977
 20
5.09651918083173
 30
0.0
 10
6.042817657557606
 20
5.1026251159108
 30
0.0
 10
6.037083009307412
 20
5.10624436515452
 30
0.0
 10
6.034699120339041
 20
5.107748884345497
 30
0.0
  0
LINE
  5
AF6
330
2
100
AcDbEntity
  8
PART
 62
     1
100
AcDbLine
 10
5.939931695077962
 20
5.158990619049991
 30
0.0
 11
5.939714337577953
 21
5.164093240149991
 31
0.0
  0
ARC
  5
AF7
330
2
100
AcDbEntity
  8
PART
 62
     1
100
AcDbCircle
 10
5.939860698777952
 20
5.341869125849989
 30
0.0
 40
0.1777759459910757
100
AcDbArc
 50
269.9528289495999
 51
357.0514879482
  0
LINE
  5
AF8
330
2
100
AcDbEntity
  8
PART
 62
     1
100
AcDbLine
 10
5.479317314477953
 20
5.06440395844999
 30
0.0
 11
5.479317314477953
 21
4.831787518949987
 31
0.0
  0
LINE
  5
AF9
330
2
100
AcDbEntity
  8
PART
 62
     1
100
AcDbLine
 10
6.053947431277954
 20
5.078436276349989
 30
0.0
 11
5.479317314477953
 21
5.06440395844999
 31
0.0
  0
LINE
  5
AFA
330
2
100
AcDbEntity
  8
PART
 62
     1
100
AcDbLine
 10
5.479317314477953
 20
4.831787518949987
 30
0.0
 11
6.053947431277954
 21
4.791576383449992
 31
0.0
  0
LINE
  5
AFB
330
2
100
AcDbEntity
  8
PART
 62
     1
100
AcDbLine
 10
5.939714337577953
 20
5.164093240149991
 30
0.0
 11
5.939714337577953
 21
5.282532098549989
 31
0.0
  0
SPLINE
  5
AFC
330
2
100
AcDbEntity
  8
PART
 62
     1
100
AcDbSpline
210
0.0
220
0.0
230
1.0
 70
     8
 71
     3
 72
    14
 73
    10
 74
     0
 42
0.0000000001
 43
0.0000000001
 40
0.0
 40
0.0
 40
0.0
 40
0.0
 40
0.0020899371038106
 40
0.0455121398899326
 40
0.1851077931201139
 40
0.3569081738861011
 40
0.6128915858374154
 40
0.7981782237788148
 40
1.0
 40
1.0
 40
1.0
 40
1.0
 10
5.939714337611356
 20
5.282532098568228
 30
0.0
 10
5.939897502894023
 20
5.28255360019213
 30
0.0
 10
5.943886256408632
 20
5.283021836730295
 30
0.0
 10
5.960079434143995
 20
5.285404044995548
 30
0.0
 10
5.990719959669274
 20
5.293555114042227
 30
0.0
 10
6.036448271002733
 20
5.31579711408683
 30
0.0
 10
6.077233513224946
 20
5.352261897885639
 30
0.0
 10
6.106732235201214
 20
5.399353994127082
 30
0.0
 10
6.113108055860443
 20
5.430572644276029
 30
0.0
 10
6.116432136152273
 20
5.44684871370201
 30
0.0
  0
ARC
  5
AFD
330
2
100
AcDbEntity
  8
PART
 62
     1
100
AcDbCircle
 10
6.092453901777954
 20
5.106073273749988
 30
0.0
 40
0.6145508982502329
100
AcDbArc
 50
176.1121054622999
 51
183.8878945377001
  0
LINE
  5
AFE
330
2
100
AcDbEntity
  8
PART
 62
     1
100
AcDbLine
 10
5.479317314477953
 20
5.14774258904999
 30
0.0
 11
5.939931695077962
 21
5.158990619049991
 31
0.0
  0
ELLIPSE
  5
AFF
330
2
100
AcDbEntity
  8
PART
 62
     1
100
AcDbEllipse
 10
5.492401312077952
 20
5.173379804549991
 30
0.0
 11
-0.2499552016498112
 21
-0.010905126720413
 31
0.0
210
0.0
220
0.0
230
1.0
 40
0.4339761266000001
 41
6.264253917757576
 42
7.782690366992637
  0
ELLIPSE
  5
B00
330
2
100
AcDbEntity
  8
PART
 62
     1
100
AcDbEllipse
 10
5.492401312077952
 20
4.93983703944999
 30
0.0
 11
-0.2499552016498112
 21
0.010905126720413
 31
0.0
210
0.0
220
0.0
230
1.0
 40
0.4339761266000001
 41
0.0189313894220418
 42
1.537367838657092
  0
LINE
  5
B01
330
2
100
AcDbEntity
  8
PART
 62
     1
100
AcDbLine
 10
6.117401298277954
 20
3.35872120254999
 30
0.0
 11
6.117488270577965
 21
3.353828752449992
 31
0.0
  0
SPLINE
  5
B02
330
2
100
AcDbEntity
  8
PART
 62
     1
100
AcDbSpline
210
0.0
220
0.0
230
1.0
 70
     8
 71
     3
 72
    12
 73
     8
 74
     0
 42
0.0000000001
 43
0.0000000001
 40
0.0
 40
0.0
 40
0.0
 40
0.0
 40
0.2008910139047073
 40
0.5440015204838133
 40
0.7974431274399926
 40
0.9270653580487453
 40
1.0
 40
1.0
 40
1.0
 40
1.0
 10
6.154012982015132
 20
4.68619848079841
 30
0.0
 10
6.151600292495533
 20
4.677578475622269
 30
0.0
 10
6.145066865531337
 20
4.654235988413653
 30
0.0
 10
6.133238378369767
 20
4.625511789602729
 30
0.0
 10
6.12326893142054
 20
4.607358934594
 30
0.0
 10
6.118534912605625
 20
4.60276807323785
 30
0.0
 10
6.117765362487176
 20
4.604931837464622
 30
0.0
 10
6.11748827061838
 20
4.605710943930628
 30
0.0
  0
LINE
  5
B03
330
2
100
AcDbEntity
  8
PART
 62
     1
100
AcDbLine
 10
6.145358281977951
 20
3.301585809249989
 30
0.0
 11
6.154012981977952
 21
3.297426977349989
 31
0.0
  0
LINE
  5
B04
330
2
100
AcDbEntity
  8
PART
 62
     1
100
AcDbLine
 10
6.125163761977965
 20
3.309405692249992
 30
0.0
 11
6.145358281977951
 21
3.301585809249989
 31
0.0
  0
ARC
  5
B05
330
2
100
AcDbEntity
  8
PART
 62
     1
100
AcDbCircle
 10
5.301581484477953
 20
5.161481932949989
 30
0.0
 40
0.0592586195921161
100
AcDbArc
 50
89.9527893049
 51
177.0515146788999
  0
ELLIPSE
  5
B06
330
2
100
AcDbEntity
  8
PART
 62
     1
100
AcDbEllipse
 10
5.489130314877964
 20
5.229590240149992
 30
0.0
 11
-0.1874404573116166
 21
-0.0109005837994616
 31
0.0
210
0.0
220
0.0
230
0.9999999999999998
 40
0.433456594
 41
6.257983013092172
 42
7.776419462327257
  0
LINE
  5
B07
330
2
100
AcDbEntity
  8
PART
 62
     1
100
AcDbLine
 10
5.301630312577952
 20
5.264971681449988
 30
0.0
 11
5.301630312577952
 21
5.220740532349989
 31
0.0
  0
LINE
  5
B08
330
2
100
AcDbEntity
  8
PART
 62
     1
100
AcDbLine
 10
5.939714337577953
 20
5.282532098549989
 30
0.0
 11
5.301630312577952
 21
5.264971681449988
 31
0.0
  0
ARC
  5
B09
330
2
100
AcDbEntity
  8
PART
 62
     1
100
AcDbCircle
 10
5.942294021077952
 20
7.530567894549992
 30
0.0
 40
0.1761387887016795
100
AcDbArc
 50
5.936280058800029
 51
90.7684586028
  0
SPLINE
  5
B0A
330
2
100
AcDbEntity
  8
PART
 62
     1
100
AcDbSpline
210
0.0
220
0.0
230
1.0
 70
     8
 71
     3
 72
    12
 73
     8
 74
     0
 42
0.0000000001
 43
0.0000000001
 40
0.0
 40
0.0
 40
0.0
 40
0.0
 40
0.0954857060021776
 40
0.2051045709376429
 40
0.4768101629489013
 40
0.8249564904936171
 40
1.0
 40
1.0
 40
1.0
 40
1.0
 10
5.939931695100426
 20
7.706690841146237
 30
0.0
 10
5.941501738657485
 20
7.70872754762254
 30
0.0
 10
5.944874213173381
 20
7.713102420317479
 30
0.0
 10
5.958521711713725
 20
7.722765600249658
 30
0.0
 10
5.982553599986175
 20
7.7362163456899
 30
0.0
 10
6.010651197109861
 20
7.749876685783409
 30
0.0
 10
6.028670429645394
 20
7.76011738316027
 30
0.0
 10
6.034699120339041
 20
7.763543611044863
 30
0.0
  0
ARC
  5
B0B
330
2
100
AcDbEntity
  8
PART
 62
     1
100
AcDbCircle
 10
6.694635345877951
 20
9.332465862849993
 30
0.0
 40
1.702067229600354
100
AcDbArc
 50
247.1869032056001
 51
251.4805286635
  0
ARC
  5
B0C
330
2
100
AcDbEntity
  8
PART
 62
     1
100
AcDbCircle
 10
5.962502700977964
 20
4.53919451214999
 30
0.0
 40
0.2414256708495735
100
AcDbArc
 50
37.50997164389998
 51
72.59992651720008
  0
SPLINE
  5
B0D
330
2
100
AcDbEntity
  8
PART
 62
     1
100
AcDbSpline
210
0.0
220
0.0
230
1.0
 70
     8
 71
     3
 72
    12
 73
     8
 74
     0
 42
0.0000000001
 43
0.0000000001
 40
0.0
 40
0.0
 40
0.0
 40
0.0
 40
0.2666235758198862
 40
0.5985766079616544
 40
0.7405883894086793
 40
0.8836351766361612
 40
1.0
 40
1.0
 40
1.0
 40
1.0
 10
6.034699120339041
 20
4.769572530987598
 30
0.0
 10
6.03759964486586
 20
4.77053654622172
 30
0.0
 10
6.044111395101175
 20
4.772700784575722
 30
0.0
 10
6.051229138947725
 20
4.777193286043221
 30
0.0
 10
6.054697944280803
 20
4.782856120863588
 30
0.0
 10
6.055295768554952
 20
4.787341530748498
 30
0.0
 10
6.054364964215913
 20
4.790264997640637
 30
0.0
 10
6.053947431314234
 20
4.79157638346388
 30
0.0
  0
SPLINE
  5
B0E
330
2
100
AcDbEntity
  8
PART
 62
     1
100
AcDbSpline
210
0.0
220
0.0
230
1.0
 70
     8
 71
     3
 72
    12
 73
     8
 74
     0
 42
0.0000000001
 43
0.0000000001
 40
0.0
 40
0.0
 40
0.0
 40
0.0
 40
0.2666239032445545
 40
0.5985736915545552
 40
0.7405833987522483
 40
0.8836307934677687
 40
1.0
 40
1.0
 40
1.0
 40
1.0
 10
6.034699120339041
 20
7.763543611044863
 30
0.0
 10
6.037599638962692
 20
7.765406530932153
 30
0.0
 10
6.044111336221874
 20
7.769588807241362
 30
0.0
 10
6.051229123126766
 20
7.776336733984493
 30
0.0
 10
6.054697967189394
 20
7.783167654522561
 30
0.0
 10
6.055295754489304
 20
7.787922686469368
 30
0.0
 10
6.054364965172052
 20
7.790618105470571
 30
0.0
 10
6.053947431314234
 20
7.791827217643557
 30
0.0
  0
ARC
  5
B0F
330
2
100
AcDbEntity
  8
PART
 62
     1
100
AcDbCircle
 10
6.038401765677953
 20
8.070015612649992
 30
0.0
 40
0.2786224162119142
100
AcDbArc
 50
273.1984641685
 51
299.7637875342001
  0
SPLINE
  5
B10
330
2
100
AcDbEntity
  8
PART
 62
     1
100
AcDbSpline
210
0.0
220
0.0
230
1.0
 70
     8
 71
     3
 72
    10
 73
     6
 74
     0
 42
0.0000000001
 43
0.0000000001
 40
0.0
 40
0.0
 40
0.0
 40
0.0
 40
0.207060888093385
 40
0.7347050968079812
 40
1.0
 40
1.0
 40
1.0
 40
1.0
 10
5.967095734632444
 20
4.763011913443083
 30
0.0
 10
5.971450130838334
 20
4.762616834831817
 30
0.0
 10
5.986900644527533
 20
4.761214994667817
 30
0.0
 10
6.010716869351405
 20
4.76373098140278
 30
0.0
 10
6.028686868924584
 20
4.76810807859854
 30
0.0
 10
6.034699120339041
 20
4.769572530987598
 30
0.0
  0
ARC
  5
B11
330
2
100
AcDbEntity
  8
PART
 62
     1
100
AcDbCircle
 10
5.946588729177953
 20
7.528593524649988
 30
0.0
 40
0.1716261764432857
100
AcDbArc
 50
5.58116675900016
 51
92.29556484040001
  0
LINE
  5
B12
330
2
100
AcDbEntity
  8
PART
 62
     1
100
AcDbLine
 10
5.939714337577953
 20
7.700081970849989
 30
0.0
 11
5.939931695077962
 21
7.706690841149992
 31
0.0
  0
ARC
  5
B13
330
2
100
AcDbEntity
  8
PART
 62
     1
100
AcDbCircle
 10
5.757752400277965
 20
4.805528608649989
 30
0.0
 40
0.2796705694016796
100
AcDbArc
 50
174.6124322454001
 51
181.8360377520999
  0
SPLINE
  5
B14
330
2
100
AcDbEntity
  8
PART
 62
     1
100
AcDbSpline
210
0.0
220
0.0
230
1.0
 70
     8
 71
     3
 72
    14
 73
    10
 74
     0
 42
0.0000000001
 43
0.0000000001
 40
0.0
 40
0.0
 40
0.0
 40
0.0
 40
0.2018219232430798
 40
0.387108266096686
 40
0.6430916836819728
 40
0.8148920532668761
 40
0.9544878655430292
 40
0.9979100081134143
 40
1.0
 40
1.0
 40
1.0
 40
1.0
 10
6.116432136152273
 20
7.391103973499337
 30
0.0
 10
6.113108064380764
 20
7.406155490242149
 30
0.0
 10
6.106732267147393
 20
7.435025329825542
 30
0.0
 10
6.077233465124432
 20
7.479090268659433
 30
0.0
 10
6.036448323667354
 20
7.513676065385421
 30
0.0
 10
5.990719843157215
 20
7.535312716332398
 30
0.0
 10
5.960079628881715
 20
7.54360198920612
 30
0.0
 10
5.943886148529806
 20
7.546212518154938
 30
0.0
 10
5.939897502768907
 20
7.54674636031417
 30
0.0
 10
5.939714337611356
 20
7.546770875221998
 30
0.0
  0
LINE
  5
B15
330
2
100
AcDbEntity
  8
PART
 62
     1
100
AcDbLine
 10
5.939714337577953
 20
7.54677087524999
 30
0.0
 11
5.939714337577953
 21
7.700081970849989
 31
0.0
  0
SPLINE
  5
B16
330
2
100
AcDbEntity
  8
PART
 62
     1
100
AcDbSpline
210
0.0
220
0.0
230
1.0
 70
     8
 71
     3
 72
     9
 73
     5
 74
     0
 42
0.0000000001
 43
0.0000000001
 40
0.0
 40
0.0
 40
0.0
 40
0.0
 40
0.4348040002649255
 40
1.0
 40
1.0
 40
1.0
 40
1.0
 10
6.053947431314234
 20
7.791827217643557
 30
0.0
 10
6.052041598016021
 20
7.829930627384726
 30
0.0
 10
6.047658397086266
 20
7.91756415816631
 30
0.0
 10
6.051676446090375
 20
8.00546926666815
 30
0.0
 10
6.053947431314234
 20
8.05515288234967
 30
0.0
  0
ARC
  5
B17
330
2
100
AcDbEntity
  8
PART
 62
     1
100
AcDbCircle
 10
6.063478357377963
 20
8.318762084049989
 30
0.0
 40
0.2637814432356752
100
AcDbArc
 50
267.9293436215001
 51
295.4224909385
  0
ARC
  5
B18
330
2
100
AcDbEntity
  8
PART
 62
     1
100
AcDbCircle
 10
6.151567143777953
 20
7.75642317334999
 30
0.0
 40
0.6736465569470398
100
AcDbArc
 50
176.3097777518999
 51
183.6902222481
  0
LINE
  5
B19
330
2
100
AcDbEntity
  8
PART
 62
     1
100
AcDbLine
 10
5.479317314477953
 20
7.799780419149989
 30
0.0
 11
6.053947431277954
 21
7.791827217649991
 31
0.0
  0
LINE
  5
B1A
330
2
100
AcDbEntity
  8
PART
 62
     1
100
AcDbLine
 10
5.939931695077962
 20
7.706690841149992
 30
0.0
 11
5.479317314477953
 21
7.71306592754999
 31
0.0
  0
SPLINE
  5
B1B
330
2
100
AcDbEntity
  8
PART
 62
     1
100
AcDbSpline
210
0.0
220
0.0
230
1.0
 70
     8
 71
     3
 72
    14
 73
    10
 74
     0
 42
0.0000000001
 43
0.0000000001
 40
0.0
 40
0.0
 40
0.0
 40
0.0
 40
0.0020902014081864
 40
0.045511786275201
 40
0.1851081094960996
 40
0.3569083263930727
 40
0.6128916254622135
 40
0.7981780316776454
 40
1.0
 40
1.0
 40
1.0
 40
1.0
 10
5.939714337611356
 20
5.282532098568228
 30
0.0
 10
5.939751717593292
 20
5.282613097298497
 30
0.0
 10
5.940565624684996
 20
5.284376753607411
 30
0.0
 10
5.943847889805105
 20
5.292027568673443
 30
0.0
 10
5.949890702917496
 20
5.31021553512285
 30
0.0
 10
5.958445135148782
 20
5.347626228996261
 30
0.0
 10
5.965309461417323
 20
5.39793211730085
 30
0.0
 10
5.969320915418016
 20
5.45542403431579
 30
0.0
 10
5.969219945492504
 20
5.489285381992527
 30
0.0
 10
5.969167304034844
 20
5.506939259530891
 30
0.0
  0
LWPOLYLINE
  5
B1C
330
2
100
AcDbEntity
  8
PART
 62
     1
100
AcDbPolyline
 90
        9
 70
   128
 43
0.0
 10
6.116432136177952
 20
5.446848713749989
 10
6.113265346077966
 20
5.45585650964999
 10
6.104736924577952
 20
5.46505020344999
 10
6.091147168277952
 20
5.47410625214999
 10
6.072974571477963
 20
5.48270558614999
 10
6.050859106977952
 20
5.490545562249991
 10
6.025579272377964
 20
5.49735008364999
 10
5.998025250677955
 20
5.50287949974999
 10
5.969167304077952
 20
5.506939259549991
  0
LINE
  5
B1D
330
2
100
AcDbEntity
  8
PART
 62
     1
100
AcDbLine
 10
5.479317314477953
 20
8.013312885649988
 30
0.0
 11
5.479317314477953
 21
7.799780419149989
 31
0.0
  0
LINE
  5
B1E
330
2
100
AcDbEntity
  8
PART
 62
     1
100
AcDbLine
 10
6.053947431277954
 20
8.05515288234999
 30
0.0
 11
5.479317314477953
 21
8.013312885649988
 31
0.0
  0
ELLIPSE
  5
B1F
330
2
100
AcDbEntity
  8
PART
 62
     1
100
AcDbEllipse
 10
5.492401312077952
 20
7.658892991049988
 30
0.0
 11
-0.2499110079687841
 21
0.0118734366541951
 31
0.0
210
0.0
220
0.0
230
1.0
 40
0.5617530902000001
 41
4.791431783037219
 42
6.309868232272296
  0
ELLIPSE
  5
B20
330
2
100
AcDbEntity
  8
PART
 62
     1
100
AcDbEllipse
 10
5.489130314877964
 20
7.607294090549991
 30
0.0
 11
-0.1873818070243569
 21
0.0118636209078318
 31
0.0
210
0.0
220
0.0
230
1.0
 40
0.5610812488
 41
4.800257413929033
 42
6.318693863164141
  0
ARC
  5
B21
330
2
100
AcDbEntity
  8
PART
 62
     1
100
AcDbCircle
 10
5.299339044677953
 20
7.672580763949987
 30
0.0
 40
0.057208957099501
100
AcDbArc
 50
185.5813852566
 51
272.2953591525
  0
SPLINE
  5
B22
330
2
100
AcDbEntity
  8
PART
 62
     1
100
AcDbSpline
210
0.0
220
0.0
230
1.0
 70
     8
 71
     3
 72
    13
 73
     9
 74
     0
 42
0.0000000001
 43
0.0000000001
 40
0.0
 40
0.0
 40
0.0
 40
0.0
 40
0.147193042665475
 40
0.3012798390430688
 40
0.6280237309691004
 40
0.8304537522797954
 40
0.9492371953764266
 40
1.0
 40
1.0
 40
1.0
 40
1.0
 10
5.273227517757305
 20
5.257896563160041
 30
0.0
 10
5.270347067238745
 20
5.256265964727042
 30
0.0
 10
5.264451260936407
 20
5.252928399142795
 30
0.0
 10
5.254954771881855
 20
5.246939545075839
 30
0.0
 10
5.247798940369264
 20
5.240479327193156
 30
0.0
 10
5.243598004715245
 20
5.231042838680561
 30
0.0
 10
5.242486128898352
 20
5.223589160169371
 30
0.0
 10
5.242420855431177
 20
5.21983369631015
 30
0.0
 10
5.242401312301765
 20
5.218709295854701
 30
0.0
  0
SPLINE
  5
B23
330
2
100
AcDbEntity
  8
PART
 62
     1
100
AcDbSpline
210
0.0
220
0.0
230
1.0
 70
     8
 71
     3
 72
     9
 73
     5
 74
     0
 42
0.0000000001
 43
0.0000000001
 40
0.0
 40
0.0
 40
0.0
 40
0.0
 40
0.6979029253243452
 40
1.0
 40
1.0
 40
1.0
 40
1.0
 10
5.301630312562451
 20
5.26497168142767
 30
0.0
 10
5.294674928736217
 20
5.26450203054588
 30
0.0
 10
5.284708809418123
 20
5.263829084689458
 30
0.0
 10
5.275891270477195
 20
5.259272956237289
 30
0.0
 10
5.273227517757305
 20
5.257896563160041
 30
0.0
  0
LINE
  5
B24
330
2
100
AcDbEntity
  8
PART
 62
     1
100
AcDbLine
 10
5.301630312577952
 20
7.558163516949989
 30
0.0
 11
5.939714337577953
 21
7.54677087524999
 31
0.0
  0
LINE
  5
B25
330
2
100
AcDbEntity
  8
PART
 62
     1
100
AcDbLine
 10
5.301630312577952
 20
7.615417708849989
 30
0.0
 11
5.301630312577952
 21
7.558163516949989
 31
0.0
  0
ELLIPSE
  5
B26
330
2
100
AcDbEntity
  8
PART
 62
     1
100
AcDbEllipse
 10
5.492401312077952
 20
7.87327577904999
 30
0.0
 11
-0.2499110079687841
 21
-0.0118734366541951
 31
0.0
210
0.0
220
0.0
230
1.0
 40
0.5617530902000001
 41
4.738065932851831
 42
6.256502382086924
  0
ARC
  5
B27
330
2
100
AcDbEntity
  8
PART
 62
     1
100
AcDbCircle
 10
3.387255966777953
 20
5.37778370154999
 30
0.0
 40
1.917695410584013
100
AcDbArc
 50
356.6275215379999
 51
3.372478462000048
  0
ARC
  5
B28
330
2
100
AcDbEntity
  8
PART
 62
     1
100
AcDbCircle
 10
4.715729651277953
 20
5.146125774449991
 30
0.0
 40
0.5685917519044579
100
AcDbArc
 50
11.33673154599994
 51
33.8364720933999
  0
LWPOLYLINE
  5
B29
330
2
100
AcDbEntity
  8
PART
 62
     1
100
AcDbPolyline
 90
        9
 70
   128
 43
0.0
 10
5.157192919877953
 20
5.280401203149999
 10
5.175874100277962
 20
5.274950179449991
 10
5.192691054377952
 20
5.268632512449993
 10
5.207384625077953
 20
5.261545441049989
 10
5.219728382277953
 20
5.25379830384999
 10
5.229532103177966
 20
5.24551041294999
 10
5.236644710377962
 20
5.236809513449991
 10
5.240956595877953
 20
5.227829657149989
 10
5.242401312277952
 20
5.21870929584999
  0
ARC
  5
B2A
330
2
100
AcDbEntity
  8
PART
 62
     1
100
AcDbCircle
 10
5.145021974277952
 20
4.97781834034999
 30
0.0
 40
0.1005490718346368
100
AcDbArc
 50
14.42472517210006
 51
83.04759334339994
  0
SPLINE
  5
B2B
330
2
100
AcDbEntity
  8
PART
 62
     1
100
AcDbSpline
210
0.0
220
0.0
230
1.0
 70
     8
 71
     3
 72
    12
 73
     8
 74
     0
 42
0.0000000001
 43
0.0000000001
 40
0.0
 40
0.0
 40
0.0
 40
0.0
 40
0.1497608212643141
 40
0.300147597718434
 40
0.4748604254963328
 40
0.7817004796823845
 40
1.0
 40
1.0
 40
1.0
 40
1.0
 10
6.053947431314234
 20
8.05515288234967
 30
0.0
 10
6.054448986957513
 20
8.05671250101837
 30
0.0
 10
6.055454194595792
 20
8.059838257092724
 30
0.0
 10
6.054108425564873
 20
8.064390483480707
 30
0.0
 10
6.049739163401433
 20
8.068897289277007
 30
0.0
 10
6.042817691564792
 20
8.0720049321129
 30
0.0
 10
6.037083014617113
 20
8.073397130633281
 30
0.0
 10
6.034699120339041
 20
8.073975864904969
 30
0.0
  0
ARC
  5
B2C
330
2
100
AcDbEntity
  8
PART
 62
     1
100
AcDbCircle
 10
5.977401273777953
 20
8.28530964195
 30
0.0
 40
0.2189634867582234
100
AcDbArc
 50
285.1696301728001
 51
323.7631829935001
  0
SPLINE
  5
B2D
330
2
100
AcDbEntity
  8
PART
 62
     1
100
AcDbSpline
210
0.0
220
0.0
230
1.0
 70
     8
 71
     3
 72
    14
 73
    10
 74
     0
 42
0.0000000001
 43
0.0000000001
 40
0.0
 40
0.0
 40
0.0
 40
0.0
 40
0.2018219419070005
 40
0.3871081930098347
 40
0.6430912115049207
 40
0.8148918109645814
 40
0.9544875548621599
 40
0.997909714195222
 40
1.0
 40
1.0
 40
1.0
 40
1.0
 10
5.969167304034844
 20
7.310703995620066
 30
0.0
 10
5.969219945338611
 20
7.327599035105532
 30
0.0
 10
5.969320914934822
 20
7.360004868407152
 30
0.0
 10
5.965309467035524
 20
7.417984280470641
 30
0.0
 10
5.958445107025791
 20
7.471089521185728
 30
0.0
 10
5.949890738993175
 20
7.513021045937897
 30
0.0
 10
5.943847865750434
 20
7.534741031812068
 30
0.0
 10
5.940565603093784
 20
7.54439892490754
 30
0.0
 10
5.939751717570842
 20
7.546666720397819
 30
0.0
 10
5.939714337611356
 20
7.546770875221998
 30
0.0
  0
LWPOLYLINE
  5
B2E
330
2
100
AcDbEntity
  8
PART
 62
     1
100
AcDbPolyline
 90
        9
 70
   128
 43
0.0
 10
5.969167304077952
 20
7.310703995649987
 10
5.998025250677955
 20
7.31519348374999
 10
6.025579272377964
 20
7.321893946349991
 10
6.050859106977952
 20
7.330569472749989
 10
6.072974571477963
 20
7.340914559949993
 10
6.091147168277952
 20
7.352564965349991
 10
6.104736924577952
 20
7.36511046715
 10
6.113265346077966
 20
7.378109383649992
 10
6.116432136177952
 20
7.39110397344999
  0
ARC
  5
B2F
330
2
100
AcDbEntity
  8
PART
 62
     1
100
AcDbCircle
 10
3.151833793677951
 20
7.439437781849992
 30
0.0
 40
2.153072426301253
100
AcDbArc
 50
356.8389657673001
 51
3.161034232699959
  0
ARC
  5
B30
330
2
100
AcDbEntity
  8
PART
 62
     1
100
AcDbCircle
 10
5.803138360977953
 20
8.042033975249989
 30
0.0
 40
0.3250922501842993
100
AcDbArc
 50
180.2646647598999
 51
185.0685474475999
  0
SPLINE
  5
B31
330
2
100
AcDbEntity
  8
PART
 62
     1
100
AcDbSpline
210
0.0
220
0.0
230
1.0
 70
     8
 71
     3
 72
     9
 73
     5
 74
     0
 42
0.0000000001
 43
0.0000000001
 40
0.0
 40
0.0
 40
0.0
 40
0.0
 40
0.2281423709225814
 40
1.0
 40
1.0
 40
1.0
 40
1.0
 10
6.034699120339041
 20
8.073975864904969
 30
0.0
 10
6.030755415395553
 20
8.07473212990278
 30
0.0
 10
6.013469257951228
 20
8.078047011723011
 30
0.0
 10
5.996341247996554
 20
8.076201786674815
 30
0.0
 10
5.983120862842131
 20
8.07477753564401
 30
0.0
  0
SPLINE
  5
B32
330
2
100
AcDbEntity
  8
PART
 62
     1
100
AcDbSpline
210
0.0
220
0.0
230
1.0
 70
     8
 71
     3
 72
    12
 73
     8
 74
     0
 42
0.0000000001
 43
0.0000000001
 40
0.0
 40
0.0
 40
0.0
 40
0.0
 40
0.0432267117171935
 40
0.1917582734211124
 40
0.2472604292476595
 40
0.5931355395515618
 40
1.0
 40
1.0
 40
1.0
 40
1.0
 10
6.11748827061838
 20
8.213445600405346
 30
0.0
 10
6.117624210512826
 20
8.214355519233709
 30
0.0
 10
6.11822725428863
 20
8.218392015570046
 30
0.0
 10
6.120658647257112
 20
8.218709644348489
 30
0.0
 10
6.127065797012075
 20
8.21452559488026
 30
0.0
 10
6.139303363166305
 20
8.196845489305118
 30
0.0
 10
6.148851891698683
 20
8.170250144289489
 30
0.0
 10
6.154012982015132
 20
8.155875052131907
 30
0.0
  0
ARC
  5
B33
330
2
100
AcDbEntity
  8
PART
 62
     1
100
AcDbCircle
 10
4.76284560277795
 20
7.637703798149988
 30
0.0
 40
0.5156152044537853
100
AcDbArc
 50
325.5474130783
 51
351.8298474555
  0
SPLINE
  5
B34
330
2
100
AcDbEntity
  8
PART
 62
     1
100
AcDbSpline
210
0.0
220
0.0
230
1.0
 70
     8
 71
     3
 72
     9
 73
     5
 74
     0
 42
0.0000000001
 43
0.0000000001
 40
0.0
 40
0.0
 40
0.0
 40
0.0
 40
0.6465541981087774
 40
1.0
 40
1.0
 40
1.0
 40
1.0
 10
5.273227517757305
 20
7.564428017911851
 30
0.0
 10
5.279122433623342
 20
7.5619147163397
 30
0.0
 10
5.288239868609132
 20
7.558027491448882
 30
0.0
 10
5.298133463117771
 20
7.55812799454808
 30
0.0
 10
5.301630312562451
 20
7.558163516946567
 30
0.0
  0
LINE
  5
B35
330
2
100
AcDbEntity
  8
PART
 62
     1
100
AcDbLine
 10
6.117401298277954
 20
8.211503462849993
 30
0.0
 11
6.117488270577965
 21
8.21344560044999
 31
0.0
  0
LINE
  5
B36
330
2
100
AcDbEntity
  8
PART
 62
     1
100
AcDbLine
 10
6.117488270577965
 20
9.18057378804999
 30
0.0
 11
6.117401298277954
 21
9.17582066964999
 31
0.0
  0
SPLINE
  5
B37
330
2
100
AcDbEntity
  8
PART
 62
     1
100
AcDbSpline
210
0.0
220
0.0
230
1.0
 70
     8
 71
     3
 72
     9
 73
     5
 74
     0
 42
0.0000000001
 43
0.0000000001
 40
0.0
 40
0.0
 40
0.0
 40
0.0
 40
0.8324133689866965
 40
1.0
 40
1.0
 40
1.0
 40
1.0
 10
6.145358281994965
 20
9.247526347949658
 30
0.0
 10
6.138259913798897
 20
9.23982287554633
 30
0.0
 10
6.129732458017286
 20
9.230568492219077
 30
0.0
 10
6.125819518329997
 20
9.22241579089438
 30
0.0
 10
6.125163761950446
 20
9.221049507145721
 30
0.0
  0
LINE
  5
B38
330
2
100
AcDbEntity
  8
PART
 62
     1
100
AcDbLine
 10
6.154012981977956
 20
9.255031781249989
 30
0.0
 11
6.145358281977955
 21
9.247526347949989
 31
0.0
  0
SPLINE
  5
B39
330
2
100
AcDbEntity
  8
PART
 62
     1
100
AcDbSpline
210
0.0
220
0.0
230
1.0
 70
     8
 71
     3
 72
    13
 73
     9
 74
     0
 42
0.0000000001
 43
0.0000000001
 40
0.0
 40
0.0
 40
0.0
 40
0.0
 40
0.1340092326252743
 40
0.2915885846689564
 40
0.6115283290127636
 40
0.7671603541116101
 40
0.9383497632273043
 40
1.0
 40
1.0
 40
1.0
 40
1.0
 10
5.242401312301765
 20
7.596885416294547
 30
0.0
 10
5.242539744405725
 20
7.594150832206047
 30
0.0
 10
5.242840956646695
 20
7.588200693634245
 30
0.0
 10
5.246244434549861
 20
7.579795558957638
 30
0.0
 10
5.252072244592394
 20
7.5750697086496
 30
0.0
 10
5.260660672325073
 20
7.570628360085933
 30
0.0
 10
5.267401693327933
 20
7.567488699604542
 30
0.0
 10
5.272007905551202
 20
7.565068758942867
 30
0.0
 10
5.273227517757305
 20
7.564428017911851
 30
0.0
  0
ARC
  5
B3A
330
2
100
AcDbEntity
  8
PART
 62
     1
100
AcDbCircle
 10
5.139423773677954
 20
7.618221571849993
 30
0.0
 40
0.1051646566066634
100
AcDbArc
 50
279.7276474359999
 51
348.2943809224001
  0
ARC
  5
B3B
330
2
100
AcDbEntity
  8
PART
 62
     1
100
AcDbCircle
 10
5.382279184477951
 20
4.777275307549988
 30
0.0
 40
0.230645783503578
100
AcDbArc
 50
127.3341101627999
 51
147.377859866
  0
SPLINE
  5
B3C
330
2
100
AcDbEntity
  8
PART
 62
     1
100
AcDbSpline
210
0.0
220
0.0
230
1.0
 70
     8
 71
     3
 72
     9
 73
     5
 74
     0
 42
0.0000000001
 43
0.0000000001
 40
0.0
 40
0.0
 40
0.0
 40
0.0
 40
0.1477807019021036
 40
1.0
 40
1.0
 40
1.0
 40
1.0
 10
5.273247473360111
 20
4.8759555287088
 30
0.0
 10
5.268833062236407
 20
4.876469486647952
 30
0.0
 10
5.238961698337845
 20
4.879947328697241
 30
0.0
 10
5.211458165567773
 20
4.89164586979686
 30
0.0
 10
5.188019124175266
 20
4.901615592281547
 30
0.0
  0
ARC
  5
B3D
330
2
100
AcDbEntity
  8
PART
 62
     1
100
AcDbCircle
 10
5.962216472177953
 20
3.656112476549989
 30
0.0
 40
0.1564763393848909
100
AcDbArc
 50
30.23906693049997
 51
87.39484069199972
  0
LINE
  5
B3E
330
2
100
AcDbEntity
  8
PART
 62
     1
100
AcDbLine
 10
5.969328782177953
 20
3.81242709464999
 30
0.0
 11
5.969328782177953
 21
4.758154222849992
 31
0.0
  0
ARC
  5
B3F
330
2
100
AcDbEntity
  8
PART
 62
     1
100
AcDbCircle
 10
5.129426566677953
 20
7.811439982749988
 30
0.0
 40
0.1141616448959039
100
AcDbArc
 50
284.0766438793
 51
351.7308393049
  0
LINE
  5
B40
330
2
100
AcDbEntity
  8
PART
 62
     1
100
AcDbLine
 10
5.969167304077952
 20
3.81175786244999
 30
0.0
 11
5.969328782177953
 21
3.81242709464999
 31
0.0
  0
SPLINE
  5
B41
330
2
100
AcDbEntity
  8
PART
 62
     1
100
AcDbSpline
210
0.0
220
0.0
230
1.0
 70
     8
 71
     3
 72
     9
 73
     5
 74
     0
 42
0.0000000001
 43
0.0000000001
 40
0.0
 40
0.0
 40
0.0
 40
0.0
 40
0.5605021995868144
 40
1.0
 40
1.0
 40
1.0
 40
1.0
 10
5.301630312562451
 20
3.839768965491067
 30
0.0
 10
5.426348132739381
 20
3.834513090343296
 30
0.0
 10
5.648858981526174
 20
3.825136008234352
 30
0.0
 10
5.871372918273227
 20
3.81584238804303
 30
0.0
 10
5.969167304034844
 20
3.811757862411049
 30
0.0
  0
SPLINE
  5
B42
330
2
100
AcDbEntity
  8
PART
 62
     1
100
AcDbSpline
210
0.0
220
0.0
230
1.0
 70
     8
 71
     3
 72
     9
 73
     5
 74
     0
 42
0.0000000001
 43
0.0000000001
 40
0.0
 40
0.0
 40
0.0
 40
0.0
 40
0.3004602151384567
 40
1.0
 40
1.0
 40
1.0
 40
1.0
 10
5.188019124175266
 20
3.83914197273414
 30
0.0
 10
5.198688533496024
 20
3.839672534724719
 30
0.0
 10
5.234198756757514
 20
3.841438365819289
 30
0.0
 10
5.273875118797153
 20
3.840456099712259
 30
0.0
 10
5.301630312562451
 20
3.839768965491067
 30
0.0
  0
LINE
  5
B43
330
2
100
AcDbEntity
  8
PART
 62
     1
100
AcDbLine
 10
7.305726957277954
 20
3.700389868949987
 30
0.0
 11
7.488647364177964
 21
3.700389868949987
 31
0.0
  0
ARC
  5
B44
330
2
100
AcDbEntity
  8
PART
 62
     1
100
AcDbCircle
 10
5.293552333577967
 20
7.931355336449989
 30
0.0
 40
0.1267853754456127
100
AcDbArc
 50
213.6563238606
 51
246.2062333503999
  0
SPLINE
  5
B45
330
2
100
AcDbEntity
  8
PART
 62
     1
100
AcDbSpline
210
0.0
220
0.0
230
1.0
 70
     8
 71
     3
 72
     9
 73
     5
 74
     0
 42
0.0000000001
 43
0.0000000001
 40
0.0
 40
0.0
 40
0.0
 40
0.0
 40
0.6136322605592373
 40
1.0
 40
1.0
 40
1.0
 40
1.0
 10
5.188019124175266
 20
7.86108960418522
 30
0.0
 10
5.198557865510593
 20
7.865729536114191
 30
0.0
 10
5.215732225485947
 20
7.873290957224494
 30
0.0
 10
5.234946470830323
 20
7.876208032670181
 30
0.0
 10
5.242370235369094
 20
7.877335096515906
 30
0.0
  0
LINE
  5
B46
330
2
100
AcDbEntity
  8
PART
 62
     1
100
AcDbLine
 10
7.213401357177954
 20
3.934030689949992
 30
0.0
 11
7.213401357177954
 21
4.566654941749991
 31
0.0
  0
LINE
  5
B47
330
2
100
AcDbEntity
  8
PART
 62
     1
100
AcDbLine
 10
7.037401337077955
 20
3.82138788444999
 30
0.0
 11
7.037401337077955
 21
4.566654941749991
 31
0.0
  0
ELLIPSE
  5
B48
330
2
100
AcDbEntity
  8
PART
 62
     1
100
AcDbEllipse
 10
7.321475978977954
 20
6.23750000004999
 30
0.0
 11
-0.3519790159046251
 21
2.556167751351568
 31
0.0
210
0.0
220
0.0
230
1.0
 40
0.341962794
 41
2.643844190093088
 42
2.675838391489715
  0
LINE
  5
B49
330
2
100
AcDbEntity
  8
PART
 62
     1
100
AcDbLine
 10
5.969328782177953
 20
8.080753106649989
 30
0.0
 11
5.969328782177953
 21
8.718602004749993
 31
0.0
  0
ARC
  5
B4A
330
2
100
AcDbEntity
  8
PART
 62
     1
100
AcDbCircle
 10
5.961282226577953
 20
8.874665997349989
 30
0.0
 40
0.1562712923923438
100
AcDbArc
 50
272.9515187030001
 51
330.5801351885999
  0
LINE
  5
B4B
330
2
100
AcDbEntity
  8
PART
 62
     1
100
AcDbLine
 10
5.969328782177953
 20
8.718602004749993
 30
0.0
 11
5.969167304077956
 21
8.718829922149989
 31
0.0
  0
SPLINE
  5
B4C
330
2
100
AcDbEntity
  8
PART
 62
     1
100
AcDbSpline
210
0.0
220
0.0
230
1.0
 70
     8
 71
     3
 72
     9
 73
     5
 74
     0
 42
0.0000000001
 43
0.0000000001
 40
0.0
 40
0.0
 40
0.0
 40
0.0
 40
0.3533823522101407
 40
1.0
 40
1.0
 40
1.0
 40
1.0
 10
5.301630312562451
 20
8.685960248542489
 30
0.0
 10
5.287642289513932
 20
8.685308990590399
 30
0.0
 10
5.248059036527337
 20
8.683466063381313
 30
0.0
 10
5.211596465855485
 20
8.682510248787771
 30
0.0
 10
5.188019124175269
 20
8.681892202203581
 30
0.0
  0
SPLINE
  5
B4D
330
2
100
AcDbEntity
  8
PART
 62
     1
100
AcDbSpline
210
0.0
220
0.0
230
1.0
 70
     8
 71
     3
 72
     9
 73
     5
 74
     0
 42
0.0000000001
 43
0.0000000001
 40
0.0
 40
0.0
 40
0.0
 40
0.0
 40
0.5602602540124107
 40
1.0
 40
1.0
 40
1.0
 40
1.0
 10
5.969167304034847
 20
8.718829922162548
 30
0.0
 10
5.844501655166006
 20
8.712713340351808
 30
0.0
 10
5.621987835961405
 20
8.701795946574669
 30
0.0
 10
5.39947711880454
 20
8.69079694618151
 30
0.0
 10
5.301630312562451
 20
8.685960248542489
 30
0.0
  0
LINE
  5
B4E
330
2
100
AcDbEntity
  8
PART
 62
     1
100
AcDbLine
 10
6.097401329377952
 20
3.97435065074999
 30
0.0
 11
6.117401298277954
 21
3.97435065074999
 31
0.0
  0
ARC
  5
B4F
330
2
100
AcDbEntity
  8
PART
 62
     1
100
AcDbCircle
 10
6.195870235077965
 20
3.334530027749988
 30
0.0
 40
0.0559344793809992
100
AcDbArc
 50
221.5543788143999
 51
259.5566918183
  0
ARC
  5
B50
330
2
100
AcDbEntity
  8
PART
 62
     1
100
AcDbCircle
 10
6.192774947377952
 20
3.338495050449989
 30
0.0
 40
0.0600885366732821
100
AcDbArc
 50
217.8972719811
 51
257.4555158152999
  0
ARC
  5
B51
330
2
100
AcDbEntity
  8
PART
 62
     1
100
AcDbCircle
 10
5.982332803377964
 20
3.945501894249989
 30
0.0
 40
0.6021254673710704
100
AcDbArc
 50
265.9412085445998
 51
282.9628666431
  0
LINE
  5
B52
330
2
100
AcDbEntity
  8
PART
 62
     1
100
AcDbLine
 10
5.939714337577953
 20
3.344886589049991
 30
0.0
 11
5.939714337577953
 21
3.616636249849989
 31
0.0
  0
SPLINE
  5
B53
330
2
100
AcDbEntity
  8
PART
 62
     1
100
AcDbSpline
210
0.0
220
0.0
230
1.0
 70
     8
 71
     3
 72
    13
 73
     9
 74
     0
 42
0.0000000001
 43
0.0000000001
 40
0.0
 40
0.0
 40
0.0
 40
0.0
 40
0.0027754365243161
 40
0.0604363895890079
 40
0.2458074907745759
 40
0.4739437304049127
 40
0.8138679402709144
 40
1.0
 40
1.0
 40
1.0
 40
1.0
 10
5.939714337611356
 20
3.616636249805921
 30
0.0
 10
5.939897503302663
 20
3.61666616382385
 30
0.0
 10
5.943886019336986
 20
3.61731755513707
 30
0.0
 10
5.960075839119841
 20
3.61999951082797
 30
0.0
 10
5.990773503567154
 20
3.625418696103281
 30
0.0
 10
6.036154761121373
 20
3.63436715697005
 30
0.0
 10
6.075583316237317
 20
3.643395466151186
 30
0.0
 10
6.091699141371631
 20
3.648529477033932
 30
0.0
 10
6.097401329331106
 20
3.650346020387761
 30
0.0
  0
ARC
  5
B54
330
2
100
AcDbEntity
  8
PART
 62
     1
100
AcDbCircle
 10
6.181658200877954
 20
3.330135322949988
 30
0.0
 40
0.0601775640994847
100
AcDbArc
 50
200.1497149098999
 51
266.7986866752
  0
LINE
  5
B55
330
2
100
AcDbEntity
  8
PART
 62
     1
100
AcDbLine
 10
6.188798760177963
 20
3.205375934049989
 30
0.0
 11
6.680835616077963
 21
3.205150363349989
 31
0.0
  0
SPLINE
  5
B56
330
2
100
AcDbEntity
  8
PART
 62
     1
100
AcDbSpline
210
0.0
220
0.0
230
1.0
 70
     8
 71
     3
 72
     9
 73
     5
 74
     0
 42
0.0000000001
 43
0.0000000001
 40
0.0
 40
0.0
 40
0.0
 40
0.0
 40
0.1700171967510226
 40
1.0
 40
1.0
 40
1.0
 40
1.0
 10
6.178297621476893
 20
3.214982783074368
 30
0.0
 10
6.178637354155906
 20
3.214450329848901
 30
0.0
 10
6.180635579544315
 20
3.211318568852728
 30
0.0
 10
6.185096375901544
 20
3.208071196916407
 30
0.0
 10
6.188798760166843
 20
3.205375934053499
 30
0.0
  0
SPLINE
  5
B57
330
2
100
AcDbEntity
  8
PART
 62
     1
100
AcDbSpline
210
0.0
220
0.0
230
1.0
 70
     8
 71
     3
 72
    10
 73
     6
 74
     0
 42
0.0000000001
 43
0.0000000001
 40
0.0
 40
0.0
 40
0.0
 40
0.0
 40
0.2974145532269279
 40
0.9252138519566299
 40
1.0
 40
1.0
 40
1.0
 40
1.0
 10
6.122290228479073
 20
3.23035415216966
 30
0.0
 10
6.131962568751845
 20
3.228741886974262
 30
0.0
 10
6.162051826671845
 20
3.223726362092797
 30
0.0
 10
6.175434825070183
 20
3.218557830343449
 30
0.0
 10
6.17802220941229
 20
3.215326716421181
 30
0.0
 10
6.178297621476893
 20
3.214982783074368
 30
0.0
  0
LINE
  5
B58
330
2
100
AcDbEntity
  8
PART
 62
     1
100
AcDbLine
 10
5.479317314477953
 20
3.26950695324999
 30
0.0
 11
6.053947431277954
 21
3.237249165849988
 31
0.0
  0
LINE
  5
B59
330
2
100
AcDbEntity
  8
PART
 62
     1
100
AcDbLine
 10
5.479317314477953
 20
3.28859099944999
 30
0.0
 11
5.479317314477953
 21
3.26950695324999
 31
0.0
  0
LINE
  5
B5A
330
2
100
AcDbEntity
  8
PART
 62
     1
100
AcDbLine
 10
6.053947431277954
 20
3.260783320649988
 30
0.0
 11
5.479317314477953
 21
3.28859099944999
 31
0.0
  0
SPLINE
  5
B5B
330
2
100
AcDbEntity
  8
PART
 62
     1
100
AcDbSpline
210
0.0
220
0.0
230
1.0
 70
     8
 71
     3
 72
    13
 73
     9
 74
     0
 42
0.0000000001
 43
0.0000000001
 40
0.0
 40
0.0
 40
0.0
 40
0.0
 40
0.4217521429013388
 40
0.8462581440777285
 40
0.9340887585586395
 40
0.9739409586734586
 40
0.9925448049635727
 40
1.0
 40
1.0
 40
1.0
 40
1.0
 10
6.122290228479073
 20
3.260534576856159
 30
0.0
 10
6.114507220086291
 20
3.260286066708228
 30
0.0
 10
6.098890383636984
 20
3.259787423749081
 30
0.0
 10
6.075649307070353
 20
3.260008230969816
 30
0.0
 10
6.060740229615355
 20
3.26049429831599
 30
0.0
 10
6.056704880315933
 20
3.260660238856829
 30
0.0
 10
6.054877614515032
 20
3.26074100512201
 30
0.0
 10
6.054154349267143
 20
3.260773907619405
 30
0.0
 10
6.053947431314234
 20
3.260783320649313
 30
0.0
  0
SPLINE
  5
B5C
330
2
100
AcDbEntity
  8
PART
 62
     1
100
AcDbSpline
210
0.0
220
0.0
230
1.0
 70
     8
 71
     3
 72
     9
 73
     5
 74
     0
 42
0.0000000001
 43
0.0000000001
 40
0.0
 40
0.0
 40
0.0
 40
0.0
 40
0.4807121542526901
 40
1.0
 40
1.0
 40
1.0
 40
1.0
 10
6.178297621476893
 20
3.270051666913907
 30
0.0
 10
6.175268248949016
 20
3.2680722145321
 30
0.0
 10
6.168966405941521
 20
3.26395446472215
 30
0.0
 10
6.138244000313715
 20
3.26170348385926
 30
0.0
 10
6.122290228479073
 20
3.260534576856159
 30
0.0
  0
ARC
  5
B5D
330
2
100
AcDbEntity
  8
PART
 62
     1
100
AcDbCircle
 10
5.957589812477952
 20
3.65236436784999
 30
0.0
 40
0.1598134050237719
100
AcDbArc
 50
27.89981681509992
 51
85.84563641349985
  0
SPLINE
  5
B5E
330
2
100
AcDbEntity
  8
PART
 62
     1
100
AcDbSpline
210
0.0
220
0.0
230
1.0
 70
     8
 71
     3
 72
    14
 73
    10
 74
     0
 42
0.0000000001
 43
0.0000000001
 40
0.0
 40
0.0
 40
0.0
 40
0.0
 40
0.0020908145744492
 40
0.0455124730628417
 40
0.1851078665520547
 40
0.3569082867947331
 40
0.6128913263845788
 40
0.7981780631798105
 40
1.0
 40
1.0
 40
1.0
 40
1.0
 10
5.939714337611356
 20
3.616636249805921
 30
0.0
 10
5.939751717330192
 20
3.616817912365011
 30
0.0
 10
5.940565392281431
 20
3.620772310057152
 30
0.0
 10
5.943848196178315
 20
3.636892906508428
 30
0.0
 10
5.949890594557984
 20
3.667901387069811
 30
0.0
 10
5.958445179598015
 20
3.715577786099917
 30
0.0
 10
5.965309460151022
 20
3.760407938907057
 30
0.0
 10
5.969320914701963
 20
3.795708067357136
 30
0.0
 10
5.969219945214984
 20
3.80625772255426
 30
0.0
 10
5.969167304034844
 20
3.811757862411049
 30
0.0
  0
SPLINE
  5
B5F
330
2
100
AcDbEntity
  8
PART
 62
     1
100
AcDbSpline
210
0.0
220
0.0
230
1.0
 70
     8
 71
     3
 72
    12
 73
     8
 74
     0
 42
0.0000000001
 43
0.0000000001
 40
0.0
 40
0.0
 40
0.0
 40
0.0
 40
0.1147992511394565
 40
0.7337962547715982
 40
0.8726543999976213
 40
0.9706006659304147
 40
1.0
 40
1.0
 40
1.0
 40
1.0
 10
6.034699120339041
 20
3.271273092803902
 30
0.0
 10
6.030774132887042
 20
3.272792860991362
 30
0.0
 10
6.005685632189496
 20
3.282507211851743
 30
0.0
 10
5.973521124470785
 20
3.296179728642041
 30
0.0
 10
5.948228326091495
 20
3.318543572990037
 30
0.0
 10
5.941976031891016
 20
3.32730776641679
 30
0.0
 10
5.9403151342247
 20
3.33205912122052
 30
0.0
 10
5.939931695100426
 20
3.333156031260248
 30
0.0
  0
ARC
  5
B60
330
2
100
AcDbEntity
  8
PART
 62
     1
100
AcDbCircle
 10
5.959981343877952
 20
3.933797928349989
 30
0.0
 40
0.6009764362795093
100
AcDbArc
 50
268.088155555
 51
285.1938164271
  0
SPLINE
  5
B61
330
2
100
AcDbEntity
  8
PART
 62
     1
100
AcDbSpline
210
0.0
220
0.0
230
1.0
 70
     8
 71
     3
 72
     9
 73
     5
 74
     0
 42
0.0000000001
 43
0.0000000001
 40
0.0
 40
0.0
 40
0.0
 40
0.0
 40
0.5202569838862774
 40
1.0
 40
1.0
 40
1.0
 40
1.0
 10
6.100218250123123
 20
3.27012998600917
 30
0.0
 10
6.109036422642745
 20
3.27541928129327
 30
0.0
 10
6.125986070206835
 20
3.285585978613859
 30
0.0
 10
6.125430360027817
 20
3.301683174829435
 30
0.0
 10
6.125163761950446
 20
3.309405692292859
 30
0.0
  0
ARC
  5
B62
330
2
100
AcDbEntity
  8
PART
 62
     1
100
AcDbCircle
 10
6.064524102877953
 20
3.10250091064999
 30
0.0
 40
0.1713872196036802
100
AcDbArc
 50
77.97923959609999
 51
100.0216938463001
  0
LINE
  5
B63
330
2
100
AcDbEntity
  8
PART
 62
     1
100
AcDbLine
 10
5.939931695077962
 20
3.333156031249988
 30
0.0
 11
5.939714337577953
 21
3.344886589049991
 31
0.0
  0
ARC
  5
B64
330
2
100
AcDbEntity
  8
PART
 62
     1
100
AcDbCircle
 10
6.127389397877955
 20
3.302447412849993
 30
0.0
 40
0.0422218823477737
100
AcDbArc
 50
229.9442738033999
 51
263.0634117599
  0
LINE
  5
B65
330
2
100
AcDbEntity
  8
PART
 62
     1
100
AcDbLine
 10
5.939714337577953
 20
3.616636249849989
 30
0.0
 11
5.301630312577952
 21
3.642974932249991
 31
0.0
  0
ARC
  5
B66
330
2
100
AcDbEntity
  8
PART
 62
     1
100
AcDbCircle
 10
3.910728052277953
 20
3.741371948849991
 30
0.0
 40
1.394378381446209
100
AcDbArc
 50
355.9534489402
 51
4.046551059799998
  0
SPLINE
  5
B67
330
2
100
AcDbEntity
  8
PART
 62
     1
100
AcDbSpline
210
0.0
220
0.0
230
1.0
 70
     8
 71
     3
 72
     9
 73
     5
 74
     0
 42
0.0000000001
 43
0.0000000001
 40
0.0
 40
0.0
 40
0.0
 40
0.0
 40
0.6979023421524967
 40
1.0
 40
1.0
 40
1.0
 40
1.0
 10
5.301630312562451
 20
3.64297493220587
 30
0.0
 10
5.294674922874474
 20
3.643815030177609
 30
0.0
 10
5.284708786829522
 20
3.645018777351101
 30
0.0
 10
5.275891269185564
 20
3.644041819860319
 30
0.0
 10
5.273227517757305
 20
3.643746683290526
 30
0.0
  0
ARC
  5
B68
330
2
100
AcDbEntity
  8
PART
 62
     1
100
AcDbCircle
 10
5.057007300477952
 20
3.665733484349992
 30
0.0
 40
0.2173352290269045
100
AcDbArc
 50
354.1937178032999
 51
52.92859322640006
  0
ELLIPSE
  5
B69
330
2
100
AcDbEntity
  8
PART
 62
     1
100
AcDbEllipse
 10
5.489130314877964
 20
3.542215560649989
 30
0.0
 11
-0.1665620295212715
 21
-0.0865103783520098
 31
0.0
210
0.0
220
0.0
230
1.0
 40
0.9952650588
 41
5.80608633812154
 42
7.324522787356608
  0
LINE
  5
B6A
330
2
100
AcDbEntity
  8
PART
 62
     1
100
AcDbLine
 10
5.301630312577952
 20
3.642974932249991
 30
0.0
 11
5.301630312577952
 21
3.54148951794999
 31
0.0
  0
LINE
  5
B6B
330
2
100
AcDbEntity
  8
PART
 62
     1
100
AcDbLine
 10
5.479317314477953
 20
3.355446173749989
 30
0.0
 11
5.939931695077962
 21
3.333156031249988
 31
0.0
  0
SPLINE
  5
B6C
330
2
100
AcDbEntity
  8
PART
 62
     1
100
AcDbSpline
210
0.0
220
0.0
230
1.0
 70
     8
 71
     3
 72
    13
 73
     9
 74
     0
 42
0.0000000001
 43
0.0000000001
 40
0.0
 40
0.0
 40
0.0
 40
0.0
 40
0.1471933018175501
 40
0.3012795585378852
 40
0.6280239431733822
 40
0.8304538162143293
 40
0.9492364988343892
 40
1.0
 40
1.0
 40
1.0
 40
1.0
 10
5.273227517757305
 20
3.643746683290526
 30
0.0
 10
5.270347070506126
 20
3.643774418811887
 30
0.0
 10
5.264451286761111
 20
3.643831188688828
 30
0.0
 10
5.254954732036022
 20
3.649260771047547
 30
0.0
 10
5.247798954281567
 20
3.657049684808587
 30
0.0
 10
5.243598010912815
 20
3.662097097930992
 30
0.0
 10
5.242486125401363
 20
3.662307100472649
 30
0.0
 10
5.242420854837451
 20
3.66144615052584
 30
0.0
 10
5.242401312301765
 20
3.661188375135957
 30
0.0
  0
ARC
  5
B6D
330
2
100
AcDbEntity
  8
PART
 62
     1
100
AcDbCircle
 10
5.056433241677954
 20
3.660831787849993
 30
0.0
 40
0.1860158147972634
100
AcDbArc
 50
11.26535738470009
 51
57.20242429710009
  0
ARC
  5
B6E
330
2
100
AcDbEntity
  8
PART
 62
     1
100
AcDbCircle
 10
5.287424263377953
 20
3.341278775849989
 30
0.0
 40
0.2007141078246195
100
AcDbArc
 50
85.94135271660011
 51
102.9625324388999
  0
ARC
  5
B6F
330
2
100
AcDbEntity
  8
PART
 62
     1
100
AcDbCircle
 10
5.837524958677953
 20
3.32201858654999
 30
0.0
 40
0.3597639781358941
100
AcDbArc
 50
174.6686539945001
 51
185.3313460054999
  0
SPLINE
  5
B70
330
2
100
AcDbEntity
  8
PART
 62
     1
100
AcDbSpline
210
0.0
220
0.0
230
1.0
 70
     8
 71
     3
 72
    12
 73
     8
 74
     0
 42
0.0000000001
 43
0.0000000001
 40
0.0
 40
0.0
 40
0.0
 40
0.0
 40
0.1497591853761268
 40
0.3001467911003345
 40
0.4748608063420541
 40
0.7816996238680387
 40
1.0
 40
1.0
 40
1.0
 40
1.0
 10
6.053947431314234
 20
3.260783320649313
 30
0.0
 10
6.054448985113793
 20
3.260943671780378
 30
0.0
 10
6.055454197335823
 20
3.261265046908839
 30
0.0
 10
6.054108417647196
 20
3.26268695160461
 30
0.0
 10
6.049739208028515
 20
3.26512172203899
 30
0.0
 10
6.042817646978644
 20
3.268120195170062
 30
0.0
 10
6.037083009347753
 20
3.270347289594951
 30
0.0
 10
6.034699120339041
 20
3.271273092803902
 30
0.0
  0
SPLINE
  5
B71
330
2
100
AcDbEntity
  8
PART
 62
     1
100
AcDbSpline
210
0.0
220
0.0
230
1.0
 70
     8
 71
     3
 72
    15
 73
    11
 74
     0
 42
0.0000000001
 43
0.0000000001
 40
0.0
 40
0.0
 40
0.0
 40
0.0
 40
0.0087213168748348
 40
0.0157270363877669
 40
0.0551158166733691
 40
0.1190126646456042
 40
0.1499383532805534
 40
0.216517138472227
 40
0.6173358108987861
 40
1.0
 40
1.0
 40
1.0
 40
1.0
 10
6.053947431314234
 20
3.260783320649313
 30
0.0
 10
6.054045123233532
 20
3.260793870243958
 30
0.0
 10
6.054221289790874
 20
3.26081289418968
 30
0.0
 10
6.054814824218514
 20
3.260896629878601
 30
0.0
 10
6.055881916569454
 20
3.261138759443067
 30
0.0
 10
6.057447014161486
 20
3.261587213995579
 30
0.0
 10
6.059984723707195
 20
3.262109850874708
 30
0.0
 10
6.068816805777565
 20
3.26365293885124
 30
0.0
 10
6.084752766170414
 20
3.266141327971936
 30
0.0
 10
6.095143343941582
 20
3.26882113169907
 30
0.0
 10
6.100218250123123
 20
3.27012998600917
 30
0.0
  0
ARC
  5
B72
330
2
100
AcDbEntity
  8
PART
 62
     1
100
AcDbCircle
 10
6.709374904477954
 20
3.13048074584999
 30
0.0
 40
0.081323151223485
100
AcDbArc
 50
26.59033459349996
 51
57.4514079571999
  0
ARC
  5
B73
330
2
100
AcDbEntity
  8
PART
 62
     1
100
AcDbCircle
 10
5.054965364377952
 20
3.643444933549989
 30
0.0
 40
0.187444226679695
100
AcDbArc
 50
28.05964003940001
 51
56.94964796079999
  0
SPLINE
  5
B74
330
2
100
AcDbEntity
  8
PART
 62
     1
100
AcDbSpline
210
0.0
220
0.0
230
1.0
 70
     8
 71
     3
 72
    13
 73
     9
 74
     0
 42
0.0000000001
 43
0.0000000001
 40
0.0
 40
0.0
 40
0.0
 40
0.0
 40
0.1861320662094213
 40
0.5260563114533918
 40
0.7541925744454111
 40
0.9395637385670667
 40
0.9972248129872768
 40
1.0
 40
1.0
 40
1.0
 40
1.0
 10
6.097401329331106
 20
8.87214175109122
 30
0.0
 10
6.091699145499525
 20
8.872319513800952
 30
0.0
 10
6.075583331310411
 20
8.872821916193476
 30
0.0
 10
6.036154648338275
 20
8.876867584711639
 30
0.0
 10
5.990773748163945
 20
8.88267659266615
 30
0.0
 10
5.960075296204315
 20
8.887109039272438
 30
0.0
 10
5.943886378875589
 20
8.889590123029588
 30
0.0
 10
5.939897503715251
 20
8.890207741495039
 30
0.0
 10
5.939714337611356
 20
8.890236102063738
 30
0.0
  0
LINE
  5
B75
330
2
100
AcDbEntity
  8
PART
 62
     1
100
AcDbLine
 10
5.939714337577953
 20
8.890236102049993
 30
0.0
 11
5.939714337577953
 21
9.161986056149991
 31
0.0
  0
ARC
  5
B76
330
2
100
AcDbEntity
  8
PART
 62
     1
100
AcDbCircle
 10
5.982331089177954
 20
9.76262337724999
 30
0.0
 40
0.6021473067471039
100
AcDbArc
 50
265.9415195156001
 51
282.9625556721
  0
LWPOLYLINE
  5
B77
330
2
100
AcDbEntity
  8
PART
 62
     1
100
AcDbPolyline
 90
        3
 70
   128
 43
0.0
 10
6.130575992777956
 20
9.232092206249987
 10
6.128759253777957
 20
9.228984082149988
 10
6.125163761977965
 20
9.221049507149988
  0
ARC
  5
B78
330
2
100
AcDbEntity
  8
PART
 62
     1
100
AcDbCircle
 10
5.959502790877952
 20
8.875378178449992
 30
0.0
 40
0.1568462921827225
100
AcDbArc
 50
273.5326739573
 51
331.5454566761999
  0
SPLINE
  5
B79
330
2
100
AcDbEntity
  8
PART
 62
     1
100
AcDbSpline
210
0.0
220
0.0
230
1.0
 70
     8
 71
     3
 72
    14
 73
    10
 74
     0
 42
0.0000000001
 43
0.0000000001
 40
0.0
 40
0.0
 40
0.0
 40
0.0
 40
0.2018218911763042
 40
0.3871083348880172
 40
0.6430915721981492
 40
0.8148922298398947
 40
0.9544884972715328
 40
0.9979098639336415
 40
1.0
 40
1.0
 40
1.0
 40
1.0
 10
5.969167304034847
 20
8.718829922162548
 30
0.0
 10
5.969219944894753
 20
8.72173388423803
 30
0.0
 10
5.969320913702013
 20
8.7273038841873
 30
0.0
 10
5.96530946668625
 20
8.755438720509371
 30
0.0
 10
5.958445112070386
 20
8.795033345915928
 30
0.0
 10
5.949890726723396
 20
8.839879830164019
 30
0.0
 10
5.943847873749206
 20
8.870092964456318
 30
0.0
 10
5.940565645589536
 20
8.88610744297933
 30
0.0
 10
5.939751717616616
 20
8.890054817144211
 30
0.0
 10
5.939714337611356
 20
8.890236102063738
 30
0.0
  0
ARC
  5
B7A
330
2
100
AcDbEntity
  8
PART
 62
     1
100
AcDbCircle
 10
4.289001563177954
 20
8.772458115949991
 30
0.0
 40
1.016316321384391
100
AcDbArc
 50
355.1176957682001
 51
4.882304231799921
  0
LINE
  5
B7B
330
2
100
AcDbEntity
  8
PART
 62
     1
100
AcDbLine
 10
5.301630312577955
 20
8.858955983449991
 30
0.0
 11
5.939714337577953
 21
8.890236102049993
 31
0.0
  0
ARC
  5
B7C
330
2
100
AcDbEntity
  8
PART
 62
     1
100
AcDbCircle
 10
6.005067955377963
 20
9.789452900749992
 30
0.0
 40
0.6191704944330354
100
AcDbArc
 50
263.9613547371
 51
280.4609886724001
  0
SPLINE
  5
B7D
330
2
100
AcDbEntity
  8
PART
 62
     1
100
AcDbSpline
210
0.0
220
0.0
230
1.0
 70
     8
 71
     3
 72
    12
 73
     8
 74
     0
 42
0.0000000001
 43
0.0000000001
 40
0.0
 40
0.0
 40
0.0
 40
0.0
 40
0.0954856556738665
 40
0.2051054776284109
 40
0.4768108617209856
 40
0.8249560788694541
 40
1.0
 40
1.0
 40
1.0
 40
1.0
 10
5.939931695100426
 20
9.173718080589058
 30
0.0
 10
5.941501746152823
 20
9.17717863909349
 30
0.0
 10
5.944874253454926
 20
9.184612001726883
 30
0.0
 10
5.95852160416063
 20
9.197662233454941
 30
0.0
 10
5.982553572051095
 20
9.212270474011617
 30
0.0
 10
6.010651287733146
 20
9.22373787521148
 30
0.0
 10
6.028670435708178
 20
9.22953250993202
 30
0.0
 10
6.034699120339041
 20
9.231471226753118
 30
0.0
  0
ARC
  5
B7E
330
2
100
AcDbEntity
  8
PART
 62
     1
100
AcDbCircle
 10
6.052844966577954
 20
9.390169345849987
 30
0.0
 40
0.1597321656217167
100
AcDbArc
 50
263.4770199492
 51
287.2522744625001
  0
SPLINE
  5
B7F
330
2
100
AcDbEntity
  8
PART
 62
     1
100
AcDbSpline
210
0.0
220
0.0
230
1.0
 70
     8
 71
     3
 72
     9
 73
     5
 74
     0
 42
0.0000000001
 43
0.0000000001
 40
0.0
 40
0.0
 40
0.0
 40
0.0
 40
0.7035207625394109
 40
1.0
 40
1.0
 40
1.0
 40
1.0
 10
6.125163761950446
 20
9.221049507145721
 30
0.0
 10
6.125063104475913
 20
9.226728083746881
 30
0.0
 10
6.124920027711326
 20
9.23479973834976
 30
0.0
 10
6.105867059584674
 20
9.23697801002055
 30
0.0
 10
6.100218250123127
 20
9.237623822344477
 30
0.0
  0
LINE
  5
B80
330
2
100
AcDbEntity
  8
PART
 62
     1
100
AcDbLine
 10
5.939714337577953
 20
9.161986056149991
 30
0.0
 11
5.939931695077966
 21
9.173718080549992
 31
0.0
  0
LWPOLYLINE
  5
B81
330
2
100
AcDbEntity
  8
PART
 62
     1
100
AcDbPolyline
 90
        9
 70
   128
 43
0.0
 10
5.188019124177955
 20
8.68189220224999
 10
5.204725504277952
 20
8.687319392849992
 10
5.220581736377965
 20
8.698566396249987
 10
5.235079506577953
 20
8.71527300324999
 10
5.247754049877968
 20
8.736903153349988
 10
5.258199051377964
 20
8.762764001249987
 10
5.266079667377965
 20
8.792026009949992
 10
5.271143264077963
 20
8.823751403449989
 10
5.273227517777954
 20
8.85692291354999
  0
SPLINE
  5
B82
330
2
100
AcDbEntity
  8
PART
 62
     1
100
AcDbSpline
210
0.0
220
0.0
230
1.0
 70
     8
 71
     3
 72
     9
 73
     5
 74
     0
 42
0.0000000001
 43
0.0000000001
 40
0.0
 40
0.0
 40
0.0
 40
0.0
 40
0.646555048445229
 40
1.0
 40
1.0
 40
1.0
 40
1.0
 10
5.273227517757305
 20
8.856922913567203
 30
0.0
 10
5.279122425857394
 20
8.85686136866369
 30
0.0
 10
5.288239836840858
 20
8.856766179702368
 30
0.0
 10
5.298133461037565
 20
8.858384127820208
 30
0.0
 10
5.301630312562451
 20
8.858955983414336
 30
0.0
  0
ARC
  5
B83
330
2
100
AcDbEntity
  8
PART
 62
     1
100
AcDbCircle
 10
6.122228877577963
 20
9.206638808549989
 30
0.0
 40
0.0380070888082912
100
AcDbArc
 50
89.90751339379974
 51
125.3886020596001
  0
ELLIPSE
  5
B84
330
2
100
AcDbEntity
  8
PART
 62
     1
100
AcDbEllipse
 10
5.489130314877968
 20
8.961167486849991
 30
0.0
 11
-0.1665620295212717
 21
-0.0865103783520028
 31
0.0
210
0.0
220
0.0
230
1.0
 40
0.9952650587999997
 41
4.287649888886511
 42
5.806086338121552
  0
LINE
  5
B85
330
2
100
AcDbEntity
  8
PART
 62
     1
100
AcDbLine
 10
5.939931695077966
 20
9.173718080549992
 30
0.0
 11
5.479317314477953
 21
9.147860752649993
 31
0.0
  0
LINE
  5
B86
330
2
100
AcDbEntity
  8
PART
 62
     1
100
AcDbLine
 10
5.301630312577955
 20
8.960441397749988
 30
0.0
 11
5.301630312577955
 21
8.858955983449991
 31
0.0
  0
SPLINE
  5
B87
330
2
100
AcDbEntity
  8
PART
 62
     1
100
AcDbSpline
210
0.0
220
0.0
230
1.0
 70
     8
 71
     3
 72
    13
 73
     9
 74
     0
 42
0.0000000001
 43
0.0000000001
 40
0.0
 40
0.0
 40
0.0
 40
0.0
 40
0.1340080588661934
 40
0.2915891604921262
 40
0.6115286400855192
 40
0.7671598515520736
 40
0.9383498415358426
 40
1.0
 40
1.0
 40
1.0
 40
1.0
 10
5.242401312301765
 20
8.831519367031127
 30
0.0
 10
5.242539748772848
 20
8.831486429289721
 30
0.0
 10
5.242840973749366
 20
8.831414759806186
 30
0.0
 10
5.246244402785293
 20
8.837086378576366
 30
0.0
 10
5.252072209312323
 20
8.845857770514882
 30
0.0
 10
5.260660717311516
 20
8.853553288411582
 30
0.0
 10
5.267401672727388
 20
8.856818813351885
 30
0.0
 10
5.27200790454475
 20
8.85690112067753
 30
0.0
 10
5.273227517757305
 20
8.856922913567203
 30
0.0
  0
SPLINE
  5
B88
330
2
100
AcDbEntity
  8
PART
 62
     1
100
AcDbSpline
210
0.0
220
0.0
230
1.0
 70
     8
 71
     3
 72
    11
 73
     7
 74
     0
 42
0.0000000001
 43
0.0000000001
 40
0.0
 40
0.0
 40
0.0
 40
0.0
 40
0.2627530684866468
 40
0.7136312546892026
 40
0.809277732974899
 40
1.0
 40
1.0
 40
1.0
 40
1.0
 10
6.189546531528534
 20
3.203386277038191
 30
0.0
 10
6.190404931996244
 20
3.202455533003508
 30
0.0
 10
6.192736327805736
 20
3.199927653739969
 30
0.0
 10
6.199033975555725
 20
3.194450370260859
 30
0.0
 10
6.206294920908725
 20
3.188434501134707
 30
0.0
 10
6.209509803424325
 20
3.18583143086526
 30
0.0
 10
6.211650922843372
 20
3.184097779860561
 30
0.0
  0
LINE
  5
B89
330
2
100
AcDbEntity
  8
PART
 62
     1
100
AcDbLine
 10
6.188798760177963
 20
3.205375934049989
 30
0.0
 11
6.189546531577953
 21
3.203386277049993
 31
0.0
  0
ARC
  5
B8A
330
2
100
AcDbEntity
  8
PART
 62
     1
100
AcDbCircle
 10
5.755877700077963
 20
9.177866645449988
 30
0.0
 40
0.2781833935935547
100
AcDbArc
 50
174.2678937179999
 51
186.1921823992
  0
ARC
  5
B8B
330
2
100
AcDbEntity
  8
PART
 62
     1
100
AcDbCircle
 10
5.287422940077963
 20
8.76024765284999
 30
0.0
 40
0.2006972469195571
100
AcDbArc
 50
85.94063242210006
 51
102.9632527333999
  0
ARC
  5
B8C
330
2
100
AcDbEntity
  8
PART
 62
     1
100
AcDbCircle
 10
6.181193019177953
 20
3.274733640949989
 30
0.0
 40
0.0598209691164148
100
AcDbArc
 50
239.2985450267998
 51
267.2257402191
  0
SPLINE
  5
B8D
330
2
100
AcDbEntity
  8
PART
 62
     1
100
AcDbSpline
210
0.0
220
0.0
230
1.0
 70
     8
 71
     3
 72
    11
 73
     7
 74
     0
 42
0.0000000001
 43
0.0000000001
 40
0.0
 40
0.0
 40
0.0
 40
0.0
 40
0.3040699370567878
 40
0.6826454317756163
 40
0.8446020291690484
 40
1.0
 40
1.0
 40
1.0
 40
1.0
 10
6.034699120339041
 20
9.231471226753118
 30
0.0
 10
6.03760577591877
 20
9.232371932157711
 30
0.0
 10
6.044131298212931
 20
9.23439404074157
 30
0.0
 10
6.051151377385409
 20
9.236619929844476
 30
0.0
 10
6.054771391844056
 20
9.237832830070058
 30
0.0
 10
6.054864187782598
 20
9.237921334208863
 30
0.0
 10
6.054909626865544
 20
9.237964671740289
 30
0.0
  0
ARC
  5
B8E
330
2
100
AcDbEntity
  8
PART
 62
     1
100
AcDbCircle
 10
6.191218837677965
 20
3.263906237349988
 30
0.0
 40
0.0585803139446053
100
AcDbArc
 50
240.2900618155001
 51
267.6323155429
  0
ARC
  5
B8F
330
2
100
AcDbEntity
  8
PART
 62
     1
100
AcDbCircle
 10
6.192920901777952
 20
3.257093905649988
 30
0.0
 40
0.0538135275617343
100
AcDbArc
 50
236.5338752427999
 51
266.4049170783999
  0
LINE
  5
B90
330
2
100
AcDbEntity
  8
PART
 62
     1
100
AcDbLine
 10
7.538340536777965
 20
8.699881981049987
 30
0.0
 11
7.353401286577955
 21
8.699881981049987
 31
0.0
  0
ELLIPSE
  5
B91
330
2
100
AcDbEntity
  8
PART
 62
     1
100
AcDbEllipse
 10
7.349666757577953
 20
6.234119337749987
 30
0.0
 11
0.3509274468353036
 21
2.586279138447114
 31
0.0
210
0.0
220
0.0
230
1.0
 40
0.338144848
 41
0.3776395293879973
 42
0.4056864568774747
  0
LINE
  5
B93
330
2
100
AcDbEntity
  8
PART
100
AcDbLine
 10
5.032401314577955
 20
8.467499999999981
 30
0.0
 11
5.132401314577955
 21
8.467499999999983
 31
0.0
  0
LINE
  5
B96
330
2
100
AcDbEntity
  8
PART
100
AcDbLine
 10
5.032401314577955
 20
4.007499999999983
 30
0.0
 11
5.132401314577955
 21
4.007499999999983
 31
0.0
  0
ENDSEC
  0
SECTION
  2
OBJECTS
  0
DICTIONARY
  5
1B
330
0
100
AcDbDictionary
281
     1
  3
ACAD_COLOR
350
50A
  3
ACAD_GROUP
350
19
  3
ACAD_LAYOUT
350
26A
  3
ACAD_MATERIAL
350
509
  3
ACAD_MLINESTYLE
350
1A
  3
ACAD_PLOTSETTINGS
350
269
  3
ACAD_PLOTSTYLENAME
350
267
  3
ACAD_TABLESTYLE
350
50B
  3
AcDbVariableDictionary
350
4C7
  3
ASE_INDEX_DICTIONARY
350
513
  0
DICTIONARY
  5
B94
330
2
100
AcDbDictionary
280
     1
281
     1
  3
ACAD_SORTENTS
360
B95
  0
DICTIONARY
  5
50A
102
{ACAD_REACTORS
330
1B
102
}
330
1B
100
AcDbDictionary
281
     1
  0
DICTIONARY
  5
19
102
{ACAD_REACTORS
330
1B
102
}
330
1B
100
AcDbDictionary
281
     1
  0
DICTIONARY
  5
26A
102
{ACAD_REACTORS
330
1B
102
}
330
1B
100
AcDbDictionary
281
     1
  3
Layout1
350
26C
  3
Model
350
26B
  0
DICTIONARY
  5
509
102
{ACAD_REACTORS
330
1B
102
}
330
1B
100
AcDbDictionary
281
     1
  0
DICTIONARY
  5
1A
102
{ACAD_REACTORS
330
1B
102
}
330
1B
100
AcDbDictionary
281
     1
  3
STANDARD
350
1D
  0
DICTIONARY
  5
269
102
{ACAD_REACTORS
330
1B
102
}
330
1B
100
AcDbDictionary
281
     1
  0
ACDBDICTIONARYWDFLT
  5
267
102
{ACAD_REACTORS
330
1B
102
}
330
1B
100
AcDbDictionary
281
     1
  3
Normal
350
268
100
AcDbDictionaryWithDefault
340
268
  0
DICTIONARY
  5
50B
102
{ACAD_REACTORS
330
1B
102
}
330
1B
100
AcDbDictionary
281
     1
  3
Standard
350
50C
  0
DICTIONARY
  5
4C7
102
{ACAD_REACTORS
330
1B
102
}
330
1B
100
AcDbDictionary
281
     1
  3
CTABLESTYLE
350
516
  3
DIMASSOC
350
4C8
  0
DICTIONARY
  5
513
102
{ACAD_REACTORS
330
1B
102
}
330
1B
100
AcDbDictionary
281
     1
  3
ASEBlockHierarchyIndexRecord
350
515
1001
DCO15
1040
1511513254.886
  0
SORTENTSTABLE
  5
B95
102
{ACAD_REACTORS
330
B94
102
}
330
B94
100
AcDbSortentsTable
330
2
331
B6C
  5
B6D
331
B52
  5
B53
331
B30
  5
B31
331
B8E
  5
B8F
331
A7D
  5
A7E
331
A08
  5
A09
331
A9F
  5
AA0
331
AC1
  5
AC2
331
230
  5
231
331
AE3
  5
AE4
331
A4C
  5
A4D
331
AFD
  5
AFE
331
464
  5
465
331
B1F
  5
B20
331
486
  5
487
331
B7D
  5
B7E
331
B63
  5
B64
331
B41
  5
B42
331
A8E
  5
A8F
331
9FF
  5
A00
331
AB0
  5
AB1
331
4B8
  5
4B9
331
AD2
  5
AD3
331
A5D
  5
A5E
331
A3B
  5
A3C
331
B0E
  5
B0F
331
475
  5
476
331
A19
  5
A1A
331
4A8
  5
4A9
331
497
  5
498
331
A6E
  5
A6F
331
24A
  5
24B
331
B6A
  5
B6B
331
B50
  5
B51
331
B8C
  5
B8D
331
A7B
  5
A7C
331
ABF
  5
AC0
331
A06
  5
A07
331
A9D
  5
A9E
331
AE1
  5
AE2
331
248
  5
249
331
AFB
  5
AFC
331
462
  5
463
331
B1D
  5
B1E
331
484
  5
485
331
B7B
  5
B7C
331
B61
  5
B62
331
B3F
  5
B40
331
A8C
  5
A8D
331
9FD
  5
9FE
331
AAE
  5
AAF
331
4B6
  5
4B7
331
AD0
  5
AD1
331
23F
  5
240
331
A17
  5
A18
331
4A6
  5
4A7
331
A6C
  5
A6D
331
A4A
  5
A4B
331
A5B
  5
A5C
331
B0C
  5
B0D
331
473
  5
474
331
B2E
  5
B2F
331
495
  5
496
331
A39
  5
A3A
331
B68
  5
B69
331
B8A
  5
B8B
331
A79
  5
A7A
331
A04
  5
A05
331
A9B
  5
A9C
331
ABD
  5
ABE
331
4C5
  5
4CF
331
ADF
  5
AE0
331
246
  5
247
331
AF9
  5
AFA
331
460
  5
461
331
B1B
  5
B1C
331
482
  5
483
331
B79
  5
B7A
331
B5F
  5
B60
331
B3D
  5
B3E
331
A8A
  5
A8B
331
4A4
  5
4A5
331
A6A
  5
A6B
331
A48
  5
A49
331
AAC
  5
AAD
331
4B4
  5
4B5
331
A15
  5
A16
331
ACE
  5
ACF
331
23D
  5
23E
331
A59
  5
A5A
331
B0A
  5
B0B
331
471
  5
472
331
B4E
  5
B4F
331
B2C
  5
B2D
331
493
  5
494
331
A37
  5
A38
331
213
  5
213
331
B88
  5
B89
331
A99
  5
A9A
331
A02
  5
A03
331
ABB
  5
ABC
331
4C3
  5
4C4
331
ADD
  5
ADE
331
244
  5
245
331
AF7
  5
AF8
331
45E
  5
460
331
B19
  5
B1A
331
480
  5
481
331
B77
  5
B78
331
B5D
  5
B5E
331
B3B
  5
B3C
331
4A2
  5
4A3
331
252
  5
429
331
A68
  5
A69
331
A88
  5
A89
331
A46
  5
A47
331
AAA
  5
AAB
331
4B2
  5
4B3
331
A13
  5
A14
331
ACC
  5
ACD
331
23B
  5
23C
331
AEE
  5
AEF
331
A57
  5
A58
331
B4C
  5
B4D
331
B2A
  5
B2B
331
B08
  5
B09
331
46F
  5
470
331
A35
  5
A36
331
211
  5
211
331
A00
  5
A01
331
AB9
  5
ABA
331
4C1
  5
4C2
331
ADB
  5
ADC
331
242
  5
243
331
AF5
  5
AF6
331
A66
  5
A67
331
B17
  5
B18
331
47E
  5
47F
331
B75
  5
B76
331
B5B
  5
B5C
331
B39
  5
B3A
331
4A0
  5
4A1
331
250
  5
251
331
A86
  5
A87
331
A44
  5
A45
331
228
  5
228
331
AA8
  5
AA9
331
4B0
  5
4B1
331
ACA
  5
ACB
331
239
  5
23A
331
A11
  5
A12
331
AEC
  5
AED
331
A55
  5
A56
331
B06
  5
B07
331
46D
  5
46E
331
B4A
  5
B4B
331
B28
  5
B29
331
48F
  5
492
331
A77
  5
A78
331
A33
  5
A34
331
207
  5
207
331
B86
  5
B87
331
A97
  5
A98
331
3C
  5
3C
331
AD9
  5
ADA
331
240
  5
241
331
AF3
  5
AF4
331
A42
  5
A43
331
B15
  5
B16
331
47C
  5
47D
331
A64
  5
A65
331
B73
  5
B74
331
B59
  5
B5A
331
B37
  5
B38
331
A84
  5
A85
331
49E
  5
49F
331
AA6
  5
AA7
331
A0F
  5
A10
331
AC8
  5
AC9
331
237
  5
238
331
AEA
  5
AEB
331
A53
  5
A54
331
B04
  5
B05
331
46B
  5
46C
331
B26
  5
B27
331
48D
  5
48E
331
B84
  5
B85
331
B48
  5
B49
331
4AF
  5
4B0
331
A75
  5
A76
331
A31
  5
A32
331
205
  5
205
331
AB7
  5
AB8
331
4BF
  5
4C0
331
21E
  5
21E
331
A95
  5
A96
331
AF1
  5
AF2
331
A40
  5
A41
331
A62
  5
A63
331
B13
  5
B14
331
47A
  5
47B
331
B71
  5
B72
331
B57
  5
B58
331
B35
  5
B36
331
B93
  5
B97
331
A82
  5
A83
331
A0D
  5
A0E
331
AA4
  5
AA5
331
AC6
  5
AC7
331
235
  5
236
331
49C
  5
49D
331
AE8
  5
AE9
331
24F
  5
250
331
B02
  5
B03
331
469
  5
46A
331
B24
  5
B25
331
48B
  5
48C
331
B82
  5
B83
331
B46
  5
B47
331
A93
  5
A94
331
4AD
  5
4AE
331
A73
  5
A74
331
A51
  5
A52
331
A2F
  5
A30
331
AB5
  5
AB6
331
4BD
  5
4BE
331
AD7
  5
AD8
331
A1E
  5
A2D
331
21C
  5
21C
331
A60
  5
A61
331
B11
  5
B12
331
478
  5
479
331
B6F
  5
B70
331
B55
  5
B56
331
B33
  5
B34
331
49A
  5
49B
331
B91
  5
B92
331
AA2
  5
AA3
331
A0B
  5
A0C
331
AC4
  5
AC5
331
233
  5
234
331
AE6
  5
AE7
331
24D
  5
24E
331
B00
  5
B01
331
467
  5
468
331
B22
  5
B23
331
489
  5
48A
331
B80
  5
B81
331
B66
  5
B67
331
B44
  5
B45
331
A91
  5
A92
331
AB3
  5
AB4
331
4BB
  5
4BC
331
AD5
  5
AD6
331
A3E
  5
A3F
331
A1C
  5
A1D
331
4AB
  5
4AC
331
A71
  5
A72
331
A4F
  5
A50
331
A2D
  5
A2E
331
A80
  5
A81
331
B6D
  5
B6E
331
B53
  5
B54
331
B31
  5
B32
331
498
  5
499
331
B8F
  5
B90
331
A7E
  5
A7F
331
A09
  5
A0A
331
AA0
  5
AA1
331
AC2
  5
AC3
331
231
  5
232
331
AE4
  5
AE5
331
A4D
  5
A4E
331
AFE
  5
AFF
331
465
  5
466
331
B20
  5
B21
331
487
  5
488
331
B7E
  5
B7F
331
B64
  5
B65
331
B42
  5
B43
331
A8F
  5
A90
331
AB1
  5
AB2
331
4B9
  5
4BA
331
AD3
  5
AD4
331
A3C
  5
A3D
331
A5E
  5
A5F
331
A1A
  5
A1B
331
4A9
  5
4AA
331
A6F
  5
A70
331
B0F
  5
B10
331
476
  5
477
331
24B
  5
24C
331
B6B
  5
B6C
331
B51
  5
B52
331
B8D
  5
B8E
331
A7C
  5
A7D
331
AC0
  5
AC1
331
A07
  5
A08
331
A9E
  5
A9F
331
AE2
  5
AE3
331
249
  5
24A
331
AFC
  5
AFD
331
463
  5
464
331
B1E
  5
B1F
331
485
  5
486
331
B7C
  5
B7D
331
B62
  5
B63
331
B40
  5
B41
331
A8D
  5
A8E
331
9FE
  5
9FF
331
AAF
  5
AB0
331
4B7
  5
4B8
331
AD1
  5
AD2
331
A5C
  5
A5D
331
A3A
  5
A3B
331
B0D
  5
B0E
331
474
  5
475
331
A18
  5
A19
331
4A7
  5
4A8
331
B2F
  5
B30
331
496
  5
497
331
A6D
  5
A6E
331
A4B
  5
A4C
331
B69
  5
B6A
331
A7A
  5
A7B
331
B8B
  5
B8C
331
A9C
  5
A9D
331
ABE
  5
ABF
331
A05
  5
A06
331
AE0
  5
AE1
331
247
  5
248
331
AFA
  5
AFB
331
461
  5
462
331
B1C
  5
B1D
331
483
  5
484
331
B60
  5
B61
331
B3E
  5
B3F
331
B7A
  5
B7B
331
429
  5
444
331
4A5
  5
4A6
331
A6B
  5
A6C
331
9FC
  5
9FD
331
A8B
  5
A8C
331
A49
  5
A4A
331
AAD
  5
AAE
331
4B5
  5
4B6
331
A16
  5
A17
331
ACF
  5
AD0
331
23E
  5
23F
331
A5A
  5
A5B
331
B0B
  5
B0C
331
472
  5
473
331
B4F
  5
B50
331
B2D
  5
B2E
331
494
  5
495
331
A38
  5
A39
331
214
  5
214
331
1FB
  5
1FB
331
B89
  5
B8A
331
A78
  5
A79
331
A9A
  5
A9B
331
A03
  5
A04
331
ABC
  5
ABD
331
4C4
  5
4C5
331
ADE
  5
ADF
331
245
  5
246
331
AF8
  5
AF9
331
B1A
  5
B1B
331
481
  5
482
331
A69
  5
A6A
331
B78
  5
B79
331
B5E
  5
B5F
331
B3C
  5
B3D
331
A89
  5
A8A
331
4A3
  5
4A4
331
A47
  5
A48
331
AAB
  5
AAC
331
4B3
  5
4B4
331
A14
  5
A15
331
ACD
  5
ACE
331
23C
  5
23D
331
AEF
  5
AF0
331
A58
  5
A59
331
B09
  5
B0A
331
470
  5
471
331
B4D
  5
B4E
331
B2B
  5
B2C
331
492
  5
493
331
A36
  5
A37
331
212
  5
212
331
A98
  5
A99
331
A01
  5
A02
331
ABA
  5
ABB
331
4C2
  5
4C3
331
ADC
  5
ADD
331
243
  5
244
331
AF6
  5
AF7
331
A67
  5
A68
331
B18
  5
B19
331
47F
  5
480
331
B76
  5
B77
331
B5C
  5
B5D
331
B3A
  5
B3B
331
4A1
  5
4A2
331
251
  5
252
331
AA9
  5
AAA
331
4B1
  5
4B2
331
ACB
  5
ACC
331
23A
  5
23B
331
A12
  5
A13
331
A87
  5
A88
331
A45
  5
A46
331
AED
  5
AEE
331
A56
  5
A57
331
B87
  5
B88
331
B4B
  5
B4C
331
B29
  5
B2A
331
B07
  5
B08
331
46E
  5
46F
331
A34
  5
A35
331
229
  5
229
331
AB8
  5
AB9
331
4C0
  5
4C1
331
ADA
  5
ADB
331
241
  5
242
331
AF4
  5
AF5
331
A65
  5
A66
331
B16
  5
B17
331
47D
  5
47E
331
B74
  5
B75
331
B5A
  5
B5B
331
B38
  5
B39
331
A85
  5
A86
331
A10
  5
A11
331
AA7
  5
AA8
331
AC9
  5
ACA
331
238
  5
239
331
49F
  5
4A0
331
A43
  5
A44
331
AEB
  5
AEC
331
A54
  5
A55
331
B05
  5
B06
331
46C
  5
46D
331
B85
  5
B86
331
B49
  5
B4A
331
B27
  5
B28
331
48E
  5
48F
331
A96
  5
A97
331
A76
  5
A77
331
A32
  5
A33
331
21F
  5
21F
331
AD8
  5
AD9
331
AF2
  5
AF3
331
A41
  5
A42
331
B14
  5
B15
331
47B
  5
47C
331
A63
  5
A64
331
B72
  5
B73
331
B58
  5
B59
331
B36
  5
B37
331
A83
  5
A84
331
49D
  5
49E
331
AA5
  5
AA6
331
A0E
  5
A0F
331
204
  5
204
331
AC7
  5
AC8
331
236
  5
237
331
AE9
  5
AEA
331
A30
  5
A31
331
B03
  5
B04
331
46A
  5
46B
331
A52
  5
A53
331
B25
  5
B26
331
48C
  5
48D
331
B83
  5
B84
331
B47
  5
B48
331
A94
  5
A95
331
4AE
  5
4AF
331
A74
  5
A75
331
AB6
  5
AB7
331
4BE
  5
4BF
331
21D
  5
21D
331
1E
  5
1E
331
AF0
  5
AF1
331
A61
  5
A62
331
B12
  5
B13
331
479
  5
47A
331
B70
  5
B71
331
B56
  5
B57
331
B34
  5
B35
331
A81
  5
A82
331
A0C
  5
A0D
331
AA3
  5
AA4
331
AC5
  5
AC6
331
234
  5
235
331
49B
  5
49C
331
AE7
  5
AE8
331
24E
  5
24F
331
B01
  5
B02
331
468
  5
469
331
B23
  5
B24
331
48A
  5
48B
331
B81
  5
B82
331
B67
  5
B68
331
B45
  5
B46
331
4AC
  5
4AD
331
A72
  5
A73
331
A50
  5
A51
331
A2E
  5
A2F
331
AB4
  5
AB5
331
4BC
  5
4BD
331
AD6
  5
AD7
331
A3F
  5
A40
331
A1D
  5
A1E
331
A92
  5
A93
331
B10
  5
B11
331
B6E
  5
B6F
331
B54
  5
B55
331
B32
  5
B33
331
499
  5
49A
331
B90
  5
B91
331
AA1
  5
AA2
331
A0A
  5
A0B
331
AC3
  5
AC4
331
232
  5
233
331
A7F
  5
A80
331
AE5
  5
AE6
331
A4E
  5
A4F
331
AFF
  5
B00
331
466
  5
467
331
B21
  5
B22
331
488
  5
489
331
B7F
  5
B80
331
B65
  5
B66
331
B43
  5
B44
331
A90
  5
A91
331
AB2
  5
AB3
331
4BA
  5
4BB
331
AD4
  5
AD5
331
A5F
  5
A60
331
A3D
  5
A3E
331
477
  5
478
331
A1B
  5
A1C
331
4AA
  5
4AB
331
A70
  5
A71
331
24C
  5
24D
  0
LAYOUT
  5
26C
102
{ACAD_REACTORS
330
26A
102
}
330
26A
100
AcDbPlotSettings
  1

  2

  4

  6

 40
0.0
 41
0.0
 42
0.0
 43
0.0
 44
0.0
 45
0.0
 46
0.0
 47
0.0
 48
0.0
 49
0.0
140
0.0
141
0.0
142
1.0
143
1.0
 70
   688
 72
     0
 73
     0
 74
     5
  7
monochrome.ctb
 75
    16
147
1.0
 76
     0
 77
     2
 78
   300
148
0.0
149
0.0
100
AcDbLayout
  1
Layout1
 70
     1
 71
     1
 10
0.0
 20
0.0
 11
12.0
 21
9.0
 12
0.0
 22
0.0
 32
0.0
 14
1.000000000000000E+20
 24
1.000000000000000E+20
 34
1.000000000000000E+20
 15
-1.000000000000000E+20
 25
-1.000000000000000E+20
 35
-1.000000000000000E+20
146
0.0
 13
0.0
 23
0.0
 33
0.0
 16
1.0
 26
0.0
 36
0.0
 17
0.0
 27
1.0
 37
0.0
 76
     0
330
3
  0
LAYOUT
  5
26B
102
{ACAD_REACTORS
330
26A
102
}
330
26A
100
AcDbPlotSettings
  1

  2
HPGL.pc3
  4
ANSI_A_(11.00_x_8.50_Inches)
  6

 40
11.5657377243042
 41
9.699920654296876
 42
11.59060668945312
 43
9.737228393554687
 44
279.3999938964844
 45
215.8999938964844
 46
0.0
 47
1.27
 48
-6.686416596340315
 49
-3.060255117328161
140
14.21358340365968
141
12.73974488267184
142
1.0
143
2.07170012240941
 70
 11956
 72
     0
 73
     0
 74
     4
  7
monochrome.ctb
 75
     0
147
0.4826953424306354
 76
     0
 77
     2
 78
   300
148
169.834981547044
149
77.73047998013528
100
AcDbLayout
  1
Model
 70
     1
 71
     0
 10
0.0
 20
0.0
 11
12.0
 21
9.0
 12
0.0
 22
0.0
 32
0.0
 14
0.0
 24
0.0
 34
0.0
 15
0.0
 25
0.0
 35
0.0
146
0.0
 13
0.0
 23
0.0
 33
0.0
 16
1.0
 26
0.0
 36
0.0
 17
0.0
 27
1.0
 37
0.0
 76
     0
330
2
  0
MLINESTYLE
  5
1D
102
{ACAD_REACTORS
330
1A
102
}
330
1A
100
AcDbMlineStyle
  2
STANDARD
 70
     0
  3

 62
     0
 51
90.0
 52
90.0
 71
     2
 49
0.5
 62
   256
  6
BYLAYER
 49
-0.5
 62
   256
  6
BYLAYER
  0
ACDBPLACEHOLDER
  5
268
102
{ACAD_REACTORS
330
267
102
}
330
267
  0
TABLESTYLE
  5
50C
102
{ACAD_REACTORS
330
50B
102
}
330
50B
100
AcDbTableStyle
  3
Standard
 70
     0
 71
     0
 40
0.06
 41
0.06
280
     0
281
     0
  7
STANDARD
140
0.18
170
     2
 62
     0
 63
     7
283
     0
274
    -2
284
     1
 64
     0
275
    -2
285
     1
 65
     0
276
    -2
286
     1
 66
     0
277
    -2
287
     1
 67
     0
278
    -2
288
     1
 68
     0
279
    -2
289
     1
 69
     0
  7
STANDARD
140
0.25
170
     5
 62
     0
 63
     7
283
     0
274
    -2
284
     1
 64
     0
275
    -2
285
     1
 65
     0
276
    -2
286
     1
 66
     0
277
    -2
287
     1
 67
     0
278
    -2
288
     1
 68
     0
279
    -2
289
     1
 69
     0
  7
STANDARD
140
0.18
170
     5
 62
     0
 63
     7
283
     0
274
    -2
284
     1
 64
     0
275
    -2
285
     1
 65
     0
276
    -2
286
     1
 66
     0
277
    -2
287
     1
 67
     0
278
    -2
288
     1
 68
     0
279
    -2
289
     1
 69
     0
  0
DICTIONARYVAR
  5
516
102
{ACAD_REACTORS
330
4C7
102
}
330
4C7
100
DictionaryVariables
280
     0
  1
STANDARD
  0
DICTIONARYVAR
  5
4C8
102
{ACAD_REACTORS
330
4C7
102
}
330
4C7
100
DictionaryVariables
280
     0
  1
0
  0
XRECORD
  5
515
102
{ACAD_REACTORS
330
513
102
}
330
513
100
AcDbXrecord
280
     1
330
429
330
444
330
4CF
330
4E7
330
4F8
330
CD
330
CE
330
F5
330
2F9
330
3A2
  0
ENDSEC
  0
EOF
